ISO-10303-21;
HEADER;
FILE_DESCRIPTION (( 'STEP AP214' ),
    '1' );
FILE_NAME ('GECLIP - 001.STEP',
    '2021-05-19T13:53:07',
    ( '' ),
    ( '' ),
    'SwSTEP 2.0',
    'SolidWorks 2017',
    '' );
FILE_SCHEMA (( 'AUTOMOTIVE_DESIGN' ));
ENDSEC;

DATA;
#1 = LINE ( 'NONE', #103, #164 ) ;
#2 = AXIS2_PLACEMENT_3D ( 'NONE', #175, #128, #94 ) ;
#3 = VERTEX_POINT ( 'NONE', #189 ) ;
#4 = CARTESIAN_POINT ( 'NONE',  ( 0.0000000000000000000, 0.0000000000000000000, 2.600000000000000100 ) ) ;
#5 = CARTESIAN_POINT ( 'NONE',  ( 2.000000000000000000, 2.449293598294706400E-016, 0.0000000000000000000 ) ) ;
#6 = DIRECTION ( 'NONE',  ( 1.000000000000000000, 0.0000000000000000000, 0.0000000000000000000 ) ) ;
#7 = VERTEX_POINT ( 'NONE', #185 ) ;
#8 = EDGE_CURVE ( 'NONE', #159, #193, #111, .T. ) ;
#9 = CARTESIAN_POINT ( 'NONE',  ( 0.0000000000000000000, 0.0000000000000000000, 0.0000000000000000000 ) ) ;
#10 = AXIS2_PLACEMENT_3D ( 'NONE', #73, #89, #90 ) ;
#11 = CARTESIAN_POINT ( 'NONE',  ( -2.000000000000000000, 0.0000000000000000000, 2.600000000000000100 ) ) ;
#12 = DIRECTION ( 'NONE',  ( 0.0000000000000000000, 0.0000000000000000000, 1.000000000000000000 ) ) ;
#13 = DIRECTION ( 'NONE',  ( 1.000000000000000000, 0.0000000000000000000, 0.0000000000000000000 ) ) ;
#14 = PRESENTATION_STYLE_ASSIGNMENT (( #23 ) ) ;
#15 = VERTEX_POINT ( 'NONE', #5 ) ;
#16 = CIRCLE ( 'NONE', #113, 4.000000000000000000 ) ;
#17 =( GEOMETRIC_REPRESENTATION_CONTEXT ( 3 ) GLOBAL_UNCERTAINTY_ASSIGNED_CONTEXT ( ( #180 ) ) GLOBAL_UNIT_ASSIGNED_CONTEXT ( ( #30, #126, #143 ) ) REPRESENTATION_CONTEXT ( 'NONE', 'WORKASPACE' ) );
#18 = ORIENTED_EDGE ( 'NONE', *, *, #8, .F. ) ;
#19 = LINE ( 'NONE', #79, #210 ) ;
#20 = STYLED_ITEM ( 'NONE', ( #14 ), #44 ) ;
#21 = AXIS2_PLACEMENT_3D ( 'NONE', #59, #58, #24 ) ;
#22 = ADVANCED_BREP_SHAPE_REPRESENTATION ( 'GECLIP - 001', ( #44, #201 ), #17 ) ;
#23 = SURFACE_STYLE_USAGE ( .BOTH. , #74 ) ;
#24 = DIRECTION ( 'NONE',  ( 1.000000000000000000, 0.0000000000000000000, -0.0000000000000000000 ) ) ;
#25 = ORIENTED_EDGE ( 'NONE', *, *, #141, .F. ) ;
#26 =( NAMED_UNIT ( * ) SI_UNIT ( $, .STERADIAN. ) SOLID_ANGLE_UNIT ( ) );
#27 = FACE_OUTER_BOUND ( 'NONE', #212, .T. ) ;
#28 = STYLED_ITEM ( 'NONE', ( #134 ), #22 ) ;
#29 = DIRECTION ( 'NONE',  ( 0.0000000000000000000, 0.0000000000000000000, 1.000000000000000000 ) ) ;
#30 =( LENGTH_UNIT ( ) NAMED_UNIT ( * ) SI_UNIT ( .MILLI., .METRE. ) );
#31 = PRODUCT_DEFINITION_SHAPE ( 'NONE', 'NONE',  #51 ) ;
#32 = UNCERTAINTY_MEASURE_WITH_UNIT (LENGTH_MEASURE( 1.000000000000000100E-005 ), #176, 'distance_accuracy_value', 'NONE');
#33 = SURFACE_STYLE_FILL_AREA ( #170 ) ;
#34 = ORIENTED_EDGE ( 'NONE', *, *, #197, .F. ) ;
#35 = VECTOR ( 'NONE', #55, 1000.000000000000000 ) ;
#36 = CIRCLE ( 'NONE', #69, 4.000000000000000000 ) ;
#37 = DIRECTION ( 'NONE',  ( 0.0000000000000000000, 0.0000000000000000000, 1.000000000000000000 ) ) ;
#38 = COLOUR_RGB ( '',0.7921568627450980000, 0.8196078431372548800, 0.9333333333333333500 ) ;
#39 = CYLINDRICAL_SURFACE ( 'NONE', #183, 4.000000000000000000 ) ;
#40 = DIRECTION ( 'NONE',  ( 0.0000000000000000000, 0.0000000000000000000, 1.000000000000000000 ) ) ;
#41 = DIRECTION ( 'NONE',  ( 0.0000000000000000000, 0.0000000000000000000, 1.000000000000000000 ) ) ;
#42 = ORIENTED_EDGE ( 'NONE', *, *, #174, .F. ) ;
#43 = APPLICATION_CONTEXT ( 'automotive_design' ) ;
#44 = MANIFOLD_SOLID_BREP ( 'Boss-Extrude1', #60 ) ;
#45 = DIRECTION ( 'NONE',  ( -0.0000000000000000000, -0.0000000000000000000, -1.000000000000000000 ) ) ;
#46 = ORIENTED_EDGE ( 'NONE', *, *, #141, .T. ) ;
#47 = CIRCLE ( 'NONE', #206, 2.000000000000000000 ) ;
#48 = APPLICATION_CONTEXT ( 'automotive_design' ) ;
#49 = EDGE_LOOP ( 'NONE', ( #121, #148, #187, #163 ) ) ;
#50 = PRESENTATION_LAYER_ASSIGNMENT (  '', '', ( #28 ) ) ;
#51 = PRODUCT_DEFINITION ( 'UNKNOWN', '', #57, #97 ) ;
#52 = ORIENTED_EDGE ( 'NONE', *, *, #108, .F. ) ;
#53 = FACE_OUTER_BOUND ( 'NONE', #132, .T. ) ;
#54 = AXIS2_PLACEMENT_3D ( 'NONE', #4, #106, #62 ) ;
#55 = DIRECTION ( 'NONE',  ( -0.0000000000000000000, -0.0000000000000000000, -1.000000000000000000 ) ) ;
#56 = DIRECTION ( 'NONE',  ( 1.000000000000000000, 0.0000000000000000000, -0.0000000000000000000 ) ) ;
#57 = PRODUCT_DEFINITION_FORMATION_WITH_SPECIFIED_SOURCE ( 'ANY', '', #204, .NOT_KNOWN. ) ;
#58 = DIRECTION ( 'NONE',  ( 0.0000000000000000000, 0.0000000000000000000, 1.000000000000000000 ) ) ;
#59 = CARTESIAN_POINT ( 'NONE',  ( 0.0000000000000000000, 0.0000000000000000000, 2.600000000000000100 ) ) ;
#60 = CLOSED_SHELL ( 'NONE', ( #68, #161, #130, #131, #199, #84 ) ) ;
#61 = VECTOR ( 'NONE', #45, 1000.000000000000000 ) ;
#62 = DIRECTION ( 'NONE',  ( -1.000000000000000000, 0.0000000000000000000, 0.0000000000000000000 ) ) ;
#63 = CARTESIAN_POINT ( 'NONE',  ( 0.0000000000000000000, 0.0000000000000000000, 0.0000000000000000000 ) ) ;
#64 = DIRECTION ( 'NONE',  ( 1.000000000000000000, 0.0000000000000000000, 0.0000000000000000000 ) ) ;
#65 = DIRECTION ( 'NONE',  ( 0.0000000000000000000, 0.0000000000000000000, 1.000000000000000000 ) ) ;
#66 = CARTESIAN_POINT ( 'NONE',  ( 0.0000000000000000000, 0.0000000000000000000, 2.600000000000000100 ) ) ;
#67 = ORIENTED_EDGE ( 'NONE', *, *, #116, .T. ) ;
#68 = ADVANCED_FACE ( 'NONE', ( #102 ), #96, .F. ) ;
#69 = AXIS2_PLACEMENT_3D ( 'NONE', #155, #37, #151 ) ;
#70 = ORIENTED_EDGE ( 'NONE', *, *, #184, .T. ) ;
#71 = FACE_OUTER_BOUND ( 'NONE', #125, .T. ) ;
#72 = AXIS2_PLACEMENT_3D ( 'NONE', #63, #209, #109 ) ;
#73 = CARTESIAN_POINT ( 'NONE',  ( 0.0000000000000000000, 0.0000000000000000000, 2.600000000000000100 ) ) ;
#74 = SURFACE_SIDE_STYLE ('',( #33 ) ) ;
#75 =( NAMED_UNIT ( * ) PLANE_ANGLE_UNIT ( ) SI_UNIT ( $, .RADIAN. ) );
#76 = CYLINDRICAL_SURFACE ( 'NONE', #2, 4.000000000000000000 ) ;
#77 = CARTESIAN_POINT ( 'NONE',  ( 0.0000000000000000000, 0.0000000000000000000, 0.0000000000000000000 ) ) ;
#78 = DIRECTION ( 'NONE',  ( 1.000000000000000000, 0.0000000000000000000, 0.0000000000000000000 ) ) ;
#79 = CARTESIAN_POINT ( 'NONE',  ( 4.000000000000000000, 4.898587196589412800E-016, 2.600000000000000100 ) ) ;
#80 = FACE_OUTER_BOUND ( 'NONE', #149, .T. ) ;
#81 = PRESENTATION_LAYER_ASSIGNMENT (  '', '', ( #20 ) ) ;
#82 = CIRCLE ( 'NONE', #179, 4.000000000000000000 ) ;
#83 = VERTEX_POINT ( 'NONE', #136 ) ;
#84 = ADVANCED_FACE ( 'NONE', ( #181 ), #146, .F. ) ;
#85 = EDGE_CURVE ( 'NONE', #159, #3, #139, .T. ) ;
#86 = AXIS2_PLACEMENT_3D ( 'NONE', #124, #29, #78 ) ;
#87 = COLOUR_RGB ( '',0.7921568627450980000, 0.8196078431372548800, 0.9333333333333333500 ) ;
#88 = ORIENTED_EDGE ( 'NONE', *, *, #133, .T. ) ;
#89 = DIRECTION ( 'NONE',  ( 0.0000000000000000000, 0.0000000000000000000, 1.000000000000000000 ) ) ;
#90 = DIRECTION ( 'NONE',  ( 1.000000000000000000, 0.0000000000000000000, 0.0000000000000000000 ) ) ;
#91 = ORIENTED_EDGE ( 'NONE', *, *, #133, .F. ) ;
#92 = PLANE ( 'NONE',  #167 ) ;
#93 = MECHANICAL_DESIGN_GEOMETRIC_PRESENTATION_REPRESENTATION (  '', ( #20 ), #198 ) ;
#94 = DIRECTION ( 'NONE',  ( -1.000000000000000000, 0.0000000000000000000, 0.0000000000000000000 ) ) ;
#95 = PRODUCT_CONTEXT ( 'NONE', #48, 'mechanical' ) ;
#96 = CYLINDRICAL_SURFACE ( 'NONE', #195, 2.000000000000000000 ) ;
#97 = PRODUCT_DEFINITION_CONTEXT ( 'detailed design', #43, 'design' ) ;
#98 = EDGE_LOOP ( 'NONE', ( #52, #34 ) ) ;
#99 = CIRCLE ( 'NONE', #86, 2.000000000000000000 ) ;
#100 = AXIS2_PLACEMENT_3D ( 'NONE', #77, #12, #64 ) ;
#101 = DIRECTION ( 'NONE',  ( 1.000000000000000000, 0.0000000000000000000, 0.0000000000000000000 ) ) ;
#102 = FACE_OUTER_BOUND ( 'NONE', #166, .T. ) ;
#103 = CARTESIAN_POINT ( 'NONE',  ( 2.000000000000000000, 2.449293598294706400E-016, 2.600000000000000100 ) ) ;
#104 = ORIENTED_EDGE ( 'NONE', *, *, #150, .T. ) ;
#105 = LINE ( 'NONE', #11, #61 ) ;
#106 = DIRECTION ( 'NONE',  ( -0.0000000000000000000, -0.0000000000000000000, -1.000000000000000000 ) ) ;
#107 = SURFACE_STYLE_USAGE ( .BOTH. , #158 ) ;
#108 = EDGE_CURVE ( 'NONE', #7, #144, #47, .T. ) ;
#109 = DIRECTION ( 'NONE',  ( 1.000000000000000000, 0.0000000000000000000, 0.0000000000000000000 ) ) ;
#110 = DIRECTION ( 'NONE',  ( 0.0000000000000000000, 0.0000000000000000000, 1.000000000000000000 ) ) ;
#111 = LINE ( 'NONE', #205, #35 ) ;
#112 = ORIENTED_EDGE ( 'NONE', *, *, #178, .T. ) ;
#113 = AXIS2_PLACEMENT_3D ( 'NONE', #157, #65, #208 ) ;
#114 = EDGE_LOOP ( 'NONE', ( #145, #104 ) ) ;
#115 = ORIENTED_EDGE ( 'NONE', *, *, #162, .F. ) ;
#116 = EDGE_CURVE ( 'NONE', #144, #15, #1, .T. ) ;
#117 = DIRECTION ( 'NONE',  ( -0.0000000000000000000, -0.0000000000000000000, -1.000000000000000000 ) ) ;
#118 = PLANE ( 'NONE',  #21 ) ;
#119 = DIRECTION ( 'NONE',  ( -0.0000000000000000000, -0.0000000000000000000, -1.000000000000000000 ) ) ;
#120 = FILL_AREA_STYLE_COLOUR ( '', #38 ) ;
#121 = ORIENTED_EDGE ( 'NONE', *, *, #116, .F. ) ;
#122 = DIRECTION ( 'NONE',  ( -0.0000000000000000000, -0.0000000000000000000, -1.000000000000000000 ) ) ;
#123 = APPLICATION_PROTOCOL_DEFINITION ( 'draft international standard', 'automotive_design', 1998, #48 ) ;
#124 = CARTESIAN_POINT ( 'NONE',  ( 0.0000000000000000000, 0.0000000000000000000, 2.600000000000000100 ) ) ;
#125 = EDGE_LOOP ( 'NONE', ( #202, #25 ) ) ;
#126 =( NAMED_UNIT ( * ) PLANE_ANGLE_UNIT ( ) SI_UNIT ( $, .RADIAN. ) );
#127 = FACE_BOUND ( 'NONE', #98, .T. ) ;
#128 = DIRECTION ( 'NONE',  ( -0.0000000000000000000, -0.0000000000000000000, -1.000000000000000000 ) ) ;
#129 = VERTEX_POINT ( 'NONE', #188 ) ;
#130 = ADVANCED_FACE ( 'NONE', ( #53, #127 ), #118, .T. ) ;
#131 = ADVANCED_FACE ( 'NONE', ( #71, #160 ), #92, .F. ) ;
#132 = EDGE_LOOP ( 'NONE', ( #169, #88 ) ) ;
#133 = EDGE_CURVE ( 'NONE', #3, #159, #36, .T. ) ;
#134 = PRESENTATION_STYLE_ASSIGNMENT (( #107 ) ) ;
#135 = UNCERTAINTY_MEASURE_WITH_UNIT (LENGTH_MEASURE( 1.000000000000000100E-005 ), #172, 'distance_accuracy_value', 'NONE');
#136 = CARTESIAN_POINT ( 'NONE',  ( 4.000000000000000000, 4.898587196589412800E-016, 0.0000000000000000000 ) ) ;
#137 = DIRECTION ( 'NONE',  ( -1.000000000000000000, 0.0000000000000000000, 0.0000000000000000000 ) ) ;
#138 = CARTESIAN_POINT ( 'NONE',  ( 0.0000000000000000000, 0.0000000000000000000, 0.0000000000000000000 ) ) ;
#139 = CIRCLE ( 'NONE', #10, 4.000000000000000000 ) ;
#140 =( NAMED_UNIT ( * ) SI_UNIT ( $, .STERADIAN. ) SOLID_ANGLE_UNIT ( ) );
#141 = EDGE_CURVE ( 'NONE', #83, #193, #82, .T. ) ;
#142 = APPLICATION_PROTOCOL_DEFINITION ( 'draft international standard', 'automotive_design', 1998, #43 ) ;
#143 =( NAMED_UNIT ( * ) SI_UNIT ( $, .STERADIAN. ) SOLID_ANGLE_UNIT ( ) );
#144 = VERTEX_POINT ( 'NONE', #154 ) ;
#145 = ORIENTED_EDGE ( 'NONE', *, *, #162, .T. ) ;
#146 = CYLINDRICAL_SURFACE ( 'NONE', #54, 2.000000000000000000 ) ;
#147 =( GEOMETRIC_REPRESENTATION_CONTEXT ( 3 ) GLOBAL_UNCERTAINTY_ASSIGNED_CONTEXT ( ( #32 ) ) GLOBAL_UNIT_ASSIGNED_CONTEXT ( ( #176, #192, #140 ) ) REPRESENTATION_CONTEXT ( 'NONE', 'WORKASPACE' ) );
#148 = ORIENTED_EDGE ( 'NONE', *, *, #197, .T. ) ;
#149 = EDGE_LOOP ( 'NONE', ( #182, #177, #153, #112 ) ) ;
#150 = EDGE_CURVE ( 'NONE', #15, #129, #171, .T. ) ;
#151 = DIRECTION ( 'NONE',  ( 1.000000000000000000, 0.0000000000000000000, 0.0000000000000000000 ) ) ;
#152 = CARTESIAN_POINT ( 'NONE',  ( 0.0000000000000000000, 0.0000000000000000000, 0.0000000000000000000 ) ) ;
#153 = ORIENTED_EDGE ( 'NONE', *, *, #8, .T. ) ;
#154 = CARTESIAN_POINT ( 'NONE',  ( 2.000000000000000000, 2.449293598294706400E-016, 2.600000000000000100 ) ) ;
#155 = CARTESIAN_POINT ( 'NONE',  ( 0.0000000000000000000, 0.0000000000000000000, 2.600000000000000100 ) ) ;
#156 = DIRECTION ( 'NONE',  ( -1.000000000000000000, 0.0000000000000000000, 0.0000000000000000000 ) ) ;
#157 = CARTESIAN_POINT ( 'NONE',  ( 0.0000000000000000000, 0.0000000000000000000, 0.0000000000000000000 ) ) ;
#158 = SURFACE_SIDE_STYLE ('',( #214 ) ) ;
#159 = VERTEX_POINT ( 'NONE', #168 ) ;
#160 = FACE_BOUND ( 'NONE', #114, .T. ) ;
#161 = ADVANCED_FACE ( 'NONE', ( #27 ), #39, .T. ) ;
#162 = EDGE_CURVE ( 'NONE', #129, #15, #194, .T. ) ;
#163 = ORIENTED_EDGE ( 'NONE', *, *, #150, .F. ) ;
#164 = VECTOR ( 'NONE', #119, 1000.000000000000000 ) ;
#165 = SHAPE_DEFINITION_REPRESENTATION ( #31, #22 ) ;
#166 = EDGE_LOOP ( 'NONE', ( #173, #67, #115, #42 ) ) ;
#167 = AXIS2_PLACEMENT_3D ( 'NONE', #138, #41, #56 ) ;
#168 = CARTESIAN_POINT ( 'NONE',  ( -4.000000000000000000, 0.0000000000000000000, 2.600000000000000100 ) ) ;
#169 = ORIENTED_EDGE ( 'NONE', *, *, #85, .T. ) ;
#170 = FILL_AREA_STYLE ('',( #120 ) ) ;
#171 = CIRCLE ( 'NONE', #72, 2.000000000000000000 ) ;
#172 =( LENGTH_UNIT ( ) NAMED_UNIT ( * ) SI_UNIT ( .MILLI., .METRE. ) );
#173 = ORIENTED_EDGE ( 'NONE', *, *, #108, .T. ) ;
#174 = EDGE_CURVE ( 'NONE', #7, #129, #105, .T. ) ;
#175 = CARTESIAN_POINT ( 'NONE',  ( 0.0000000000000000000, 0.0000000000000000000, 2.600000000000000100 ) ) ;
#176 =( LENGTH_UNIT ( ) NAMED_UNIT ( * ) SI_UNIT ( .MILLI., .METRE. ) );
#177 = ORIENTED_EDGE ( 'NONE', *, *, #85, .F. ) ;
#178 = EDGE_CURVE ( 'NONE', #193, #83, #16, .T. ) ;
#179 = AXIS2_PLACEMENT_3D ( 'NONE', #152, #200, #101 ) ;
#180 = UNCERTAINTY_MEASURE_WITH_UNIT (LENGTH_MEASURE( 1.000000000000000100E-005 ), #30, 'distance_accuracy_value', 'NONE');
#181 = FACE_OUTER_BOUND ( 'NONE', #49, .T. ) ;
#182 = ORIENTED_EDGE ( 'NONE', *, *, #184, .F. ) ;
#183 = AXIS2_PLACEMENT_3D ( 'NONE', #66, #191, #156 ) ;
#184 = EDGE_CURVE ( 'NONE', #3, #83, #19, .T. ) ;
#185 = CARTESIAN_POINT ( 'NONE',  ( -2.000000000000000000, 0.0000000000000000000, 2.600000000000000100 ) ) ;
#186 = CARTESIAN_POINT ( 'NONE',  ( 0.0000000000000000000, 0.0000000000000000000, 2.600000000000000100 ) ) ;
#187 = ORIENTED_EDGE ( 'NONE', *, *, #174, .T. ) ;
#188 = CARTESIAN_POINT ( 'NONE',  ( -2.000000000000000000, 0.0000000000000000000, 0.0000000000000000000 ) ) ;
#189 = CARTESIAN_POINT ( 'NONE',  ( 4.000000000000000000, 4.898587196589412800E-016, 2.600000000000000100 ) ) ;
#190 = FILL_AREA_STYLE ('',( #211 ) ) ;
#191 = DIRECTION ( 'NONE',  ( -0.0000000000000000000, -0.0000000000000000000, -1.000000000000000000 ) ) ;
#192 =( NAMED_UNIT ( * ) PLANE_ANGLE_UNIT ( ) SI_UNIT ( $, .RADIAN. ) );
#193 = VERTEX_POINT ( 'NONE', #207 ) ;
#194 = CIRCLE ( 'NONE', #100, 2.000000000000000000 ) ;
#195 = AXIS2_PLACEMENT_3D ( 'NONE', #186, #117, #137 ) ;
#196 = PRODUCT_RELATED_PRODUCT_CATEGORY ( 'part', '', ( #204 ) ) ;
#197 = EDGE_CURVE ( 'NONE', #144, #7, #99, .T. ) ;
#198 =( GEOMETRIC_REPRESENTATION_CONTEXT ( 3 ) GLOBAL_UNCERTAINTY_ASSIGNED_CONTEXT ( ( #135 ) ) GLOBAL_UNIT_ASSIGNED_CONTEXT ( ( #172, #75, #26 ) ) REPRESENTATION_CONTEXT ( 'NONE', 'WORKASPACE' ) );
#199 = ADVANCED_FACE ( 'NONE', ( #80 ), #76, .T. ) ;
#200 = DIRECTION ( 'NONE',  ( 0.0000000000000000000, 0.0000000000000000000, 1.000000000000000000 ) ) ;
#201 = AXIS2_PLACEMENT_3D ( 'NONE', #9, #110, #13 ) ;
#202 = ORIENTED_EDGE ( 'NONE', *, *, #178, .F. ) ;
#203 = CARTESIAN_POINT ( 'NONE',  ( 0.0000000000000000000, 0.0000000000000000000, 2.600000000000000100 ) ) ;
#204 = PRODUCT ( 'GECLIP - 001', 'GECLIP - 001', '', ( #95 ) ) ;
#205 = CARTESIAN_POINT ( 'NONE',  ( -4.000000000000000000, 0.0000000000000000000, 2.600000000000000100 ) ) ;
#206 = AXIS2_PLACEMENT_3D ( 'NONE', #203, #40, #6 ) ;
#207 = CARTESIAN_POINT ( 'NONE',  ( -4.000000000000000000, 0.0000000000000000000, 0.0000000000000000000 ) ) ;
#208 = DIRECTION ( 'NONE',  ( 1.000000000000000000, 0.0000000000000000000, 0.0000000000000000000 ) ) ;
#209 = DIRECTION ( 'NONE',  ( 0.0000000000000000000, 0.0000000000000000000, 1.000000000000000000 ) ) ;
#210 = VECTOR ( 'NONE', #122, 1000.000000000000000 ) ;
#211 = FILL_AREA_STYLE_COLOUR ( '', #87 ) ;
#212 = EDGE_LOOP ( 'NONE', ( #91, #70, #46, #18 ) ) ;
#213 = MECHANICAL_DESIGN_GEOMETRIC_PRESENTATION_REPRESENTATION (  '', ( #28 ), #147 ) ;
#214 = SURFACE_STYLE_FILL_AREA ( #190 ) ;
ENDSEC;
END-ISO-10303-21;
