  0
SECTION
  2
HEADER
  9
$ACADVER
  1
AC1027
  9
$ACADMAINTVER
 70
   105
  9
$DWGCODEPAGE
  3
ANSI_1252
  9
$REQUIREDVERSIONS
160
                 0
  9
$INSBASE
 10
0.0
 20
0.0
 30
0.0
  9
$EXTMIN
 10
1.000000000000000E+20
 20
1.000000000000000E+20
 30
1.000000000000000E+20
  9
$EXTMAX
 10
-1.000000000000000E+20
 20
-1.000000000000000E+20
 30
-1.000000000000000E+20
  9
$LIMMIN
 10
0.0
 20
0.0
  9
$LIMMAX
 10
12.0
 20
9.0
  9
$ORTHOMODE
 70
     0
  9
$REGENMODE
 70
     1
  9
$FILLMODE
 70
     1
  9
$QTEXTMODE
 70
     0
  9
$MIRRTEXT
 70
     1
  9
$LTSCALE
 40
1.0
  9
$ATTMODE
 70
     1
  9
$TEXTSIZE
 40
0.2
  9
$TRACEWID
 40
0.05
  9
$TEXTSTYLE
  7
Standard
  9
$CLAYER
  8
Trees & shrubs
  9
$CELTYPE
  6
ByLayer
  9
$CECOLOR
 62
   178
  9
$CELTSCALE
 40
1.0
  9
$DISPSILH
 70
     0
  9
$DIMSCALE
 40
1.0
  9
$DIMASZ
 40
2.5
  9
$DIMEXO
 40
0.625
  9
$DIMDLI
 40
0.38
  9
$DIMRND
 40
0.0
  9
$DIMDLE
 40
0.0
  9
$DIMEXE
 40
1.25
  9
$DIMTP
 40
0.0
  9
$DIMTM
 40
0.0
  9
$DIMTXT
 40
2.5
  9
$DIMCEN
 40
0.09
  9
$DIMTSZ
 40
0.0
  9
$DIMTOL
 70
     0
  9
$DIMLIM
 70
     0
  9
$DIMTIH
 70
     1
  9
$DIMTOH
 70
     1
  9
$DIMSE1
 70
     0
  9
$DIMSE2
 70
     0
  9
$DIMTAD
 70
     0
  9
$DIMZIN
 70
     8
  9
$DIMBLK
  1

  9
$DIMASO
 70
     1
  9
$DIMSHO
 70
     1
  9
$DIMPOST
  1

  9
$DIMAPOST
  1

  9
$DIMALT
 70
     0
  9
$DIMALTD
 70
     2
  9
$DIMALTF
 40
25.4
  9
$DIMLFAC
 40
1.0
  9
$DIMTOFL
 70
     0
  9
$DIMTVP
 40
0.0
  9
$DIMTIX
 70
     0
  9
$DIMSOXD
 70
     0
  9
$DIMSAH
 70
     0
  9
$DIMBLK1
  1

  9
$DIMBLK2
  1

  9
$DIMSTYLE
  2
Standard
  9
$DIMCLRD
 70
   178
  9
$DIMCLRE
 70
   178
  9
$DIMCLRT
 70
   178
  9
$DIMTFAC
 40
1.0
  9
$DIMGAP
 40
0.625
  9
$DIMJUST
 70
     0
  9
$DIMSD1
 70
     0
  9
$DIMSD2
 70
     0
  9
$DIMTOLJ
 70
     1
  9
$DIMTZIN
 70
     0
  9
$DIMALTZ
 70
     0
  9
$DIMALTTZ
 70
     0
  9
$DIMUPT
 70
     0
  9
$DIMDEC
 70
     4
  9
$DIMTDEC
 70
     4
  9
$DIMALTU
 70
     2
  9
$DIMALTTD
 70
     2
  9
$DIMTXSTY
  7
Standard
  9
$DIMAUNIT
 70
     0
  9
$DIMADEC
 70
     0
  9
$DIMALTRND
 40
0.0
  9
$DIMAZIN
 70
     2
  9
$DIMDSEP
 70
    46
  9
$DIMATFIT
 70
     3
  9
$DIMFRAC
 70
     0
  9
$DIMLDRBLK
  1

  9
$DIMLUNIT
 70
     2
  9
$DIMLWD
 70
    -2
  9
$DIMLWE
 70
    -2
  9
$DIMTMOVE
 70
     0
  9
$DIMFXL
 40
1.0
  9
$DIMFXLON
 70
     0
  9
$DIMJOGANG
 40
0.7853981633974483
  9
$DIMTFILL
 70
     0
  9
$DIMTFILLCLR
 70
     0
  9
$DIMARCSYM
 70
     0
  9
$DIMLTYPE
  6

  9
$DIMLTEX1
  6

  9
$DIMLTEX2
  6

  9
$DIMTXTDIRECTION
 70
     0
  9
$LUNITS
 70
     2
  9
$LUPREC
 70
     4
  9
$SKETCHINC
 40
0.1
  9
$FILLETRAD
 40
0.5
  9
$AUNITS
 70
     0
  9
$AUPREC
 70
     0
  9
$MENU
  1
.
  9
$ELEVATION
 40
0.0
  9
$PELEVATION
 40
0.0
  9
$THICKNESS
 40
0.0
  9
$LIMCHECK
 70
     0
  9
$CHAMFERA
 40
0.0
  9
$CHAMFERB
 40
0.0
  9
$CHAMFERC
 40
0.0
  9
$CHAMFERD
 40
0.0
  9
$SKPOLY
 70
     0
  9
$TDCREATE
 40
2458764.594569456
  9
$TDUCREATE
 40
2458764.594569456
  9
$TDUPDATE
 40
2458764.594569711
  9
$TDUUPDATE
 40
2458764.594569711
  9
$TDINDWG
 40
0.0000000116
  9
$TDUSRTIMER
 40
0.0000000116
  9
$USRTIMER
 70
     1
  9
$ANGBASE
 50
0.0
  9
$ANGDIR
 70
     0
  9
$PDMODE
 70
     0
  9
$PDSIZE
 40
0.0
  9
$PLINEWID
 40
0.0
  9
$SPLFRAME
 70
     0
  9
$SPLINETYPE
 70
     6
  9
$SPLINESEGS
 70
     8
  9
$HANDSEED
  5
1A0F
  9
$SURFTAB1
 70
     6
  9
$SURFTAB2
 70
     6
  9
$SURFTYPE
 70
     6
  9
$SURFU
 70
     6
  9
$SURFV
 70
     6
  9
$UCSBASE
  2

  9
$UCSNAME
  2

  9
$UCSORG
 10
0.0
 20
0.0
 30
0.0
  9
$UCSXDIR
 10
1.0
 20
0.0
 30
0.0
  9
$UCSYDIR
 10
0.0
 20
1.0
 30
0.0
  9
$UCSORTHOREF
  2

  9
$UCSORTHOVIEW
 70
     0
  9
$UCSORGTOP
 10
0.0
 20
0.0
 30
0.0
  9
$UCSORGBOTTOM
 10
0.0
 20
0.0
 30
0.0
  9
$UCSORGLEFT
 10
0.0
 20
0.0
 30
0.0
  9
$UCSORGRIGHT
 10
0.0
 20
0.0
 30
0.0
  9
$UCSORGFRONT
 10
0.0
 20
0.0
 30
0.0
  9
$UCSORGBACK
 10
0.0
 20
0.0
 30
0.0
  9
$PUCSBASE
  2

  9
$PUCSNAME
  2

  9
$PUCSORG
 10
0.0
 20
0.0
 30
0.0
  9
$PUCSXDIR
 10
1.0
 20
0.0
 30
0.0
  9
$PUCSYDIR
 10
0.0
 20
1.0
 30
0.0
  9
$PUCSORTHOREF
  2

  9
$PUCSORTHOVIEW
 70
     0
  9
$PUCSORGTOP
 10
0.0
 20
0.0
 30
0.0
  9
$PUCSORGBOTTOM
 10
0.0
 20
0.0
 30
0.0
  9
$PUCSORGLEFT
 10
0.0
 20
0.0
 30
0.0
  9
$PUCSORGRIGHT
 10
0.0
 20
0.0
 30
0.0
  9
$PUCSORGFRONT
 10
0.0
 20
0.0
 30
0.0
  9
$PUCSORGBACK
 10
0.0
 20
0.0
 30
0.0
  9
$USERI1
 70
     0
  9
$USERI2
 70
     0
  9
$USERI3
 70
     0
  9
$USERI4
 70
     0
  9
$USERI5
 70
     0
  9
$USERR1
 40
0.0
  9
$USERR2
 40
0.0
  9
$USERR3
 40
0.0
  9
$USERR4
 40
0.0
  9
$USERR5
 40
0.0
  9
$WORLDVIEW
 70
     1
  9
$SHADEDGE
 70
     3
  9
$SHADEDIF
 70
    70
  9
$TILEMODE
 70
     1
  9
$MAXACTVP
 70
    64
  9
$PINSBASE
 10
0.0
 20
0.0
 30
0.0
  9
$PLIMCHECK
 70
     0
  9
$PEXTMIN
 10
0.0
 20
0.0
 30
0.0
  9
$PEXTMAX
 10
0.0
 20
0.0
 30
0.0
  9
$PLIMMIN
 10
-20.0
 20
-7.5
  9
$PLIMMAX
 10
277.0
 20
202.5
  9
$UNITMODE
 70
     0
  9
$VISRETAIN
 70
     1
  9
$PLINEGEN
 70
     0
  9
$PSLTSCALE
 70
     1
  9
$TREEDEPTH
 70
  3020
  9
$CMLSTYLE
  2
Standard
  9
$CMLJUST
 70
     0
  9
$CMLSCALE
 40
1.0
  9
$PROXYGRAPHICS
 70
     1
  9
$MEASUREMENT
 70
     1
  9
$CELWEIGHT
370
    -1
  9
$ENDCAPS
280
     0
  9
$JOINSTYLE
280
     0
  9
$LWDISPLAY
290
     0
  9
$INSUNITS
 70
     6
  9
$HYPERLINKBASE
  1

  9
$STYLESHEET
  1

  9
$XEDIT
290
     1
  9
$CEPSNTYPE
380
     0
  9
$PSTYLEMODE
290
     1
  9
$FINGERPRINTGUID
  2
{fb7e4b56-f576-8d4b-9b16-6925548a6638}
  9
$VERSIONGUID
  2
{FAEB1C32-E019-11D5-929B-00C0DF256EC4}
  9
$EXTNAMES
290
     1
  9
$PSVPSCALE
 40
0.0
  9
$OLESTARTUP
290
     0
  9
$SORTENTS
280
   127
  9
$INDEXCTL
280
     0
  9
$HIDETEXT
280
     1
  9
$XCLIPFRAME
280
     2
  9
$HALOGAP
280
     0
  9
$OBSCOLOR
 70
   257
  9
$OBSLTYPE
280
     0
  9
$INTERSECTIONDISPLAY
280
     0
  9
$INTERSECTIONCOLOR
 70
   257
  9
$DIMASSOC
280
     2
  9
$PROJECTNAME
  1

  9
$CAMERADISPLAY
290
     0
  9
$LENSLENGTH
 40
50.0
  9
$CAMERAHEIGHT
 40
0.0
  9
$STEPSPERSEC
 40
2.0
  9
$STEPSIZE
 40
6.0
  9
$3DDWFPREC
 40
2.0
  9
$PSOLWIDTH
 40
0.25
  9
$PSOLHEIGHT
 40
4.0
  9
$LOFTANG1
 40
1.570796326794897
  9
$LOFTANG2
 40
1.570796326794897
  9
$LOFTMAG1
 40
0.0
  9
$LOFTMAG2
 40
0.0
  9
$LOFTPARAM
 70
     7
  9
$LOFTNORMALS
280
     1
  9
$LATITUDE
 40
37.795
  9
$LONGITUDE
 40
-122.394
  9
$NORTHDIRECTION
 40
0.0
  9
$TIMEZONE
 70
 -8000
  9
$LIGHTGLYPHDISPLAY
280
     1
  9
$TILEMODELIGHTSYNCH
280
     1
  9
$CMATERIAL
347
18EC
  9
$SOLIDHIST
280
     0
  9
$SHOWHIST
280
     1
  9
$DWFFRAME
280
     2
  9
$DGNFRAME
280
     2
  9
$REALWORLDSCALE
290
     1
  9
$INTERFERECOLOR
 62
   256
  9
$CSHADOW
280
     0
  9
$SHADOWPLANELOCATION
 40
0.0
  0
ENDSEC
  0
SECTION
  2
CLASSES
  0
CLASS
  1
ACDBDICTIONARYWDFLT
  2
AcDbDictionaryWithDefault
  3
ObjectDBX Classes
 90
        0
 91
        3
280
     0
281
     0
  0
CLASS
  1
VISUALSTYLE
  2
AcDbVisualStyle
  3
ObjectDBX Classes
 90
     4095
 91
        3
280
     0
281
     0
  0
CLASS
  1
MATERIAL
  2
AcDbMaterial
  3
ObjectDBX Classes
 90
     1153
 91
        3
280
     0
281
     0
  0
CLASS
  1
SCALE
  2
AcDbScale
  3
ObjectDBX Classes
 90
     1153
 91
        3
280
     0
281
     0
  0
CLASS
  1
TABLESTYLE
  2
AcDbTableStyle
  3
ObjectDBX Classes
 90
     4095
 91
        3
280
     0
281
     0
  0
CLASS
  1
MLEADERSTYLE
  2
AcDbMLeaderStyle
  3
ACDB_MLEADERSTYLE_CLASS
 90
     4095
 91
        3
280
     0
281
     0
  0
CLASS
  1
SUN
  2
AcDbSun
  3
SCENEOE
 90
     1153
 91
        3
280
     0
281
     0
  0
CLASS
  1
IMAGEDEF
  2
AcDbRasterImageDef
  3
ISM
 90
        0
 91
        3
280
     0
281
     0
  0
CLASS
  1
IMAGE
  2
AcDbRasterImage
  3
ISM
 90
      127
 91
        4
280
     0
281
     1
  0
CLASS
  1
IMAGEDEF_REACTOR
  2
AcDbRasterImageDefReactor
  3
ISM
 90
        1
 91
        3
280
     0
281
     0
  0
CLASS
  1
DICTIONARYVAR
  2
AcDbDictionaryVar
  3
ObjectDBX Classes
 90
        0
 91
        3
280
     0
281
     0
  0
CLASS
  1
CELLSTYLEMAP
  2
AcDbCellStyleMap
  3
ObjectDBX Classes
 90
     1152
 91
        3
280
     0
281
     0
  0
ENDSEC
  0
SECTION
  2
TABLES
  0
TABLE
  2
VPORT
  5
18B1
330
0
100
AcDbSymbolTable
 70
     1
  0
VPORT
  5
18D1
330
18B1
100
AcDbSymbolTableRecord
100
AcDbViewportTableRecord
  2
*Active
 70
     0
 10
0.0
 20
0.0
 11
1.0
 21
1.0
 12
40.6115455325656
 22
23.76429881671439
 13
0.0
 23
0.0
 14
0.5
 24
0.5
 15
0.5
 25
0.5
 16
0.0
 26
0.0
 36
1.0
 17
0.0
 27
0.0
 37
0.0
 40
7.931971072022758
 41
1.58477508650519
 42
50.0
 43
0.0
 44
0.0
 50
0.0
 51
0.0
 71
     0
 72
   100
 73
     1
 74
     3
 75
     0
 76
     0
 77
     0
 78
     0
281
     0
 65
     1
110
0.0
120
0.0
130
0.0
111
1.0
121
0.0
131
0.0
112
0.0
122
1.0
132
0.0
 79
     0
146
0.0
348
18D7
 60
     3
 61
     5
292
     1
282
     1
141
0.0
142
0.0
 63
   250
361
1915
  0
ENDTAB
  0
TABLE
  2
LTYPE
  5
18AE
330
0
100
AcDbSymbolTable
 70
    49
  0
LTYPE
  5
18BC
330
18AE
100
AcDbSymbolTableRecord
100
AcDbLinetypeTableRecord
  2
ByBlock
 70
     0
  3

 72
    65
 73
     0
 40
0.0
  0
LTYPE
  5
18BD
330
18AE
100
AcDbSymbolTableRecord
100
AcDbLinetypeTableRecord
  2
ByLayer
 70
     0
  3

 72
    65
 73
     0
 40
0.0
  0
LTYPE
  5
18BE
330
18AE
100
AcDbSymbolTableRecord
100
AcDbLinetypeTableRecord
  2
Continuous
 70
     0
  3
Solid line
 72
    65
 73
     0
 40
0.0
  0
LTYPE
  5
194C
330
18AE
100
AcDbSymbolTableRecord
100
AcDbLinetypeTableRecord
  2
DOT2
 70
     0
  3
Dot (.5x) ........................................
 72
    65
 73
     2
 40
3.175
 49
0.0
 74
     0
 49
-3.175
 74
     0
  0
LTYPE
  5
194D
330
18AE
100
AcDbSymbolTableRecord
100
AcDbLinetypeTableRecord
  2
DOT
 70
     0
  3
Dot . . . . . . . . . . . . . . . . . . . . . . . .
 72
    65
 73
     2
 40
6.35
 49
0.0
 74
     0
 49
-6.35
 74
     0
  0
LTYPE
  5
194E
330
18AE
100
AcDbSymbolTableRecord
100
AcDbLinetypeTableRecord
  2
DIVIDEX2
 70
     0
  3
Divide (2x) ________  .  .  ________  .  .  _
 72
    65
 73
     6
 40
63.5
 49
25.4
 74
     0
 49
-12.7
 74
     0
 49
0.0
 74
     0
 49
-12.7
 74
     0
 49
0.0
 74
     0
 49
-12.7
 74
     0
  0
LTYPE
  5
194F
330
18AE
100
AcDbSymbolTableRecord
100
AcDbLinetypeTableRecord
  2
DIVIDE2
 70
     0
  3
Divide (.5x) __..__..__..__..__..__..__..__.._
 72
    65
 73
     6
 40
15.875
 49
6.35
 74
     0
 49
-3.175
 74
     0
 49
0.0
 74
     0
 49
-3.175
 74
     0
 49
0.0
 74
     0
 49
-3.175
 74
     0
  0
LTYPE
  5
1950
330
18AE
100
AcDbSymbolTableRecord
100
AcDbLinetypeTableRecord
  2
CENTER2
 70
     0
  3
Center (.5x) ___ _ ___ _ ___ _ ___ _ ___ _ ___
 72
    65
 73
     4
 40
28.575
 49
19.05
 74
     0
 49
-3.175
 74
     0
 49
3.175
 74
     0
 49
-3.175
 74
     0
  0
LTYPE
  5
1951
330
18AE
100
AcDbSymbolTableRecord
100
AcDbLinetypeTableRecord
  2
CENTER
 70
     0
  3
Center ____ _ ____ _ ____ _ ____ _ ____ _ ____
 72
    65
 73
     4
 40
50.8
 49
31.75
 74
     0
 49
-6.35
 74
     0
 49
6.35
 74
     0
 49
-6.35
 74
     0
  0
LTYPE
  5
1952
330
18AE
100
AcDbSymbolTableRecord
100
AcDbLinetypeTableRecord
  2
BORDERX2
 70
     0
  3
Border (2x) ____  ____  .  ____  ____  .  ___
 72
    65
 73
     6
 40
88.89999999999999
 49
25.4
 74
     0
 49
-12.7
 74
     0
 49
25.4
 74
     0
 49
-12.7
 74
     0
 49
0.0
 74
     0
 49
-12.7
 74
     0
  0
LTYPE
  5
1953
330
18AE
100
AcDbSymbolTableRecord
100
AcDbLinetypeTableRecord
  2
BORDER2
 70
     0
  3
Border (.5x) __.__.__.__.__.__.__.__.__.__.__.
 72
    65
 73
     6
 40
22.225
 49
6.35
 74
     0
 49
-3.175
 74
     0
 49
6.35
 74
     0
 49
-3.175
 74
     0
 49
0.0
 74
     0
 49
-3.175
 74
     0
  0
LTYPE
  5
1954
330
18AE
100
AcDbSymbolTableRecord
100
AcDbLinetypeTableRecord
  2
DASHDOTX2
 70
     0
  3
Dash dot (2x) ____  .  ____  .  ____  .  ___
 72
    65
 73
     4
 40
50.8
 49
25.4
 74
     0
 49
-12.7
 74
     0
 49
0.0
 74
     0
 49
-12.7
 74
     0
  0
LTYPE
  5
1955
330
18AE
100
AcDbSymbolTableRecord
100
AcDbLinetypeTableRecord
  2
DASHDOT2
 70
     0
  3
Dash dot (.5x) _._._._._._._._._._._._._._._.
 72
    65
 73
     4
 40
12.7
 49
6.35
 74
     0
 49
-3.175
 74
     0
 49
0.0
 74
     0
 49
-3.175
 74
     0
  0
LTYPE
  5
1956
330
18AE
100
AcDbSymbolTableRecord
100
AcDbLinetypeTableRecord
  2
DASHDOT
 70
     0
  3
Dash dot __ . __ . __ . __ . __ . __ . __ . __
 72
    65
 73
     4
 40
25.4
 49
12.7
 74
     0
 49
-6.35
 74
     0
 49
0.0
 74
     0
 49
-6.35
 74
     0
  0
LTYPE
  5
1957
330
18AE
100
AcDbSymbolTableRecord
100
AcDbLinetypeTableRecord
  2
CENTERX2
 70
     0
  3
Center (2x) ________  __  ________  __  _____
 72
    65
 73
     4
 40
101.6
 49
63.5
 74
     0
 49
-12.7
 74
     0
 49
12.7
 74
     0
 49
-12.7
 74
     0
  0
LTYPE
  5
1958
330
18AE
100
AcDbSymbolTableRecord
100
AcDbLinetypeTableRecord
  2
ACAD_ISO13W100
 70
     0
  3
ISO double-dash double-dot __ __ . . __ __ . . _
 72
    65
 73
     8
 40
36.0
 49
12.0
 74
     0
 49
-3.0
 74
     0
 49
12.0
 74
     0
 49
-3.0
 74
     0
 49
0.0
 74
     0
 49
-3.0
 74
     0
 49
0.0
 74
     0
 49
-3.0
 74
     0
  0
LTYPE
  5
1959
330
18AE
100
AcDbSymbolTableRecord
100
AcDbLinetypeTableRecord
  2
ACAD_ISO12W100
 70
     0
  3
ISO dash double-dot __ . . __ . . __ . . __ . . 
 72
    65
 73
     6
 40
21.0
 49
12.0
 74
     0
 49
-3.0
 74
     0
 49
0.0
 74
     0
 49
-3.0
 74
     0
 49
0.0
 74
     0
 49
-3.0
 74
     0
  0
LTYPE
  5
195A
330
18AE
100
AcDbSymbolTableRecord
100
AcDbLinetypeTableRecord
  2
ACAD_ISO11W100
 70
     0
  3
ISO double-dash dot __ __ . __ __ . __ __ . __ _
 72
    65
 73
     6
 40
33.0
 49
12.0
 74
     0
 49
-3.0
 74
     0
 49
12.0
 74
     0
 49
-3.0
 74
     0
 49
0.0
 74
     0
 49
-3.0
 74
     0
  0
LTYPE
  5
195B
330
18AE
100
AcDbSymbolTableRecord
100
AcDbLinetypeTableRecord
  2
ACAD_ISO10W100
 70
     0
  3
ISO dash dot __ . __ . __ . __ . __ . __ . __ . 
 72
    65
 73
     4
 40
18.0
 49
12.0
 74
     0
 49
-3.0
 74
     0
 49
0.0
 74
     0
 49
-3.0
 74
     0
  0
LTYPE
  5
195C
330
18AE
100
AcDbSymbolTableRecord
100
AcDbLinetypeTableRecord
  2
BORDER
 70
     0
  3
Border __ __ . __ __ . __ __ . __ __ . __ __ .
 72
    65
 73
     6
 40
44.45
 49
12.7
 74
     0
 49
-6.35
 74
     0
 49
12.7
 74
     0
 49
-6.35
 74
     0
 49
0.0
 74
     0
 49
-6.35
 74
     0
  0
LTYPE
  5
195F
330
18AE
100
AcDbSymbolTableRecord
100
AcDbLinetypeTableRecord
  2
BATTING
 70
     0
  3
Batting SSSSSSSSSSSSSSSSSSSSSSSSSSSSSSSSSSSSSSSSSSSSSSS
 72
    65
 73
     4
 40
10.16254
 49
0.00254
 74
     0
 49
-2.54
 74
     2
 75
     0
340
195D
 46
2.54
 50
0.0
 44
-2.54
 45
0.0
  9
BAT
 49
-5.08
 74
     2
 75
     0
340
195E
 46
2.54
 50
180.0
 44
2.54
 45
0.0
  9
BAT
 49
-2.54
 74
     0
  0
LTYPE
  5
1960
330
18AE
100
AcDbSymbolTableRecord
100
AcDbLinetypeTableRecord
  2
ACAD_ISO15W100
 70
     0
  3
ISO double-dash triple-dot __ __ . . . __ __ . .
 72
    65
 73
    10
 40
39.0
 49
12.0
 74
     0
 49
-3.0
 74
     0
 49
12.0
 74
     0
 49
-3.0
 74
     0
 49
0.0
 74
     0
 49
-3.0
 74
     0
 49
0.0
 74
     0
 49
-3.0
 74
     0
 49
0.0
 74
     0
 49
-3.0
 74
     0
  0
LTYPE
  5
1961
330
18AE
100
AcDbSymbolTableRecord
100
AcDbLinetypeTableRecord
  2
ACAD_ISO14W100
 70
     0
  3
ISO dash triple-dot __ . . . __ . . . __ . . . _
 72
    65
 73
     8
 40
24.0
 49
12.0
 74
     0
 49
-3.0
 74
     0
 49
0.0
 74
     0
 49
-3.0
 74
     0
 49
0.0
 74
     0
 49
-3.0
 74
     0
 49
0.0
 74
     0
 49
-3.0
 74
     0
  0
LTYPE
  5
1962
330
18AE
100
AcDbSymbolTableRecord
100
AcDbLinetypeTableRecord
  2
ACAD_ISO05W100
 70
     0
  3
ISO long-dash double-dot ____ .. ____ .. ____ . 
 72
    65
 73
     6
 40
33.0
 49
24.0
 74
     0
 49
-3.0
 74
     0
 49
0.0
 74
     0
 49
-3.0
 74
     0
 49
0.0
 74
     0
 49
-3.0
 74
     0
  0
LTYPE
  5
1963
330
18AE
100
AcDbSymbolTableRecord
100
AcDbLinetypeTableRecord
  2
ACAD_ISO04W100
 70
     0
  3
ISO long-dash dot ____ . ____ . ____ . ____ . _
 72
    65
 73
     4
 40
30.0
 49
24.0
 74
     0
 49
-3.0
 74
     0
 49
0.0
 74
     0
 49
-3.0
 74
     0
  0
LTYPE
  5
1964
330
18AE
100
AcDbSymbolTableRecord
100
AcDbLinetypeTableRecord
  2
ACAD_ISO03W100
 70
     0
  3
ISO dash space __    __    __    __    __    __
 72
    65
 73
     2
 40
30.0
 49
12.0
 74
     0
 49
-18.0
 74
     0
  0
LTYPE
  5
1965
330
18AE
100
AcDbSymbolTableRecord
100
AcDbLinetypeTableRecord
  2
ACAD_ISO02W100
 70
     0
  3
ISO dash __ __ __ __ __ __ __ __ __ __ __ __ __
 72
    65
 73
     2
 40
15.0
 49
12.0
 74
     0
 49
-3.0
 74
     0
  0
LTYPE
  5
1966
330
18AE
100
AcDbSymbolTableRecord
100
AcDbLinetypeTableRecord
  2
ACAD_ISO09W100
 70
     0
  3
ISO long-dash double-short-dash ____ __ __ ____
 72
    65
 73
     6
 40
45.0
 49
24.0
 74
     0
 49
-3.0
 74
     0
 49
6.0
 74
     0
 49
-3.0
 74
     0
 49
6.0
 74
     0
 49
-3.0
 74
     0
  0
LTYPE
  5
1967
330
18AE
100
AcDbSymbolTableRecord
100
AcDbLinetypeTableRecord
  2
ACAD_ISO08W100
 70
     0
  3
ISO long-dash short-dash ____ __ ____ __ ____ _
 72
    65
 73
     4
 40
36.0
 49
24.0
 74
     0
 49
-3.0
 74
     0
 49
6.0
 74
     0
 49
-3.0
 74
     0
  0
LTYPE
  5
1968
330
18AE
100
AcDbSymbolTableRecord
100
AcDbLinetypeTableRecord
  2
ACAD_ISO07W100
 70
     0
  3
ISO dot . . . . . . . . . . . . . . . . . . . . 
 72
    65
 73
     2
 40
3.0
 49
0.0
 74
     0
 49
-3.0
 74
     0
  0
LTYPE
  5
1969
330
18AE
100
AcDbSymbolTableRecord
100
AcDbLinetypeTableRecord
  2
ACAD_ISO06W100
 70
     0
  3
ISO long-dash triple-dot ____ ... ____ ... ____
 72
    65
 73
     8
 40
36.0
 49
24.0
 74
     0
 49
-3.0
 74
     0
 49
0.0
 74
     0
 49
-3.0
 74
     0
 49
0.0
 74
     0
 49
-3.0
 74
     0
 49
0.0
 74
     0
 49
-3.0
 74
     0
  0
LTYPE
  5
196A
330
18AE
100
AcDbSymbolTableRecord
100
AcDbLinetypeTableRecord
  2
HIDDEN4
 70
     0
  3
_ _ _ _ _ _ _ _ _ _ _ _ _ _ _ _ _ _ _ _ _ _ _ _
 72
    65
 73
     2
 40
0.09375
 49
0.0625
 74
     0
 49
-0.03125
 74
     0
  0
LTYPE
  5
196B
330
18AE
100
AcDbSymbolTableRecord
100
AcDbLinetypeTableRecord
  2
PHANTOM2
 70
     0
  3
Phantom (.5x) ___ _ _ ___ _ _ ___ _ _ ___ _ _
 72
    65
 73
     6
 40
31.75
 49
15.875
 74
     0
 49
-3.175
 74
     0
 49
3.175
 74
     0
 49
-3.175
 74
     0
 49
3.175
 74
     0
 49
-3.175
 74
     0
  0
LTYPE
  5
196C
330
18AE
100
AcDbSymbolTableRecord
100
AcDbLinetypeTableRecord
  2
PHANTOM
 70
     0
  3
Phantom ______  __  __  ______  __  __  ______ 
 72
    65
 73
     6
 40
63.50000000000001
 49
31.75
 74
     0
 49
-6.35
 74
     0
 49
6.35
 74
     0
 49
-6.35
 74
     0
 49
6.35
 74
     0
 49
-6.35
 74
     0
  0
LTYPE
  5
196E
330
18AE
100
AcDbSymbolTableRecord
100
AcDbLinetypeTableRecord
  2
HOT_WATER_SUPPLY
 70
     0
  3
Hot water supply ---- HW ---- HW ---- HW ----
 72
    65
 73
     3
 40
22.86
 49
12.7
 74
     0
 49
-5.08
 74
     2
 75
     0
340
196D
 46
2.54
 50
0.0
 44
-2.54
 45
-1.27
  9
HW
 49
-5.08
 74
     0
  0
LTYPE
  5
196F
330
18AE
100
AcDbSymbolTableRecord
100
AcDbLinetypeTableRecord
  2
HIDDENX2
 70
     0
  3
Hidden (2x) ____ ____ ____ ____ ____ ____ ____ 
 72
    65
 73
     2
 40
19.05
 49
12.7
 74
     0
 49
-6.35
 74
     0
  0
LTYPE
  5
1972
330
18AE
100
AcDbSymbolTableRecord
100
AcDbLinetypeTableRecord
  2
ZIGZAG
 70
     0
  3
Zig zag /\/\/\/\/\/\/\/\/\/\/\/\/\/\/\/\/\/\/\/\/\/\/\/
 72
    65
 73
     4
 40
20.32254
 49
0.00254
 74
     0
 49
-5.08
 74
     2
 75
     0
340
1970
 46
5.08
 50
0.0
 44
-5.08
 45
0.0
  9
ZIG
 49
-10.16
 74
     2
 75
     0
340
1971
 46
5.08
 50
180.0
 44
5.08
 45
0.0
  9
ZIG
 49
-5.08
 74
     0
  0
LTYPE
  5
1974
330
18AE
100
AcDbSymbolTableRecord
100
AcDbLinetypeTableRecord
  2
TRACKS
 70
     0
  3
Tracks -|-|-|-|-|-|-|-|-|-|-|-|-|-|-|-|-|-|-|-|-|-|-|-|-
 72
    65
 73
     2
 40
7.62
 49
3.81
 74
     2
 75
     0
340
1973
 46
6.35
 50
0.0
 44
0.0
 45
0.0
  9
TRACK1
 49
3.81
 74
     0
  0
LTYPE
  5
1975
330
18AE
100
AcDbSymbolTableRecord
100
AcDbLinetypeTableRecord
  2
PHANTOMX2
 70
     0
  3
Phantom (2x) ____________    ____    ____   _
 72
    65
 73
     6
 40
127.0
 49
63.5
 74
     0
 49
-12.7
 74
     0
 49
12.7
 74
     0
 49
-12.7
 74
     0
 49
12.7
 74
     0
 49
-12.7
 74
     0
  0
LTYPE
  5
1977
330
18AE
100
AcDbSymbolTableRecord
100
AcDbLinetypeTableRecord
  2
FENCELINE1
 70
     0
  3
Fenceline circle ----0-----0----0-----0----0-----0--
 72
    65
 73
     4
 40
36.83
 49
6.35
 74
     0
 49
-2.54
 74
     2
 75
     0
340
1976
 46
2.54
 50
0.0
 44
-2.54
 45
0.0
  9
CIRC1
 49
-2.54
 74
     0
 49
25.4
 74
     0
  0
LTYPE
  5
1979
330
18AE
100
AcDbSymbolTableRecord
100
AcDbLinetypeTableRecord
  2
DRAINAGE2
 70
     0
  3
Drainage reversed----<----<----<----
 72
    65
 73
     2
 40
10.16
 49
5.08
 74
     2
 75
     0
340
1978
 46
2.54
 50
0.0
 44
0.0
 45
0.0
  9
RIGHT_ARROW
 49
5.08
 74
     0
  0
LTYPE
  5
197B
330
18AE
100
AcDbSymbolTableRecord
100
AcDbLinetypeTableRecord
  2
DRAINAGE
 70
     0
  3
Drainage ---->---->---->----
 72
    65
 73
     2
 40
10.16
 49
5.08
 74
     2
 75
     0
340
197A
 46
2.54
 50
180.0
 44
0.0
 45
0.0
  9
RIGHT_ARROW
 49
5.08
 74
     0
  0
LTYPE
  5
197C
330
18AE
100
AcDbSymbolTableRecord
100
AcDbLinetypeTableRecord
  2
DOTX2
 70
     0
  3
Dot (2x) .  .  .  .  .  .  .  .  .  .  .  .  .  .
 72
    65
 73
     2
 40
12.7
 49
0.0
 74
     0
 49
-12.7
 74
     0
  0
LTYPE
  5
197D
330
18AE
100
AcDbSymbolTableRecord
100
AcDbLinetypeTableRecord
  2
HIDDEN2
 70
     0
  3
Hidden (.5x) _ _ _ _ _ _ _ _ _ _ _ _ _ _ _ _ _ 
 72
    65
 73
     2
 40
4.762499999999999
 49
3.175
 74
     0
 49
-1.5875
 74
     0
  0
LTYPE
  5
197E
330
18AE
100
AcDbSymbolTableRecord
100
AcDbLinetypeTableRecord
  2
HIDDEN
 70
     0
  3
Hidden __ __ __ __ __ __ __ __ __ __ __ __ __ __
 72
    65
 73
     2
 40
9.524999999999999
 49
6.35
 74
     0
 49
-3.175
 74
     0
  0
LTYPE
  5
1980
330
18AE
100
AcDbSymbolTableRecord
100
AcDbLinetypeTableRecord
  2
GAS_LINE
 70
     0
  3
Gas line ----GAS----GAS----GAS----GAS----GAS----GAS--
 72
    65
 73
     3
 40
24.13
 49
12.7
 74
     0
 49
-5.08
 74
     2
 75
     0
340
197F
 46
2.54
 50
0.0
 44
-2.54
 45
-1.27
  9
GAS
 49
-6.35
 74
     0
  0
LTYPE
  5
1982
330
18AE
100
AcDbSymbolTableRecord
100
AcDbLinetypeTableRecord
  2
FENCELINE2
 70
     0
  3
Fenceline square ----[]-----[]----[]-----[]----[]---
 72
    65
 73
     4
 40
36.83
 49
6.35
 74
     0
 49
-2.54
 74
     2
 75
     0
340
1981
 46
2.54
 50
0.0
 44
-2.54
 45
0.0
  9
BOX
 49
-2.54
 74
     0
 49
25.4
 74
     0
  0
LTYPE
  5
1983
330
18AE
100
AcDbSymbolTableRecord
100
AcDbLinetypeTableRecord
  2
DIVIDE
 70
     0
  3
Divide ____ . . ____ . . ____ . . ____ . . ____
 72
    65
 73
     6
 40
31.75
 49
12.7
 74
     0
 49
-6.35
 74
     0
 49
0.0
 74
     0
 49
-6.35
 74
     0
 49
0.0
 74
     0
 49
-6.35
 74
     0
  0
LTYPE
  5
1984
330
18AE
100
AcDbSymbolTableRecord
100
AcDbLinetypeTableRecord
  2
DASHEDX2
 70
     0
  3
Dashed (2x) ____  ____  ____  ____  ____  ___
 72
    65
 73
     2
 40
38.09999999999999
 49
25.4
 74
     0
 49
-12.7
 74
     0
  0
LTYPE
  5
1985
330
18AE
100
AcDbSymbolTableRecord
100
AcDbLinetypeTableRecord
  2
DASHED2
 70
     0
  3
Dashed (.5x) _ _ _ _ _ _ _ _ _ _ _ _ _ _ _ _ _ 
 72
    65
 73
     2
 40
9.524999999999999
 49
6.35
 74
     0
 49
-3.175
 74
     0
  0
LTYPE
  5
1986
330
18AE
100
AcDbSymbolTableRecord
100
AcDbLinetypeTableRecord
  2
DASHED
 70
     0
  3
Dashed __ __ __ __ __ __ __ __ __ __ __ __ __ _
 72
    65
 73
     2
 40
19.05
 49
12.7
 74
     0
 49
-6.35
 74
     0
  0
ENDTAB
  0
TABLE
  2
LAYER
  5
18AC
330
0
100
AcDbSymbolTable
 70
     9
  0
LAYER
  5
18B9
330
18AC
100
AcDbSymbolTableRecord
100
AcDbLayerTableRecord
  2
0
 70
     1
 62
    -7
420
 16777215
  6
Continuous
370
    25
390
18B8
347
18EE
348
0
  0
LAYER
  5
1987
330
18AC
100
AcDbSymbolTableRecord
100
AcDbLayerTableRecord
  2
Boundary
 70
     0
 62
     1
420
 16711680
  6
Continuous
370
    25
390
18B8
347
18EE
348
0
  0
LAYER
  5
1988
330
18AC
100
AcDbSymbolTableRecord
100
AcDbLayerTableRecord
  2
Trees & shrubs
 70
     0
 62
     3
420
    65280
  6
Continuous
370
    25
390
18B8
347
18EE
348
0
  0
LAYER
  5
1989
330
18AC
100
AcDbSymbolTableRecord
100
AcDbLayerTableRecord
  2
xSatellite
 70
     0
 62
   178
420
        0
  6
Continuous
370
    25
390
18B8
347
18EE
348
0
  0
LAYER
  5
198A
330
18AC
100
AcDbSymbolTableRecord
100
AcDbLayerTableRecord
  2
Structures
 70
     0
 62
     5
420
      255
  6
Continuous
370
    25
390
18B8
347
18EE
348
0
  0
LAYER
  5
198B
330
18AC
100
AcDbSymbolTableRecord
100
AcDbLayerTableRecord
  2
Ground cover
 70
     0
 62
     6
420
 16711935
  6
Continuous
370
    25
390
18B8
347
18EE
348
0
  0
LAYER
  5
198C
330
18AC
100
AcDbSymbolTableRecord
100
AcDbLayerTableRecord
  2
Plants
 70
     0
 62
    96
420
    32768
  6
Continuous
370
    25
390
18B8
347
18EE
348
0
  0
LAYER
  5
198D
330
18AC
100
AcDbSymbolTableRecord
100
AcDbLayerTableRecord
  2
Buildings
 70
     0
 62
     4
420
    65535
  6
Continuous
370
    25
390
18B8
347
18EE
348
0
  0
LAYER
  5
198E
330
18AC
100
AcDbSymbolTableRecord
100
AcDbLayerTableRecord
  2
Areas
 70
     0
 62
     2
420
 16776960
  6
Continuous
370
    25
390
18B8
347
18EE
348
0
  0
ENDTAB
  0
TABLE
  2
STYLE
  5
18AD
330
0
100
AcDbSymbolTable
 70
   101
  0
STYLE
  5
18BA
330
18AD
100
AcDbSymbolTableRecord
100
AcDbTextStyleTableRecord
  2
Standard
 70
     0
 40
0.0
 41
1.0
 50
0.0
 71
     0
 42
0.2
  3
txt
  4

  0
STYLE
  5
194A
330
18AD
100
AcDbSymbolTableRecord
100
AcDbTextStyleTableRecord
  2
QCADDimTextStyle
 70
     0
 40
0.0
 41
1.0
 50
0.0
 71
     0
 42
0.2
  3
txt
  4

  0
STYLE
  5
195D
330
18AD
100
AcDbSymbolTableRecord
100
AcDbTextStyleTableRecord
  2
textstyle0
 70
     0
 40
0.0
 41
1.0
 50
0.0
 71
     0
 42
0.2
  3
ltypeshp.shx
  4

  0
STYLE
  5
195E
330
18AD
100
AcDbSymbolTableRecord
100
AcDbTextStyleTableRecord
  2
textstyle1
 70
     0
 40
0.0
 41
1.0
 50
0.0
 71
     0
 42
0.2
  3
ltypeshp.shx
  4

  0
STYLE
  5
196D
330
18AD
100
AcDbSymbolTableRecord
100
AcDbTextStyleTableRecord
  2
textstyle2
 70
     0
 40
0.0
 41
1.0
 50
0.0
 71
     0
 42
0.2
  3
STANDARD
  4

  0
STYLE
  5
1970
330
18AD
100
AcDbSymbolTableRecord
100
AcDbTextStyleTableRecord
  2
textstyle3
 70
     0
 40
0.0
 41
1.0
 50
0.0
 71
     0
 42
0.2
  3
ltypeshp.shx
  4

  0
STYLE
  5
1971
330
18AD
100
AcDbSymbolTableRecord
100
AcDbTextStyleTableRecord
  2
textstyle4
 70
     0
 40
0.0
 41
1.0
 50
0.0
 71
     0
 42
0.2
  3
ltypeshp.shx
  4

  0
STYLE
  5
1973
330
18AD
100
AcDbSymbolTableRecord
100
AcDbTextStyleTableRecord
  2
textstyle5
 70
     0
 40
0.0
 41
1.0
 50
0.0
 71
     0
 42
0.2
  3
ltypeshp.shx
  4

  0
STYLE
  5
1976
330
18AD
100
AcDbSymbolTableRecord
100
AcDbTextStyleTableRecord
  2
textstyle6
 70
     0
 40
0.0
 41
1.0
 50
0.0
 71
     0
 42
0.2
  3
ltypeshp.shx
  4

  0
STYLE
  5
1978
330
18AD
100
AcDbSymbolTableRecord
100
AcDbTextStyleTableRecord
  2
textstyle7
 70
     0
 40
0.0
 41
1.0
 50
0.0
 71
     0
 42
0.2
  3
qcadshp.shx
  4

  0
STYLE
  5
197A
330
18AD
100
AcDbSymbolTableRecord
100
AcDbTextStyleTableRecord
  2
textstyle8
 70
     0
 40
0.0
 41
1.0
 50
0.0
 71
     0
 42
0.2
  3
qcadshp.shx
  4

  0
STYLE
  5
197F
330
18AD
100
AcDbSymbolTableRecord
100
AcDbTextStyleTableRecord
  2
textstyle9
 70
     0
 40
0.0
 41
1.0
 50
0.0
 71
     0
 42
0.2
  3
STANDARD
  4

  0
STYLE
  5
1981
330
18AD
100
AcDbSymbolTableRecord
100
AcDbTextStyleTableRecord
  2
textstyle10
 70
     0
 40
0.0
 41
1.0
 50
0.0
 71
     0
 42
0.2
  3
ltypeshp.shx
  4

  0
STYLE
  5
19A9
330
18AD
100
AcDbSymbolTableRecord
100
AcDbTextStyleTableRecord
  2
textstyle11
 70
     0
 40
0.0
 41
1.0
 50
0.0
 71
     0
 42
0.2
  3

  4

1001
ACAD
1000
Arial
1071
        0
  0
STYLE
  5
19AF
330
18AD
100
AcDbSymbolTableRecord
100
AcDbTextStyleTableRecord
  2
textstyle12
 70
     0
 40
0.0
 41
1.0
 50
0.0
 71
     0
 42
0.2
  3

  4

1001
ACAD
1000
Arial
1071
        0
  0
STYLE
  5
19B0
330
18AD
100
AcDbSymbolTableRecord
100
AcDbTextStyleTableRecord
  2
textstyle13
 70
     0
 40
0.0
 41
1.0
 50
0.0
 71
     0
 42
0.2
  3

  4

1001
ACAD
1000
Arial
1071
        0
  0
STYLE
  5
19B1
330
18AD
100
AcDbSymbolTableRecord
100
AcDbTextStyleTableRecord
  2
textstyle14
 70
     0
 40
0.0
 41
1.0
 50
0.0
 71
     0
 42
0.2
  3

  4

1001
ACAD
1000
Arial
1071
        0
  0
STYLE
  5
19B2
330
18AD
100
AcDbSymbolTableRecord
100
AcDbTextStyleTableRecord
  2
textstyle15
 70
     0
 40
0.0
 41
1.0
 50
0.0
 71
     0
 42
0.2
  3

  4

1001
ACAD
1000
Arial
1071
        0
  0
STYLE
  5
19B3
330
18AD
100
AcDbSymbolTableRecord
100
AcDbTextStyleTableRecord
  2
textstyle16
 70
     0
 40
0.0
 41
1.0
 50
0.0
 71
     0
 42
0.2
  3

  4

1001
ACAD
1000
Arial
1071
        0
  0
STYLE
  5
19B4
330
18AD
100
AcDbSymbolTableRecord
100
AcDbTextStyleTableRecord
  2
textstyle17
 70
     0
 40
0.0
 41
1.0
 50
0.0
 71
     0
 42
0.2
  3

  4

1001
ACAD
1000
Arial
1071
        0
  0
STYLE
  5
19B5
330
18AD
100
AcDbSymbolTableRecord
100
AcDbTextStyleTableRecord
  2
textstyle18
 70
     0
 40
0.0
 41
1.0
 50
0.0
 71
     0
 42
0.2
  3

  4

1001
ACAD
1000
Arial
1071
        0
  0
STYLE
  5
19B6
330
18AD
100
AcDbSymbolTableRecord
100
AcDbTextStyleTableRecord
  2
textstyle19
 70
     0
 40
0.0
 41
1.0
 50
0.0
 71
     0
 42
0.2
  3

  4

1001
ACAD
1000
Arial
1071
        0
  0
STYLE
  5
19B7
330
18AD
100
AcDbSymbolTableRecord
100
AcDbTextStyleTableRecord
  2
textstyle20
 70
     0
 40
0.0
 41
1.0
 50
0.0
 71
     0
 42
0.2
  3

  4

1001
ACAD
1000
Arial
1071
        0
  0
STYLE
  5
19B8
330
18AD
100
AcDbSymbolTableRecord
100
AcDbTextStyleTableRecord
  2
textstyle21
 70
     0
 40
0.0
 41
1.0
 50
0.0
 71
     0
 42
0.2
  3

  4

1001
ACAD
1000
Arial
1071
        0
  0
STYLE
  5
19B9
330
18AD
100
AcDbSymbolTableRecord
100
AcDbTextStyleTableRecord
  2
textstyle22
 70
     0
 40
0.0
 41
1.0
 50
0.0
 71
     0
 42
0.2
  3

  4

1001
ACAD
1000
Arial
1071
        0
  0
STYLE
  5
19BA
330
18AD
100
AcDbSymbolTableRecord
100
AcDbTextStyleTableRecord
  2
textstyle23
 70
     0
 40
0.0
 41
1.0
 50
0.0
 71
     0
 42
0.2
  3

  4

1001
ACAD
1000
Arial
1071
        0
  0
STYLE
  5
19BB
330
18AD
100
AcDbSymbolTableRecord
100
AcDbTextStyleTableRecord
  2
textstyle24
 70
     0
 40
0.0
 41
1.0
 50
0.0
 71
     0
 42
0.2
  3

  4

1001
ACAD
1000
Arial
1071
        0
  0
STYLE
  5
19BC
330
18AD
100
AcDbSymbolTableRecord
100
AcDbTextStyleTableRecord
  2
textstyle25
 70
     0
 40
0.0
 41
1.0
 50
0.0
 71
     0
 42
0.2
  3

  4

1001
ACAD
1000
Arial
1071
        0
  0
STYLE
  5
19BD
330
18AD
100
AcDbSymbolTableRecord
100
AcDbTextStyleTableRecord
  2
textstyle26
 70
     0
 40
0.0
 41
1.0
 50
0.0
 71
     0
 42
0.2
  3

  4

1001
ACAD
1000
Arial
1071
        0
  0
STYLE
  5
19BE
330
18AD
100
AcDbSymbolTableRecord
100
AcDbTextStyleTableRecord
  2
textstyle27
 70
     0
 40
0.0
 41
1.0
 50
0.0
 71
     0
 42
0.2
  3

  4

1001
ACAD
1000
Arial
1071
        0
  0
STYLE
  5
19BF
330
18AD
100
AcDbSymbolTableRecord
100
AcDbTextStyleTableRecord
  2
textstyle28
 70
     0
 40
0.0
 41
1.0
 50
0.0
 71
     0
 42
0.2
  3

  4

1001
ACAD
1000
Arial
1071
        0
  0
STYLE
  5
19C0
330
18AD
100
AcDbSymbolTableRecord
100
AcDbTextStyleTableRecord
  2
textstyle29
 70
     0
 40
0.0
 41
1.0
 50
0.0
 71
     0
 42
0.2
  3

  4

1001
ACAD
1000
Arial
1071
        0
  0
STYLE
  5
19C1
330
18AD
100
AcDbSymbolTableRecord
100
AcDbTextStyleTableRecord
  2
textstyle30
 70
     0
 40
0.0
 41
1.0
 50
0.0
 71
     0
 42
0.2
  3

  4

1001
ACAD
1000
Arial
1071
        0
  0
STYLE
  5
19C2
330
18AD
100
AcDbSymbolTableRecord
100
AcDbTextStyleTableRecord
  2
textstyle31
 70
     0
 40
0.0
 41
1.0
 50
0.0
 71
     0
 42
0.2
  3

  4

1001
ACAD
1000
Arial
1071
        0
  0
STYLE
  5
19C3
330
18AD
100
AcDbSymbolTableRecord
100
AcDbTextStyleTableRecord
  2
textstyle32
 70
     0
 40
0.0
 41
1.0
 50
0.0
 71
     0
 42
0.2
  3

  4

1001
ACAD
1000
Arial
1071
        0
  0
STYLE
  5
19C4
330
18AD
100
AcDbSymbolTableRecord
100
AcDbTextStyleTableRecord
  2
textstyle33
 70
     0
 40
0.0
 41
1.0
 50
0.0
 71
     0
 42
0.2
  3

  4

1001
ACAD
1000
Arial
1071
        0
  0
STYLE
  5
19C5
330
18AD
100
AcDbSymbolTableRecord
100
AcDbTextStyleTableRecord
  2
textstyle34
 70
     0
 40
0.0
 41
1.0
 50
0.0
 71
     0
 42
0.2
  3

  4

1001
ACAD
1000
Arial
1071
        0
  0
STYLE
  5
19C6
330
18AD
100
AcDbSymbolTableRecord
100
AcDbTextStyleTableRecord
  2
textstyle35
 70
     0
 40
0.0
 41
1.0
 50
0.0
 71
     0
 42
0.2
  3

  4

1001
ACAD
1000
Arial
1071
        0
  0
STYLE
  5
19C7
330
18AD
100
AcDbSymbolTableRecord
100
AcDbTextStyleTableRecord
  2
textstyle36
 70
     0
 40
0.0
 41
1.0
 50
0.0
 71
     0
 42
0.2
  3

  4

1001
ACAD
1000
Arial
1071
        0
  0
STYLE
  5
19C8
330
18AD
100
AcDbSymbolTableRecord
100
AcDbTextStyleTableRecord
  2
textstyle37
 70
     0
 40
0.0
 41
1.0
 50
0.0
 71
     0
 42
0.2
  3

  4

1001
ACAD
1000
Arial
1071
        0
  0
STYLE
  5
19C9
330
18AD
100
AcDbSymbolTableRecord
100
AcDbTextStyleTableRecord
  2
textstyle38
 70
     0
 40
0.0
 41
1.0
 50
0.0
 71
     0
 42
0.2
  3

  4

1001
ACAD
1000
Arial
1071
        0
  0
STYLE
  5
19CA
330
18AD
100
AcDbSymbolTableRecord
100
AcDbTextStyleTableRecord
  2
textstyle39
 70
     0
 40
0.0
 41
1.0
 50
0.0
 71
     0
 42
0.2
  3

  4

1001
ACAD
1000
Arial
1071
        0
  0
STYLE
  5
19CB
330
18AD
100
AcDbSymbolTableRecord
100
AcDbTextStyleTableRecord
  2
textstyle40
 70
     0
 40
0.0
 41
1.0
 50
0.0
 71
     0
 42
0.2
  3

  4

1001
ACAD
1000
Arial
1071
        0
  0
STYLE
  5
19CC
330
18AD
100
AcDbSymbolTableRecord
100
AcDbTextStyleTableRecord
  2
textstyle41
 70
     0
 40
0.0
 41
1.0
 50
0.0
 71
     0
 42
0.2
  3

  4

1001
ACAD
1000
Arial
1071
        0
  0
STYLE
  5
19CD
330
18AD
100
AcDbSymbolTableRecord
100
AcDbTextStyleTableRecord
  2
textstyle42
 70
     0
 40
0.0
 41
1.0
 50
0.0
 71
     0
 42
0.2
  3

  4

1001
ACAD
1000
Arial
1071
        0
  0
STYLE
  5
19CE
330
18AD
100
AcDbSymbolTableRecord
100
AcDbTextStyleTableRecord
  2
textstyle43
 70
     0
 40
0.0
 41
1.0
 50
0.0
 71
     0
 42
0.2
  3

  4

1001
ACAD
1000
Arial
1071
        0
  0
STYLE
  5
19CF
330
18AD
100
AcDbSymbolTableRecord
100
AcDbTextStyleTableRecord
  2
textstyle44
 70
     0
 40
0.0
 41
1.0
 50
0.0
 71
     0
 42
0.2
  3

  4

1001
ACAD
1000
Arial
1071
        0
  0
STYLE
  5
19D0
330
18AD
100
AcDbSymbolTableRecord
100
AcDbTextStyleTableRecord
  2
textstyle45
 70
     0
 40
0.0
 41
1.0
 50
0.0
 71
     0
 42
0.2
  3

  4

1001
ACAD
1000
Arial
1071
        0
  0
STYLE
  5
19D1
330
18AD
100
AcDbSymbolTableRecord
100
AcDbTextStyleTableRecord
  2
textstyle46
 70
     0
 40
0.0
 41
1.0
 50
0.0
 71
     0
 42
0.2
  3

  4

1001
ACAD
1000
Arial
1071
        0
  0
STYLE
  5
19D2
330
18AD
100
AcDbSymbolTableRecord
100
AcDbTextStyleTableRecord
  2
textstyle47
 70
     0
 40
0.0
 41
1.0
 50
0.0
 71
     0
 42
0.2
  3

  4

1001
ACAD
1000
Arial
1071
        0
  0
STYLE
  5
19D3
330
18AD
100
AcDbSymbolTableRecord
100
AcDbTextStyleTableRecord
  2
textstyle48
 70
     0
 40
0.0
 41
1.0
 50
0.0
 71
     0
 42
0.2
  3

  4

1001
ACAD
1000
Arial
1071
        0
  0
STYLE
  5
19D4
330
18AD
100
AcDbSymbolTableRecord
100
AcDbTextStyleTableRecord
  2
textstyle49
 70
     0
 40
0.0
 41
1.0
 50
0.0
 71
     0
 42
0.2
  3

  4

1001
ACAD
1000
Arial
1071
        0
  0
STYLE
  5
19D5
330
18AD
100
AcDbSymbolTableRecord
100
AcDbTextStyleTableRecord
  2
textstyle50
 70
     0
 40
0.0
 41
1.0
 50
0.0
 71
     0
 42
0.2
  3

  4

1001
ACAD
1000
Arial
1071
        0
  0
STYLE
  5
19D6
330
18AD
100
AcDbSymbolTableRecord
100
AcDbTextStyleTableRecord
  2
textstyle51
 70
     0
 40
0.0
 41
1.0
 50
0.0
 71
     0
 42
0.2
  3

  4

1001
ACAD
1000
Arial
1071
        0
  0
STYLE
  5
19D7
330
18AD
100
AcDbSymbolTableRecord
100
AcDbTextStyleTableRecord
  2
textstyle52
 70
     0
 40
0.0
 41
1.0
 50
0.0
 71
     0
 42
0.2
  3

  4

1001
ACAD
1000
Arial
1071
        0
  0
STYLE
  5
19D8
330
18AD
100
AcDbSymbolTableRecord
100
AcDbTextStyleTableRecord
  2
textstyle53
 70
     0
 40
0.0
 41
1.0
 50
0.0
 71
     0
 42
0.2
  3

  4

1001
ACAD
1000
Arial
1071
        0
  0
STYLE
  5
19D9
330
18AD
100
AcDbSymbolTableRecord
100
AcDbTextStyleTableRecord
  2
textstyle54
 70
     0
 40
0.0
 41
1.0
 50
0.0
 71
     0
 42
0.2
  3

  4

1001
ACAD
1000
Arial
1071
        0
  0
STYLE
  5
19DA
330
18AD
100
AcDbSymbolTableRecord
100
AcDbTextStyleTableRecord
  2
textstyle55
 70
     0
 40
0.0
 41
1.0
 50
0.0
 71
     0
 42
0.2
  3

  4

1001
ACAD
1000
Arial
1071
        0
  0
STYLE
  5
19DB
330
18AD
100
AcDbSymbolTableRecord
100
AcDbTextStyleTableRecord
  2
textstyle56
 70
     0
 40
0.0
 41
1.0
 50
0.0
 71
     0
 42
0.2
  3

  4

1001
ACAD
1000
Arial
1071
        0
  0
STYLE
  5
19DC
330
18AD
100
AcDbSymbolTableRecord
100
AcDbTextStyleTableRecord
  2
textstyle57
 70
     0
 40
0.0
 41
1.0
 50
0.0
 71
     0
 42
0.2
  3

  4

1001
ACAD
1000
Arial
1071
        0
  0
STYLE
  5
19DD
330
18AD
100
AcDbSymbolTableRecord
100
AcDbTextStyleTableRecord
  2
textstyle58
 70
     0
 40
0.0
 41
1.0
 50
0.0
 71
     0
 42
0.2
  3

  4

1001
ACAD
1000
Arial
1071
        0
  0
STYLE
  5
19DE
330
18AD
100
AcDbSymbolTableRecord
100
AcDbTextStyleTableRecord
  2
textstyle59
 70
     0
 40
0.0
 41
1.0
 50
0.0
 71
     0
 42
0.2
  3

  4

1001
ACAD
1000
Arial
1071
        0
  0
STYLE
  5
19DF
330
18AD
100
AcDbSymbolTableRecord
100
AcDbTextStyleTableRecord
  2
textstyle60
 70
     0
 40
0.0
 41
1.0
 50
0.0
 71
     0
 42
0.2
  3

  4

1001
ACAD
1000
Arial
1071
        0
  0
STYLE
  5
19E0
330
18AD
100
AcDbSymbolTableRecord
100
AcDbTextStyleTableRecord
  2
textstyle61
 70
     0
 40
0.0
 41
1.0
 50
0.0
 71
     0
 42
0.2
  3

  4

1001
ACAD
1000
Arial
1071
        0
  0
STYLE
  5
19E1
330
18AD
100
AcDbSymbolTableRecord
100
AcDbTextStyleTableRecord
  2
textstyle62
 70
     0
 40
0.0
 41
1.0
 50
0.0
 71
     0
 42
0.2
  3

  4

1001
ACAD
1000
Arial
1071
        0
  0
STYLE
  5
19E2
330
18AD
100
AcDbSymbolTableRecord
100
AcDbTextStyleTableRecord
  2
textstyle63
 70
     0
 40
0.0
 41
1.0
 50
0.0
 71
     0
 42
0.2
  3

  4

1001
ACAD
1000
Arial
1071
        0
  0
STYLE
  5
19E3
330
18AD
100
AcDbSymbolTableRecord
100
AcDbTextStyleTableRecord
  2
textstyle64
 70
     0
 40
0.0
 41
1.0
 50
0.0
 71
     0
 42
0.2
  3

  4

1001
ACAD
1000
Arial
1071
        0
  0
STYLE
  5
19E4
330
18AD
100
AcDbSymbolTableRecord
100
AcDbTextStyleTableRecord
  2
textstyle65
 70
     0
 40
0.0
 41
1.0
 50
0.0
 71
     0
 42
0.2
  3

  4

1001
ACAD
1000
Arial
1071
        0
  0
STYLE
  5
19E5
330
18AD
100
AcDbSymbolTableRecord
100
AcDbTextStyleTableRecord
  2
textstyle66
 70
     0
 40
0.0
 41
1.0
 50
0.0
 71
     0
 42
0.2
  3

  4

1001
ACAD
1000
Arial
1071
        0
  0
STYLE
  5
19E6
330
18AD
100
AcDbSymbolTableRecord
100
AcDbTextStyleTableRecord
  2
textstyle67
 70
     0
 40
0.0
 41
1.0
 50
0.0
 71
     0
 42
0.2
  3

  4

1001
ACAD
1000
Arial
1071
        0
  0
STYLE
  5
19E7
330
18AD
100
AcDbSymbolTableRecord
100
AcDbTextStyleTableRecord
  2
textstyle68
 70
     0
 40
0.0
 41
1.0
 50
0.0
 71
     0
 42
0.2
  3

  4

1001
ACAD
1000
Arial
1071
        0
  0
STYLE
  5
19E8
330
18AD
100
AcDbSymbolTableRecord
100
AcDbTextStyleTableRecord
  2
textstyle69
 70
     0
 40
0.0
 41
1.0
 50
0.0
 71
     0
 42
0.2
  3

  4

1001
ACAD
1000
Arial
1071
        0
  0
STYLE
  5
19E9
330
18AD
100
AcDbSymbolTableRecord
100
AcDbTextStyleTableRecord
  2
textstyle70
 70
     0
 40
0.0
 41
1.0
 50
0.0
 71
     0
 42
0.2
  3

  4

1001
ACAD
1000
Arial
1071
        0
  0
STYLE
  5
19EA
330
18AD
100
AcDbSymbolTableRecord
100
AcDbTextStyleTableRecord
  2
textstyle71
 70
     0
 40
0.0
 41
1.0
 50
0.0
 71
     0
 42
0.2
  3

  4

1001
ACAD
1000
Arial
1071
        0
  0
STYLE
  5
19EB
330
18AD
100
AcDbSymbolTableRecord
100
AcDbTextStyleTableRecord
  2
textstyle72
 70
     0
 40
0.0
 41
1.0
 50
0.0
 71
     0
 42
0.2
  3

  4

1001
ACAD
1000
Arial
1071
        0
  0
STYLE
  5
19EC
330
18AD
100
AcDbSymbolTableRecord
100
AcDbTextStyleTableRecord
  2
textstyle73
 70
     0
 40
0.0
 41
1.0
 50
0.0
 71
     0
 42
0.2
  3

  4

1001
ACAD
1000
Arial
1071
        0
  0
STYLE
  5
19ED
330
18AD
100
AcDbSymbolTableRecord
100
AcDbTextStyleTableRecord
  2
textstyle74
 70
     0
 40
0.0
 41
1.0
 50
0.0
 71
     0
 42
0.2
  3

  4

1001
ACAD
1000
Arial
1071
        0
  0
STYLE
  5
19EE
330
18AD
100
AcDbSymbolTableRecord
100
AcDbTextStyleTableRecord
  2
textstyle75
 70
     0
 40
0.0
 41
1.0
 50
0.0
 71
     0
 42
0.2
  3

  4

1001
ACAD
1000
Arial
1071
        0
  0
STYLE
  5
19EF
330
18AD
100
AcDbSymbolTableRecord
100
AcDbTextStyleTableRecord
  2
textstyle76
 70
     0
 40
0.0
 41
1.0
 50
0.0
 71
     0
 42
0.2
  3

  4

1001
ACAD
1000
Arial
1071
        0
  0
STYLE
  5
19F0
330
18AD
100
AcDbSymbolTableRecord
100
AcDbTextStyleTableRecord
  2
textstyle77
 70
     0
 40
0.0
 41
1.0
 50
0.0
 71
     0
 42
0.2
  3

  4

1001
ACAD
1000
Arial
1071
        0
  0
STYLE
  5
19F1
330
18AD
100
AcDbSymbolTableRecord
100
AcDbTextStyleTableRecord
  2
textstyle78
 70
     0
 40
0.0
 41
1.0
 50
0.0
 71
     0
 42
0.2
  3

  4

1001
ACAD
1000
Arial
1071
        0
  0
STYLE
  5
19F2
330
18AD
100
AcDbSymbolTableRecord
100
AcDbTextStyleTableRecord
  2
textstyle79
 70
     0
 40
0.0
 41
1.0
 50
0.0
 71
     0
 42
0.2
  3

  4

1001
ACAD
1000
Arial
1071
        0
  0
STYLE
  5
19F3
330
18AD
100
AcDbSymbolTableRecord
100
AcDbTextStyleTableRecord
  2
textstyle80
 70
     0
 40
0.0
 41
1.0
 50
0.0
 71
     0
 42
0.2
  3

  4

1001
ACAD
1000
Arial
1071
        0
  0
STYLE
  5
19F4
330
18AD
100
AcDbSymbolTableRecord
100
AcDbTextStyleTableRecord
  2
textstyle81
 70
     0
 40
0.0
 41
1.0
 50
0.0
 71
     0
 42
0.2
  3

  4

1001
ACAD
1000
Arial
1071
        0
  0
STYLE
  5
19F5
330
18AD
100
AcDbSymbolTableRecord
100
AcDbTextStyleTableRecord
  2
textstyle82
 70
     0
 40
0.0
 41
1.0
 50
0.0
 71
     0
 42
0.2
  3

  4

1001
ACAD
1000
Arial
1071
        0
  0
STYLE
  5
19F6
330
18AD
100
AcDbSymbolTableRecord
100
AcDbTextStyleTableRecord
  2
textstyle83
 70
     0
 40
0.0
 41
1.0
 50
0.0
 71
     0
 42
0.2
  3

  4

1001
ACAD
1000
Arial
1071
        0
  0
STYLE
  5
19F7
330
18AD
100
AcDbSymbolTableRecord
100
AcDbTextStyleTableRecord
  2
textstyle84
 70
     0
 40
0.0
 41
1.0
 50
0.0
 71
     0
 42
0.2
  3

  4

1001
ACAD
1000
Arial
1071
        0
  0
STYLE
  5
19F8
330
18AD
100
AcDbSymbolTableRecord
100
AcDbTextStyleTableRecord
  2
textstyle85
 70
     0
 40
0.0
 41
1.0
 50
0.0
 71
     0
 42
0.2
  3

  4

1001
ACAD
1000
Arial
1071
        0
  0
STYLE
  5
19F9
330
18AD
100
AcDbSymbolTableRecord
100
AcDbTextStyleTableRecord
  2
textstyle86
 70
     0
 40
0.0
 41
1.0
 50
0.0
 71
     0
 42
0.2
  3

  4

1001
ACAD
1000
Arial
1071
 16777216
  0
STYLE
  5
19FA
330
18AD
100
AcDbSymbolTableRecord
100
AcDbTextStyleTableRecord
  2
textstyle87
 70
     0
 40
0.0
 41
1.0
 50
0.0
 71
     0
 42
0.2
  3

  4

1001
ACAD
1000
Arial
1071
 16777216
  0
STYLE
  5
19FB
330
18AD
100
AcDbSymbolTableRecord
100
AcDbTextStyleTableRecord
  2
textstyle88
 70
     0
 40
0.0
 41
1.0
 50
0.0
 71
     0
 42
0.2
  3

  4

1001
ACAD
1000
Arial
1071
 16777216
  0
STYLE
  5
19FC
330
18AD
100
AcDbSymbolTableRecord
100
AcDbTextStyleTableRecord
  2
textstyle89
 70
     0
 40
0.0
 41
1.0
 50
0.0
 71
     0
 42
0.2
  3

  4

1001
ACAD
1000
Arial
1071
 16777216
  0
STYLE
  5
19FD
330
18AD
100
AcDbSymbolTableRecord
100
AcDbTextStyleTableRecord
  2
textstyle90
 70
     0
 40
0.0
 41
1.0
 50
0.0
 71
     0
 42
0.2
  3

  4

1001
ACAD
1000
Arial
1071
 16777216
  0
STYLE
  5
19FE
330
18AD
100
AcDbSymbolTableRecord
100
AcDbTextStyleTableRecord
  2
textstyle91
 70
     0
 40
0.0
 41
1.0
 50
0.0
 71
     0
 42
0.2
  3

  4

1001
ACAD
1000
Arial
1071
 16777216
  0
STYLE
  5
19FF
330
18AD
100
AcDbSymbolTableRecord
100
AcDbTextStyleTableRecord
  2
textstyle92
 70
     0
 40
0.0
 41
1.0
 50
0.0
 71
     0
 42
0.2
  3

  4

1001
ACAD
1000
Arial
1071
 16777216
  0
STYLE
  5
1A00
330
18AD
100
AcDbSymbolTableRecord
100
AcDbTextStyleTableRecord
  2
textstyle93
 70
     0
 40
0.0
 41
1.0
 50
0.0
 71
     0
 42
0.2
  3

  4

1001
ACAD
1000
Arial
1071
 16777216
  0
STYLE
  5
1A01
330
18AD
100
AcDbSymbolTableRecord
100
AcDbTextStyleTableRecord
  2
textstyle94
 70
     0
 40
0.0
 41
1.0
 50
0.0
 71
     0
 42
0.2
  3

  4

1001
ACAD
1000
Arial
1071
 16777216
  0
STYLE
  5
1A02
330
18AD
100
AcDbSymbolTableRecord
100
AcDbTextStyleTableRecord
  2
textstyle95
 70
     0
 40
0.0
 41
1.0
 50
0.0
 71
     0
 42
0.2
  3

  4

1001
ACAD
1000
Arial
1071
 16777216
  0
STYLE
  5
1A03
330
18AD
100
AcDbSymbolTableRecord
100
AcDbTextStyleTableRecord
  2
textstyle96
 70
     0
 40
0.0
 41
1.0
 50
0.0
 71
     0
 42
0.2
  3

  4

1001
ACAD
1000
Arial
1071
        0
  0
STYLE
  5
1A04
330
18AD
100
AcDbSymbolTableRecord
100
AcDbTextStyleTableRecord
  2
textstyle97
 70
     0
 40
0.0
 41
1.0
 50
0.0
 71
     0
 42
0.2
  3

  4

1001
ACAD
1000
Arial
1071
        0
  0
STYLE
  5
1A05
330
18AD
100
AcDbSymbolTableRecord
100
AcDbTextStyleTableRecord
  2
textstyle98
 70
     0
 40
0.0
 41
1.0
 50
0.0
 71
     0
 42
0.2
  3

  4

1001
ACAD
1000
Arial
1071
        0
  0
ENDTAB
  0
TABLE
  2
VIEW
  5
18AF
330
0
100
AcDbSymbolTable
 70
     0
  0
ENDTAB
  0
TABLE
  2
UCS
  5
18B0
330
0
100
AcDbSymbolTable
 70
     0
  0
ENDTAB
  0
TABLE
  2
APPID
  5
18B2
330
0
100
AcDbSymbolTable
 70
     2
  0
APPID
  5
18BB
330
18B2
100
AcDbSymbolTableRecord
100
AcDbRegAppTableRecord
  2
ACAD
 70
     0
  0
APPID
  5
1916
330
18B2
100
AcDbSymbolTableRecord
100
AcDbRegAppTableRecord
  2
QCAD
 70
     0
  0
ENDTAB
  0
TABLE
  2
DIMSTYLE
  5
18B3
330
0
100
AcDbSymbolTable
 70
     2
100
AcDbDimStyleTable
  0
DIMSTYLE
105
18CF
330
18B3
100
AcDbSymbolTableRecord
100
AcDbDimStyleTableRecord
  2
Standard
 70
     0
178
     0
340
18BA
  0
DIMSTYLE
105
194B
330
18B3
100
AcDbSymbolTableRecord
100
AcDbDimStyleTableRecord
  2
QCADDimStyle
 70
     0
 41
2.5
 42
0.625
 44
1.25
 73
     0
 77
     1
140
2.5
147
0.625
178
     0
340
194A
  0
ENDTAB
  0
TABLE
  2
BLOCK_RECORD
  5
18AB
330
0
100
AcDbSymbolTable
 70
     8
  0
BLOCK_RECORD
  5
18C7
330
18AB
100
AcDbSymbolTableRecord
100
AcDbBlockTableRecord
  2
*Model_Space
340
18CA
 70
     0
280
     1
281
     0
  0
BLOCK_RECORD
  5
18C3
330
18AB
100
AcDbSymbolTableRecord
100
AcDbBlockTableRecord
  2
*Paper_Space
340
18C6
 70
     0
280
     1
281
     0
  0
BLOCK_RECORD
  5
198F
330
18AB
100
AcDbSymbolTableRecord
100
AcDbBlockTableRecord
  2
A$C7C38114C
340
0
102
{BLKREFS
331
15D9
102
}
 70
     0
280
     1
281
     0
  0
BLOCK_RECORD
  5
1992
330
18AB
100
AcDbSymbolTableRecord
100
AcDbBlockTableRecord
  2
A$C50204844
340
0
102
{BLKREFS
331
173C
102
}
 70
     0
280
     1
281
     0
  0
BLOCK_RECORD
  5
1997
330
18AB
100
AcDbSymbolTableRecord
100
AcDbBlockTableRecord
  2
hedgehog
340
0
102
{BLKREFS
331
189D
331
189E
331
189F
331
18A0
102
}
 70
     0
280
     1
281
     0
  0
BLOCK_RECORD
  5
199A
330
18AB
100
AcDbSymbolTableRecord
100
AcDbBlockTableRecord
  2
logpile
340
0
102
{BLKREFS
331
18A6
331
18A7
331
18A8
102
}
 70
     0
280
     1
281
     0
  0
BLOCK_RECORD
  5
199D
330
18AB
100
AcDbSymbolTableRecord
100
AcDbBlockTableRecord
  2
A$C3E2236F0
340
0
 70
     0
280
     1
281
     0
  0
BLOCK_RECORD
  5
19A0
330
18AB
100
AcDbSymbolTableRecord
100
AcDbBlockTableRecord
  2
paving
340
0
102
{BLKREFS
331
DD8
102
}
 70
     0
280
     1
281
     0
  0
BLOCK_RECORD
  5
19A3
330
18AB
100
AcDbSymbolTableRecord
100
AcDbBlockTableRecord
  2
table
340
0
102
{BLKREFS
331
C48
102
}
 70
     0
280
     1
281
     0
  0
BLOCK_RECORD
  5
19A6
330
18AB
100
AcDbSymbolTableRecord
100
AcDbBlockTableRecord
  2
A$C31D61DB3
340
0
102
{BLKREFS
331
15A4
102
}
 70
     0
280
     1
281
     0
  0
ENDTAB
  0
ENDSEC
  0
SECTION
  2
BLOCKS
  0
BLOCK
  5
18C8
330
18C7
100
AcDbEntity
  8
0
100
AcDbBlockBegin
  2
*Model_Space
 70
     0
 10
0.0
 20
0.0
 30
0.0
  3
*Model_Space
  1

  0
ENDBLK
  5
18C9
330
18C7
100
AcDbEntity
  8
0
100
AcDbBlockEnd
  0
BLOCK
  5
18C4
330
18C3
100
AcDbEntity
 67
     1
  8
0
100
AcDbBlockBegin
  2
*Paper_Space
 70
     0
 10
0.0
 20
0.0
 30
0.0
  3
*Paper_Space
  1

  0
ENDBLK
  5
18C5
330
18C3
100
AcDbEntity
 67
     1
  8
0
100
AcDbBlockEnd
  0
BLOCK
  5
1990
330
198F
100
AcDbEntity
  8
0
100
AcDbBlockBegin
  2
A$C7C38114C
 70
     0
 10
0.0
 20
0.0
 30
0.0
  3
A$C7C38114C
  1

  0
LINE
  5
15D5
330
198F
100
AcDbEntity
  8
Buildings
100
AcDbLine
 10
0.0349999694376893
 20
0.1999999806571868
 30
0.0
 11
0.0349999694376893
 21
0.9799999806571869
 31
0.0
  0
LWPOLYLINE
  5
15D6
330
198F
100
AcDbEntity
  8
Buildings
100
AcDbPolyline
 90
        2
 70
     0
 43
0.0
 10
0.0349999694376966
 20
0.1999999806571868
 10
0.0749999694376893
 20
0.1999999806571868
  0
LINE
  5
15D4
330
198F
100
AcDbEntity
  8
Buildings
100
AcDbLine
 10
0.0749999694376893
 20
0.1999999806571868
 30
0.0
 11
0.0749999694376893
 21
0.978903266422858
 31
0.0
  0
LWPOLYLINE
  5
15D3
330
198F
100
AcDbEntity
  8
Buildings
100
AcDbPolyline
 90
        8
 70
     1
 43
0.0
 10
0.849999969437693
 20
0.1999999806571868
 10
0.849999969437693
 20
-0.0000000193428132
 10
0.8149999694376966
 20
-0.0000000193428132
 10
0.8149999694376966
 20
0.0499999806571868
 10
0.7999999694376966
 20
0.0499999806571868
 10
0.7999999694376966
 20
0.1499999806571868
 10
0.8149999694376966
 20
0.1499999806571868
 10
0.8149999694376966
 20
0.1999999806571868
  0
LWPOLYLINE
  5
15D7
330
198F
100
AcDbEntity
  8
Buildings
100
AcDbPolyline
 90
        8
 70
     1
 43
0.0
 10
-0.0000000305623107
 20
0.1999999806571868
 10
-0.0000000305623107
 20
-0.0000000193428132
 10
0.0349999694376893
 20
-0.0000000193428132
 10
0.0349999694376893
 20
0.0499999806571868
 10
0.0499999694376893
 20
0.0499999806571868
 10
0.0499999694376893
 20
0.1499999806571868
 10
0.0349999694376893
 20
0.1499999806571868
 10
0.0349999694376893
 20
0.1999999806571868
  0
ARC
  5
15D8
330
198F
100
AcDbEntity
  8
Buildings
100
AcDbCircle
 10
-0.0024223332880501
 20
0.1625776779314329
 30
0.0
 40
0.818278467109303
100
AcDbArc
 50
2.621220293190625
 51
87.37877970722107
  0
ENDBLK
  5
1991
330
198F
100
AcDbEntity
  8
0
100
AcDbBlockEnd
  0
BLOCK
  5
1993
330
1992
100
AcDbEntity
  8
0
100
AcDbBlockBegin
  2
A$C50204844
 70
     0
 10
0.0
 20
0.0
 30
0.0
  3
A$C50204844
  1

  0
LWPOLYLINE
  5
173B
330
1992
100
AcDbEntity
  8
Buildings
100
AcDbPolyline
 90
        4
 70
     1
 43
0.0
 10
0.8200000103191415
 20
0.5121740343671117
 10
0.8200000090525428
 20
0.1000000124003564
 10
0.8600000090525427
 20
0.1000000124003564
 10
0.8600000103191414
 20
0.5121740343671117
  0
ARC
  5
1737
330
1992
100
AcDbEntity
  8
Buildings
  6
HIDDEN4
100
AcDbCircle
 10
0.8605635573650652
 20
0.10360441615319
 30
0.0
 40
0.4105782925060165
100
AcDbArc
 50
95.66985060884667
 51
180.4687462665437
  0
LWPOLYLINE
  5
1733
330
1992
100
AcDbEntity
  8
Buildings
100
AcDbPolyline
 90
        4
 70
     1
 43
0.0
 10
0.0800000077878067
 20
0.5121740343671117
 10
0.0800000090525427
 20
0.1000000124003564
 10
0.0400000090525427
 20
0.1000000124003564
 10
0.0400000077878067
 20
0.5121740343671117
  0
ARC
  5
1735
330
1992
100
AcDbEntity
  8
Buildings
  6
HIDDEN4
100
AcDbCircle
 10
0.0394364607418829
 20
0.10360441615319
 30
0.0
 40
0.4105782925060165
100
AcDbArc
 50
359.5312537334563
 51
84.33014939115333
  0
LWPOLYLINE
  5
1739
330
1992
100
AcDbEntity
  8
Buildings
100
AcDbPolyline
 90
        4
 70
     1
 43
0.0
 10
0.8878378468901792
 20
0.0100000124078069
 10
0.9000000090525427
 20
0.0100000124078069
 10
0.9000000090525427
 20
0.0900000123966311
 10
0.8878378468901792
 20
0.0900000123966311
  0
LWPOLYLINE
  5
1736
330
1992
100
AcDbEntity
  8
Buildings
100
AcDbPolyline
 90
        4
 70
     1
 43
0.0
 10
0.0121621712158376
 20
0.0100000124078069
 10
0.0000000090525427
 20
0.0100000124078069
 10
0.0000000090525427
 20
0.0900000123966311
 10
0.0121621712158376
 20
0.0900000123966311
  0
LWPOLYLINE
  5
1738
330
1992
100
AcDbEntity
  8
Buildings
100
AcDbPolyline
 90
        7
 70
     1
 43
0.0
 10
0.8878378468966985
 20
0.1000000124003564
 10
0.8600000090525427
 20
0.1000000124003564
 10
0.8600000090534741
 20
0.0600000124040816
 10
0.8478378468901793
 20
0.0600000124040816
 10
0.8478378468911105
 20
0.016216228632984
 10
0.8478378468911105
 20
0.0000000124040816
 10
0.8878378468827286
 20
0.0000000124040816
  0
LWPOLYLINE
  5
173A
330
1992
100
AcDbEntity
  8
Buildings
100
AcDbPolyline
 90
        7
 70
     1
 43
0.0
 10
0.012162171208387
 20
0.1000000124003564
 10
0.0400000090525427
 20
0.1000000124003564
 10
0.0400000090525427
 20
0.0600000124040816
 10
0.0521621712167689
 20
0.0600000124040816
 10
0.0521621712158376
 20
0.016216228632984
 10
0.0521621712158376
 20
0.0000000124040816
 10
0.0121621712232882
 20
0.0000000124040816
  0
ENDBLK
  5
1994
330
1992
100
AcDbEntity
  8
0
100
AcDbBlockEnd
  0
BLOCK
  5
1998
330
1997
100
AcDbEntity
  8
0
100
AcDbBlockBegin
  2
hedgehog
 70
     0
 10
0.0
 20
0.0
 30
0.0
  3
hedgehog
  1

  0
LWPOLYLINE
  5
189B
330
1997
100
AcDbEntity
  8
Structures
100
AcDbPolyline
 90
        4
 70
   129
 43
0.0
 10
0.0
 20
0.0
 10
0.13
 20
0.0
 10
0.13
 20
0.1
 10
0.0
 20
0.1
  0
MTEXT
  5
189C
330
1997
100
AcDbEntity
  8
Structures
100
AcDbMText
 10
0.0911177291875174
 20
-0.06287439090224
 30
0.0
 40
0.1
 41
0.0
 46
0.0
 71
     5
 72
     1
  1
\c32767;Hedgehog
  7
textstyle97
 73
     1
 44
1.0
  0
ENDBLK
  5
1999
330
1997
100
AcDbEntity
  8
0
100
AcDbBlockEnd
  0
BLOCK
  5
199B
330
199A
100
AcDbEntity
  8
0
100
AcDbBlockBegin
  2
logpile
 70
     0
 10
0.0
 20
0.0
 30
0.0
  3
logpile
  1

  0
LWPOLYLINE
  5
18A4
330
199A
100
AcDbEntity
  8
Structures
100
AcDbPolyline
 90
        4
 70
   129
 43
0.0
 10
0.0
 20
0.0
 10
0.6
 20
0.0
 10
0.6
 20
0.4
 10
0.0
 20
0.4
  0
MTEXT
  5
18A5
330
199A
100
AcDbEntity
  8
Structures
100
AcDbMText
 10
0.3063361653890366
 20
0.1988771838721086
 30
0.0
 40
0.1
 41
0.0
 46
0.0
 71
     5
 72
     1
  1
\c32767;Logpile
  7
textstyle98
 73
     1
 44
1.0
  0
ENDBLK
  5
199C
330
199A
100
AcDbEntity
  8
0
100
AcDbBlockEnd
  0
BLOCK
  5
199E
330
199D
100
AcDbEntity
  8
0
100
AcDbBlockBegin
  2
A$C3E2236F0
 70
     0
 10
0.0
 20
0.0
 30
0.0
  3
A$C3E2236F0
  1

  0
LINE
  5
B8B
330
199D
100
AcDbEntity
  8
0
  6
ByBlock
100
AcDbLine
 10
0.0464667033650578
 20
0.0175359217875612
 30
0.0
 11
0.0470321431362354
 21
0.0168235018978496
 31
0.0
  0
ARC
  5
B8C
330
199D
100
AcDbEntity
  8
0
  6
ByBlock
100
AcDbCircle
 10
0.0344944150294556
 20
0.0245050080690598
 30
0.0
 40
0.0147037465680294
100
AcDbArc
 50
328.5053940022936
 51
30.40187296167259
  0
LINE
  5
B85
330
199D
100
AcDbEntity
  8
0
  6
ByBlock
100
AcDbLine
 10
0.0471763541980923
 20
0.0319460148598522
 30
0.0
 11
0.0464667033650578
 21
0.0314727216725172
 31
0.0
  0
LINE
  5
B86
330
199D
100
AcDbEntity
  8
0
  6
ByBlock
100
AcDbLine
 10
0.0468888402046621
 20
0.0306024438110595
 30
0.0
 11
0.0387303832887708
 21
0.0306024438110595
 31
0.0
  0
ARC
  5
B6F
330
199D
100
AcDbEntity
  8
0
  6
ByBlock
100
AcDbCircle
 10
0.0387303832887708
 20
0.0293832438110883
 30
0.0
 40
0.0012192
100
AcDbArc
 50
90.0
 51
180.0
  0
LINE
  5
B70
330
199D
100
AcDbEntity
  8
0
  6
ByBlock
100
AcDbLine
 10
0.0375111832887997
 20
0.0293832438110883
 30
0.0
 11
0.0375111832887997
 21
0.0196267723270314
 31
0.0
  0
ARC
  5
B89
330
199D
100
AcDbEntity
  8
0
  6
ByBlock
100
AcDbCircle
 10
0.0387303832887708
 20
0.0196267723270314
 30
0.0
 40
0.0012192
100
AcDbArc
 50
180.0
 51
270.0
  0
LINE
  5
B8A
330
199D
100
AcDbEntity
  8
0
  6
ByBlock
100
AcDbLine
 10
0.0387303832887708
 20
0.018407572327014
 30
0.0
 11
0.0468888402046621
 21
0.018407572327014
 31
0.0
  0
ARC
  5
B93
330
199D
100
AcDbEntity
  8
0
  6
ByBlock
100
AcDbCircle
 10
0.0344944150294556
 20
0.0245050080690598
 30
0.0
 40
0.0138130553481364
100
AcDbArc
 50
330.0816618476595
 51
30.68210469163829
  0
LINE
  5
B94
330
199D
100
AcDbEntity
  8
0
  6
ByBlock
100
AcDbLine
 10
0.0182979256455648
 20
0.0027307920325529
 30
0.0
 11
0.0175855057558532
 21
0.0021653522613291
 31
0.0
  0
ARC
  5
B8D
330
199D
100
AcDbEntity
  8
0
  6
ByBlock
100
AcDbCircle
 10
0.0252670119270173
 20
0.0147030803680627
 30
0.0
 40
0.0147037465680294
100
AcDbArc
 50
238.5053940024369
 51
300.4018729618152
  0
LINE
  5
B8E
330
199D
100
AcDbEntity
  8
0
  6
ByBlock
100
AcDbLine
 10
0.0327080187178559
 20
0.0020211411994722
 30
0.0
 11
0.0322347255304747
 21
0.0027307920325529
 31
0.0
  0
LINE
  5
B87
330
199D
100
AcDbEntity
  8
0
  6
ByBlock
100
AcDbLine
 10
0.0313644476690169
 20
0.0023086551929024
 30
0.0
 11
0.0313644476690169
 21
0.0104671121087937
 31
0.0
  0
ARC
  5
B88
330
199D
100
AcDbEntity
  8
0
  6
ByBlock
100
AcDbCircle
 10
0.0301452476690458
 20
0.0104671121087937
 30
0.0
 40
0.0012192
100
AcDbArc
 50
0.0
 51
90.0
  0
LINE
  5
B91
330
199D
100
AcDbEntity
  8
0
  6
ByBlock
100
AcDbLine
 10
0.0301452476690458
 20
0.011686312108811
 30
0.0
 11
0.0203887761849888
 21
0.011686312108811
 31
0.0
  0
ARC
  5
B92
330
199D
100
AcDbEntity
  8
0
  6
ByBlock
100
AcDbCircle
 10
0.0203887761849888
 20
0.0104671121087937
 30
0.0
 40
0.0012192
100
AcDbArc
 50
90.0
 51
180.0
  0
LINE
  5
B83
330
199D
100
AcDbEntity
  8
0
  6
ByBlock
100
AcDbLine
 10
0.0191695761850176
 20
0.0104671121087937
 30
0.0
 11
0.0191695761850176
 21
0.0023086551929024
 31
0.0
  0
ARC
  5
B84
330
199D
100
AcDbEntity
  8
0
  6
ByBlock
100
AcDbCircle
 10
0.0252670119270173
 20
0.0147030803680627
 30
0.0
 40
0.0138130553481364
100
AcDbArc
 50
240.0816618476595
 51
300.6821046917811
  0
LINE
  5
B7D
330
199D
100
AcDbEntity
  8
0
  6
ByBlock
100
AcDbLine
 10
0.0306455736099349
 20
0.0457046995070541
 30
0.0
 11
0.0313579934996465
 21
0.0462701392782779
 31
0.0
  0
ARC
  5
B7E
330
199D
100
AcDbEntity
  8
0
  6
ByBlock
100
AcDbCircle
 10
0.0236764873284825
 20
0.0337324111715443
 30
0.0
 40
0.0147037465680294
100
AcDbArc
 50
58.50539400243691
 51
120.4018729618152
  0
LINE
  5
B77
330
199D
100
AcDbEntity
  8
0
  6
ByBlock
100
AcDbLine
 10
0.0162354805376439
 20
0.0464143503401348
 30
0.0
 11
0.0167087737250251
 21
0.0457046995070541
 31
0.0
  0
LINE
  5
B78
330
199D
100
AcDbEntity
  8
0
  6
ByBlock
100
AcDbLine
 10
0.0175790515864828
 20
0.0461268363466585
 30
0.0
 11
0.0175790515864828
 21
0.0379683794307672
 31
0.0
  0
ARC
  5
B81
330
199D
100
AcDbEntity
  8
0
  6
ByBlock
100
AcDbCircle
 10
0.018798251586454
 20
0.0379683794307672
 30
0.0
 40
0.0012192
100
AcDbArc
 50
180.0
 51
270.0
  0
LINE
  5
B82
330
199D
100
AcDbEntity
  8
0
  6
ByBlock
100
AcDbLine
 10
0.018798251586454
 20
0.036749179430796
 30
0.0
 11
0.028554723070511
 21
0.036749179430796
 31
0.0
  0
ARC
  5
B72
330
199D
100
AcDbEntity
  8
0
  6
ByBlock
100
AcDbCircle
 10
0.028554723070511
 20
0.0379683794307672
 30
0.0
 40
0.0012192
100
AcDbArc
 50
270.0
 51
0.0
  0
LINE
  5
B73
330
199D
100
AcDbEntity
  8
0
  6
ByBlock
100
AcDbLine
 10
0.0297739230705745
 20
0.0379683794307672
 30
0.0
 11
0.0297739230705745
 21
0.0461268363466585
 31
0.0
  0
ARC
  5
B95
330
199D
100
AcDbEntity
  8
0
  6
ByBlock
100
AcDbCircle
 10
0.0236764873284825
 20
0.0337324111715443
 30
0.0
 40
0.0138130553481364
100
AcDbArc
 50
60.0816618476595
 51
120.6821046917811
  0
LINE
  5
B6E
330
199D
100
AcDbEntity
  8
0
  6
ByBlock
100
AcDbLine
 10
0.0027307958904938
 20
0.0311535697520052
 30
0.0
 11
0.0021653561193161
 21
0.0318659896417168
 31
0.0
  0
ARC
  5
B7F
330
199D
100
AcDbEntity
  8
0
  6
ByBlock
100
AcDbCircle
 10
0.0147030842260036
 20
0.0241844834705527
 30
0.0
 40
0.0147037465680294
100
AcDbArc
 50
148.5053940022936
 51
210.4018729616726
  0
LINE
  5
B80
330
199D
100
AcDbEntity
  8
0
  6
ByBlock
100
AcDbLine
 10
0.0020211450574592
 20
0.0167434766797141
 30
0.0
 11
0.0027307958904938
 21
0.0172167698670954
 31
0.0
  0
LINE
  5
B71
330
199D
100
AcDbEntity
  8
0
  6
ByBlock
100
AcDbLine
 10
0.0023086590508894
 20
0.0180870477285069
 30
0.0
 11
0.0104671159667807
 21
0.0180870477285069
 31
0.0
  0
ARC
  5
B74
330
199D
100
AcDbEntity
  8
0
  6
ByBlock
100
AcDbCircle
 10
0.0104671159667807
 20
0.0193062477285242
 30
0.0
 40
0.0012192
100
AcDbArc
 50
270.0
 51
0.0
  0
LINE
  5
B7B
330
199D
100
AcDbEntity
  8
0
  6
ByBlock
100
AcDbLine
 10
0.0116863159667519
 20
0.0193062477285242
 30
0.0
 11
0.0116863159667519
 21
0.0290627192125812
 31
0.0
  0
ARC
  5
B7C
330
199D
100
AcDbEntity
  8
0
  6
ByBlock
100
AcDbCircle
 10
0.0104671159667807
 20
0.0290627192125812
 30
0.0
 40
0.0012192
100
AcDbArc
 50
0.0
 51
90.0
  0
LINE
  5
B75
330
199D
100
AcDbEntity
  8
0
  6
ByBlock
100
AcDbLine
 10
0.0104671159667807
 20
0.0302819192125524
 30
0.0
 11
0.0023086590508894
 21
0.0302819192125524
 31
0.0
  0
ARC
  5
B76
330
199D
100
AcDbEntity
  8
0
  6
ByBlock
100
AcDbCircle
 10
0.0147030842260036
 20
0.0241844834705527
 30
0.0
 40
0.0138130553481364
100
AcDbArc
 50
150.0816618476595
 51
210.6821046916383
  0
LINE
  5
B8F
330
199D
100
AcDbEntity
  8
0
  6
ByBlock
100
AcDbLine
 10
0.0368884120588569
 20
0.0361247410039286
 30
0.0
 11
0.0368884120588569
 21
0.012551132044063
 31
0.0
  0
LINE
  5
B90
330
199D
100
AcDbEntity
  8
0
  6
ByBlock
100
AcDbLine
 10
0.0368884120588569
 20
0.012551132044063
 30
0.0
 11
0.0124117110278923
 21
0.012551132044063
 31
0.0
  0
LINE
  5
B79
330
199D
100
AcDbEntity
  8
0
  6
ByBlock
100
AcDbLine
 10
0.0124117110278923
 20
0.012551132044063
 30
0.0
 11
0.0124117110278923
 21
0.0361247410039286
 31
0.0
  0
LINE
  5
B7A
330
199D
100
AcDbEntity
  8
0
  6
ByBlock
100
AcDbLine
 10
0.0124117110278923
 20
0.0361247410039286
 30
0.0
 11
0.0368884120588569
 21
0.0361247410039286
 31
0.0
  0
ENDBLK
  5
199F
330
199D
100
AcDbEntity
  8
0
100
AcDbBlockEnd
  0
BLOCK
  5
19A1
330
19A0
100
AcDbEntity
  8
0
100
AcDbBlockBegin
  2
paving
 70
     0
 10
0.0
 20
0.0
 30
0.0
  3
paving
  1

  0
LWPOLYLINE
  5
DD9
330
19A0
100
AcDbEntity
  8
Areas
100
AcDbPolyline
 90
        4
 70
   129
 43
0.0
 10
0.0
 20
0.0
 10
0.4828435
 20
0.0
 10
0.4828435
 20
0.4828435
 10
0.0
 20
0.4828435
  0
LWPOLYLINE
  5
DE7
330
19A0
100
AcDbEntity
  8
Areas
100
AcDbPolyline
 90
        4
 70
   129
 43
0.0
 10
0.4828435
 20
0.0
 10
0.965687
 20
0.0
 10
0.965687
 20
0.4828435
 10
0.4828435
 20
0.4828435
  0
LWPOLYLINE
  5
DE8
330
19A0
100
AcDbEntity
  8
Areas
100
AcDbPolyline
 90
        4
 70
   129
 43
0.0
 10
0.965687
 20
0.0
 10
1.4485305
 20
0.0
 10
1.4485305
 20
0.4828435
 10
0.965687
 20
0.4828435
  0
LWPOLYLINE
  5
DE9
330
19A0
100
AcDbEntity
  8
Areas
100
AcDbPolyline
 90
        4
 70
   129
 43
0.0
 10
1.4485305
 20
0.0
 10
1.931374
 20
0.0
 10
1.931374
 20
0.4828435
 10
1.4485305
 20
0.4828435
  0
LWPOLYLINE
  5
DEA
330
19A0
100
AcDbEntity
  8
Areas
100
AcDbPolyline
 90
        4
 70
   129
 43
0.0
 10
1.931374
 20
0.0
 10
2.4142175
 20
0.0
 10
2.4142175
 20
0.4828435
 10
1.931374
 20
0.4828435
  0
LWPOLYLINE
  5
DEB
330
19A0
100
AcDbEntity
  8
Areas
100
AcDbPolyline
 90
        4
 70
   129
 43
0.0
 10
2.4142175
 20
0.0
 10
2.897061
 20
0.0
 10
2.897061
 20
0.4828435
 10
2.4142175
 20
0.4828435
  0
LWPOLYLINE
  5
DF7
330
19A0
100
AcDbEntity
  8
Areas
100
AcDbPolyline
 90
        4
 70
   129
 43
0.0
 10
0.0
 20
0.4828435
 10
0.4828435
 20
0.4828435
 10
0.4828435
 20
0.965687
 10
0.0
 20
0.965687
  0
LWPOLYLINE
  5
DF8
330
19A0
100
AcDbEntity
  8
Areas
100
AcDbPolyline
 90
        4
 70
   129
 43
0.0
 10
0.4828435
 20
0.4828435
 10
0.965687
 20
0.4828435
 10
0.965687
 20
0.965687
 10
0.4828435
 20
0.965687
  0
LWPOLYLINE
  5
DF9
330
19A0
100
AcDbEntity
  8
Areas
100
AcDbPolyline
 90
        4
 70
   129
 43
0.0
 10
0.965687
 20
0.4828435
 10
1.4485305
 20
0.4828435
 10
1.4485305
 20
0.965687
 10
0.965687
 20
0.965687
  0
LWPOLYLINE
  5
DFA
330
19A0
100
AcDbEntity
  8
Areas
100
AcDbPolyline
 90
        4
 70
   129
 43
0.0
 10
1.4485305
 20
0.4828435
 10
1.931374
 20
0.4828435
 10
1.931374
 20
0.965687
 10
1.4485305
 20
0.965687
  0
LWPOLYLINE
  5
DFB
330
19A0
100
AcDbEntity
  8
Areas
100
AcDbPolyline
 90
        4
 70
   129
 43
0.0
 10
1.931374
 20
0.4828435
 10
2.4142175
 20
0.4828435
 10
2.4142175
 20
0.965687
 10
1.931374
 20
0.965687
  0
LWPOLYLINE
  5
DFC
330
19A0
100
AcDbEntity
  8
Areas
100
AcDbPolyline
 90
        4
 70
   129
 43
0.0
 10
2.4142175
 20
0.4828435
 10
2.897061
 20
0.4828435
 10
2.897061
 20
0.965687
 10
2.4142175
 20
0.965687
  0
LWPOLYLINE
  5
DFD
330
19A0
100
AcDbEntity
  8
Areas
100
AcDbPolyline
 90
        4
 70
   129
 43
0.0
 10
2.897061
 20
0.4828435
 10
3.3799045
 20
0.4828435
 10
3.3799045
 20
0.965687
 10
2.897061
 20
0.965687
  0
LWPOLYLINE
  5
E08
330
19A0
100
AcDbEntity
  8
Areas
100
AcDbPolyline
 90
        4
 70
   129
 43
0.0
 10
0.0
 20
0.965687
 10
0.4828435
 20
0.965687
 10
0.4828435
 20
1.4485305
 10
0.0
 20
1.4485305
  0
LWPOLYLINE
  5
E09
330
19A0
100
AcDbEntity
  8
Areas
100
AcDbPolyline
 90
        4
 70
   129
 43
0.0
 10
0.4828435
 20
0.965687
 10
0.965687
 20
0.965687
 10
0.965687
 20
1.4485305
 10
0.4828435
 20
1.4485305
  0
LWPOLYLINE
  5
E0A
330
19A0
100
AcDbEntity
  8
Areas
100
AcDbPolyline
 90
        4
 70
   129
 43
0.0
 10
0.965687
 20
0.965687
 10
1.4485305
 20
0.965687
 10
1.4485305
 20
1.4485305
 10
0.965687
 20
1.4485305
  0
LWPOLYLINE
  5
E0B
330
19A0
100
AcDbEntity
  8
Areas
100
AcDbPolyline
 90
        4
 70
   129
 43
0.0
 10
1.4485305
 20
0.965687
 10
1.931374
 20
0.965687
 10
1.931374
 20
1.4485305
 10
1.4485305
 20
1.4485305
  0
LWPOLYLINE
  5
E0C
330
19A0
100
AcDbEntity
  8
Areas
100
AcDbPolyline
 90
        4
 70
   129
 43
0.0
 10
1.931374
 20
0.965687
 10
2.4142175
 20
0.965687
 10
2.4142175
 20
1.4485305
 10
1.931374
 20
1.4485305
  0
LWPOLYLINE
  5
E0D
330
19A0
100
AcDbEntity
  8
Areas
100
AcDbPolyline
 90
        4
 70
   129
 43
0.0
 10
2.4142175
 20
0.965687
 10
2.897061
 20
0.965687
 10
2.897061
 20
1.4485305
 10
2.4142175
 20
1.4485305
  0
LWPOLYLINE
  5
E0E
330
19A0
100
AcDbEntity
  8
Areas
100
AcDbPolyline
 90
        4
 70
   129
 43
0.0
 10
2.897061
 20
0.965687
 10
3.3799045
 20
0.965687
 10
3.3799045
 20
1.4485305
 10
2.897061
 20
1.4485305
  0
LWPOLYLINE
  5
E0F
330
19A0
100
AcDbEntity
  8
Areas
100
AcDbPolyline
 90
        4
 70
   129
 43
0.0
 10
3.3799045
 20
0.965687
 10
3.862748
 20
0.965687
 10
3.862748
 20
1.4485305
 10
3.3799045
 20
1.4485305
  0
LWPOLYLINE
  5
E1B
330
19A0
100
AcDbEntity
  8
Areas
100
AcDbPolyline
 90
        4
 70
   129
 43
0.0
 10
0.965687
 20
1.4485305
 10
1.4485305
 20
1.4485305
 10
1.4485305
 20
1.931374
 10
0.965687
 20
1.931374
  0
LWPOLYLINE
  5
E1C
330
19A0
100
AcDbEntity
  8
Areas
100
AcDbPolyline
 90
        4
 70
   129
 43
0.0
 10
1.4485305
 20
1.4485305
 10
1.931374
 20
1.4485305
 10
1.931374
 20
1.931374
 10
1.4485305
 20
1.931374
  0
LWPOLYLINE
  5
E1D
330
19A0
100
AcDbEntity
  8
Areas
100
AcDbPolyline
 90
        4
 70
   129
 43
0.0
 10
1.931374
 20
1.4485305
 10
2.4142175
 20
1.4485305
 10
2.4142175
 20
1.931374
 10
1.931374
 20
1.931374
  0
LWPOLYLINE
  5
E1E
330
19A0
100
AcDbEntity
  8
Areas
100
AcDbPolyline
 90
        4
 70
   129
 43
0.0
 10
2.4142175
 20
1.4485305
 10
2.897061
 20
1.4485305
 10
2.897061
 20
1.931374
 10
2.4142175
 20
1.931374
  0
LWPOLYLINE
  5
E1F
330
19A0
100
AcDbEntity
  8
Areas
100
AcDbPolyline
 90
        4
 70
   129
 43
0.0
 10
2.897061
 20
1.4485305
 10
3.3799045
 20
1.4485305
 10
3.3799045
 20
1.931374
 10
2.897061
 20
1.931374
  0
LWPOLYLINE
  5
E20
330
19A0
100
AcDbEntity
  8
Areas
100
AcDbPolyline
 90
        4
 70
   129
 43
0.0
 10
3.3799045
 20
1.4485305
 10
3.862748
 20
1.4485305
 10
3.862748
 20
1.931374
 10
3.3799045
 20
1.931374
  0
LWPOLYLINE
  5
E21
330
19A0
100
AcDbEntity
  8
Areas
100
AcDbPolyline
 90
        4
 70
   129
 43
0.0
 10
3.862748
 20
1.4485305
 10
4.345591499999999
 20
1.4485305
 10
4.345591499999999
 20
1.931374
 10
3.862748
 20
1.931374
  0
LWPOLYLINE
  5
E2D
330
19A0
100
AcDbEntity
  8
Areas
100
AcDbPolyline
 90
        4
 70
   129
 43
0.0
 10
1.4485305
 20
1.931374
 10
1.931374
 20
1.931374
 10
1.931374
 20
2.4142175
 10
1.4485305
 20
2.4142175
  0
LWPOLYLINE
  5
E2E
330
19A0
100
AcDbEntity
  8
Areas
100
AcDbPolyline
 90
        4
 70
   129
 43
0.0
 10
1.931374
 20
1.931374
 10
2.4142175
 20
1.931374
 10
2.4142175
 20
2.4142175
 10
1.931374
 20
2.4142175
  0
LWPOLYLINE
  5
E2F
330
19A0
100
AcDbEntity
  8
Areas
100
AcDbPolyline
 90
        4
 70
   129
 43
0.0
 10
2.4142175
 20
1.931374
 10
2.897061
 20
1.931374
 10
2.897061
 20
2.4142175
 10
2.4142175
 20
2.4142175
  0
LWPOLYLINE
  5
E30
330
19A0
100
AcDbEntity
  8
Areas
100
AcDbPolyline
 90
        4
 70
   129
 43
0.0
 10
2.897061
 20
1.931374
 10
3.3799045
 20
1.931374
 10
3.3799045
 20
2.4142175
 10
2.897061
 20
2.4142175
  0
LWPOLYLINE
  5
E31
330
19A0
100
AcDbEntity
  8
Areas
100
AcDbPolyline
 90
        4
 70
   129
 43
0.0
 10
3.3799045
 20
1.931374
 10
3.862748
 20
1.931374
 10
3.862748
 20
2.4142175
 10
3.3799045
 20
2.4142175
  0
LWPOLYLINE
  5
E32
330
19A0
100
AcDbEntity
  8
Areas
100
AcDbPolyline
 90
        4
 70
   129
 43
0.0
 10
3.862748
 20
1.931374
 10
4.345591499999999
 20
1.931374
 10
4.345591499999999
 20
2.4142175
 10
3.862748
 20
2.4142175
  0
LWPOLYLINE
  5
E33
330
19A0
100
AcDbEntity
  8
Areas
100
AcDbPolyline
 90
        4
 70
   129
 43
0.0
 10
4.345591499999999
 20
1.931374
 10
4.828434999999999
 20
1.931374
 10
4.828434999999999
 20
2.4142175
 10
4.345591499999999
 20
2.4142175
  0
LWPOLYLINE
  5
E34
330
19A0
100
AcDbEntity
  8
Areas
100
AcDbPolyline
 90
        4
 70
   129
 43
0.0
 10
4.828435
 20
1.931374
 10
5.3112785
 20
1.931374
 10
5.3112785
 20
2.4142175
 10
4.828435
 20
2.4142175
  0
LWPOLYLINE
  5
E3F
330
19A0
100
AcDbEntity
  8
Areas
100
AcDbPolyline
 90
        4
 70
   129
 43
0.0
 10
1.931374
 20
2.4142175
 10
2.4142175
 20
2.4142175
 10
2.4142175
 20
2.897061
 10
1.931374
 20
2.897061
  0
LWPOLYLINE
  5
E40
330
19A0
100
AcDbEntity
  8
Areas
100
AcDbPolyline
 90
        4
 70
   129
 43
0.0
 10
2.4142175
 20
2.4142175
 10
2.897061
 20
2.4142175
 10
2.897061
 20
2.897061
 10
2.4142175
 20
2.897061
  0
LWPOLYLINE
  5
E41
330
19A0
100
AcDbEntity
  8
Areas
100
AcDbPolyline
 90
        4
 70
   129
 43
0.0
 10
2.897061
 20
2.4142175
 10
3.3799045
 20
2.4142175
 10
3.3799045
 20
2.897061
 10
2.897061
 20
2.897061
  0
LWPOLYLINE
  5
E42
330
19A0
100
AcDbEntity
  8
Areas
100
AcDbPolyline
 90
        4
 70
   129
 43
0.0
 10
3.3799045
 20
2.4142175
 10
3.862748
 20
2.4142175
 10
3.862748
 20
2.897061
 10
3.3799045
 20
2.897061
  0
LWPOLYLINE
  5
E43
330
19A0
100
AcDbEntity
  8
Areas
100
AcDbPolyline
 90
        4
 70
   129
 43
0.0
 10
3.862748
 20
2.4142175
 10
4.345591499999999
 20
2.4142175
 10
4.345591499999999
 20
2.897061
 10
3.862748
 20
2.897061
  0
LWPOLYLINE
  5
E44
330
19A0
100
AcDbEntity
  8
Areas
100
AcDbPolyline
 90
        4
 70
   129
 43
0.0
 10
4.345591499999999
 20
2.4142175
 10
4.828434999999999
 20
2.4142175
 10
4.828434999999999
 20
2.897061
 10
4.345591499999999
 20
2.897061
  0
LWPOLYLINE
  5
E45
330
19A0
100
AcDbEntity
  8
Areas
100
AcDbPolyline
 90
        4
 70
   129
 43
0.0
 10
4.828435
 20
2.4142175
 10
5.3112785
 20
2.4142175
 10
5.3112785
 20
2.897061
 10
4.828435
 20
2.897061
  0
LWPOLYLINE
  5
E46
330
19A0
100
AcDbEntity
  8
Areas
100
AcDbPolyline
 90
        4
 70
   129
 43
0.0
 10
5.3112785
 20
2.4142175
 10
5.794122
 20
2.4142175
 10
5.794122
 20
2.897061
 10
5.3112785
 20
2.897061
  0
LWPOLYLINE
  5
E47
330
19A0
100
AcDbEntity
  8
Areas
100
AcDbPolyline
 90
        4
 70
   129
 43
0.0
 10
5.794122
 20
2.4142175
 10
6.276965499999999
 20
2.4142175
 10
6.276965499999999
 20
2.897061
 10
5.794122
 20
2.897061
  0
LWPOLYLINE
  5
E48
330
19A0
100
AcDbEntity
  8
Areas
100
AcDbPolyline
 90
        4
 70
   129
 43
0.0
 10
6.276965499999999
 20
2.4142175
 10
6.759808999999999
 20
2.4142175
 10
6.759808999999999
 20
2.897061
 10
6.276965499999999
 20
2.897061
  0
LWPOLYLINE
  5
E49
330
19A0
100
AcDbEntity
  8
Areas
100
AcDbPolyline
 90
        4
 70
   129
 43
0.0
 10
6.759809
 20
2.4142175
 10
7.2426525
 20
2.4142175
 10
7.2426525
 20
2.897061
 10
6.759809
 20
2.897061
  0
LWPOLYLINE
  5
E4A
330
19A0
100
AcDbEntity
  8
Areas
100
AcDbPolyline
 90
        4
 70
   129
 43
0.0
 10
7.2426525
 20
2.4142175
 10
7.725496
 20
2.4142175
 10
7.725496
 20
2.897061
 10
7.2426525
 20
2.897061
  0
LWPOLYLINE
  5
E50
330
19A0
100
AcDbEntity
  8
Areas
100
AcDbPolyline
 90
        4
 70
   129
 43
0.0
 10
1.931374
 20
2.897061
 10
2.4142175
 20
2.897061
 10
2.4142175
 20
3.3799045
 10
1.931374
 20
3.3799045
  0
LWPOLYLINE
  5
E51
330
19A0
100
AcDbEntity
  8
Areas
100
AcDbPolyline
 90
        4
 70
   129
 43
0.0
 10
2.4142175
 20
2.897061
 10
2.897061
 20
2.897061
 10
2.897061
 20
3.3799045
 10
2.4142175
 20
3.3799045
  0
LWPOLYLINE
  5
E52
330
19A0
100
AcDbEntity
  8
Areas
100
AcDbPolyline
 90
        4
 70
   129
 43
0.0
 10
2.897061
 20
2.897061
 10
3.3799045
 20
2.897061
 10
3.3799045
 20
3.3799045
 10
2.897061
 20
3.3799045
  0
LWPOLYLINE
  5
E53
330
19A0
100
AcDbEntity
  8
Areas
100
AcDbPolyline
 90
        4
 70
   129
 43
0.0
 10
3.3799045
 20
2.897061
 10
3.862748
 20
2.897061
 10
3.862748
 20
3.3799045
 10
3.3799045
 20
3.3799045
  0
LWPOLYLINE
  5
E54
330
19A0
100
AcDbEntity
  8
Areas
100
AcDbPolyline
 90
        4
 70
   129
 43
0.0
 10
3.862748
 20
2.897061
 10
4.345591499999999
 20
2.897061
 10
4.345591499999999
 20
3.3799045
 10
3.862748
 20
3.3799045
  0
LWPOLYLINE
  5
E55
330
19A0
100
AcDbEntity
  8
Areas
100
AcDbPolyline
 90
        4
 70
   129
 43
0.0
 10
4.345591499999999
 20
2.897061
 10
4.828434999999999
 20
2.897061
 10
4.828434999999999
 20
3.3799045
 10
4.345591499999999
 20
3.3799045
  0
LWPOLYLINE
  5
E56
330
19A0
100
AcDbEntity
  8
Areas
100
AcDbPolyline
 90
        4
 70
   129
 43
0.0
 10
4.828435
 20
2.897061
 10
5.3112785
 20
2.897061
 10
5.3112785
 20
3.3799045
 10
4.828435
 20
3.3799045
  0
LWPOLYLINE
  5
E57
330
19A0
100
AcDbEntity
  8
Areas
100
AcDbPolyline
 90
        4
 70
   129
 43
0.0
 10
5.3112785
 20
2.897061
 10
5.794122
 20
2.897061
 10
5.794122
 20
3.3799045
 10
5.3112785
 20
3.3799045
  0
LWPOLYLINE
  5
E58
330
19A0
100
AcDbEntity
  8
Areas
100
AcDbPolyline
 90
        4
 70
   129
 43
0.0
 10
5.794122
 20
2.897061
 10
6.276965499999999
 20
2.897061
 10
6.276965499999999
 20
3.3799045
 10
5.794122
 20
3.3799045
  0
LWPOLYLINE
  5
E59
330
19A0
100
AcDbEntity
  8
Areas
100
AcDbPolyline
 90
        4
 70
   129
 43
0.0
 10
6.276965499999999
 20
2.897061
 10
6.759808999999999
 20
2.897061
 10
6.759808999999999
 20
3.3799045
 10
6.276965499999999
 20
3.3799045
  0
LWPOLYLINE
  5
E5A
330
19A0
100
AcDbEntity
  8
Areas
100
AcDbPolyline
 90
        4
 70
   129
 43
0.0
 10
6.759809
 20
2.897061
 10
7.2426525
 20
2.897061
 10
7.2426525
 20
3.3799045
 10
6.759809
 20
3.3799045
  0
LWPOLYLINE
  5
E5B
330
19A0
100
AcDbEntity
  8
Areas
100
AcDbPolyline
 90
        4
 70
   129
 43
0.0
 10
7.2426525
 20
2.897061
 10
7.725496
 20
2.897061
 10
7.725496
 20
3.3799045
 10
7.2426525
 20
3.3799045
  0
LWPOLYLINE
  5
E62
330
19A0
100
AcDbEntity
  8
Areas
100
AcDbPolyline
 90
        4
 70
   129
 43
0.0
 10
2.4142175
 20
3.3799045
 10
2.897061
 20
3.3799045
 10
2.897061
 20
3.862748
 10
2.4142175
 20
3.862748
  0
LWPOLYLINE
  5
E63
330
19A0
100
AcDbEntity
  8
Areas
100
AcDbPolyline
 90
        4
 70
   129
 43
0.0
 10
2.897061
 20
3.3799045
 10
3.3799045
 20
3.3799045
 10
3.3799045
 20
3.862748
 10
2.897061
 20
3.862748
  0
LWPOLYLINE
  5
E64
330
19A0
100
AcDbEntity
  8
Areas
100
AcDbPolyline
 90
        4
 70
   129
 43
0.0
 10
3.3799045
 20
3.3799045
 10
3.862748
 20
3.3799045
 10
3.862748
 20
3.862748
 10
3.3799045
 20
3.862748
  0
LWPOLYLINE
  5
E65
330
19A0
100
AcDbEntity
  8
Areas
100
AcDbPolyline
 90
        4
 70
   129
 43
0.0
 10
3.862748
 20
3.3799045
 10
4.345591499999999
 20
3.3799045
 10
4.345591499999999
 20
3.862748
 10
3.862748
 20
3.862748
  0
LWPOLYLINE
  5
E66
330
19A0
100
AcDbEntity
  8
Areas
100
AcDbPolyline
 90
        4
 70
   129
 43
0.0
 10
4.345591499999999
 20
3.3799045
 10
4.828434999999999
 20
3.3799045
 10
4.828434999999999
 20
3.862748
 10
4.345591499999999
 20
3.862748
  0
LWPOLYLINE
  5
E67
330
19A0
100
AcDbEntity
  8
Areas
100
AcDbPolyline
 90
        4
 70
   129
 43
0.0
 10
4.828435
 20
3.3799045
 10
5.3112785
 20
3.3799045
 10
5.3112785
 20
3.862748
 10
4.828435
 20
3.862748
  0
LWPOLYLINE
  5
E68
330
19A0
100
AcDbEntity
  8
Areas
100
AcDbPolyline
 90
        4
 70
   129
 43
0.0
 10
5.3112785
 20
3.3799045
 10
5.794122
 20
3.3799045
 10
5.794122
 20
3.862748
 10
5.3112785
 20
3.862748
  0
LWPOLYLINE
  5
E69
330
19A0
100
AcDbEntity
  8
Areas
100
AcDbPolyline
 90
        4
 70
   129
 43
0.0
 10
5.794122
 20
3.3799045
 10
6.276965499999999
 20
3.3799045
 10
6.276965499999999
 20
3.862748
 10
5.794122
 20
3.862748
  0
LWPOLYLINE
  5
E6A
330
19A0
100
AcDbEntity
  8
Areas
100
AcDbPolyline
 90
        4
 70
   129
 43
0.0
 10
6.276965499999999
 20
3.3799045
 10
6.759808999999999
 20
3.3799045
 10
6.759808999999999
 20
3.862748
 10
6.276965499999999
 20
3.862748
  0
LWPOLYLINE
  5
E74
330
19A0
100
AcDbEntity
  8
Areas
100
AcDbPolyline
 90
        4
 70
   129
 43
0.0
 10
2.897061
 20
3.862748
 10
3.3799045
 20
3.862748
 10
3.3799045
 20
4.345591499999999
 10
2.897061
 20
4.345591499999999
  0
LWPOLYLINE
  5
E75
330
19A0
100
AcDbEntity
  8
Areas
100
AcDbPolyline
 90
        4
 70
   129
 43
0.0
 10
3.3799045
 20
3.862748
 10
3.862748
 20
3.862748
 10
3.862748
 20
4.345591499999999
 10
3.3799045
 20
4.345591499999999
  0
LWPOLYLINE
  5
E76
330
19A0
100
AcDbEntity
  8
Areas
100
AcDbPolyline
 90
        4
 70
   129
 43
0.0
 10
3.862748
 20
3.862748
 10
4.345591499999999
 20
3.862748
 10
4.345591499999999
 20
4.345591499999999
 10
3.862748
 20
4.345591499999999
  0
LWPOLYLINE
  5
E77
330
19A0
100
AcDbEntity
  8
Areas
100
AcDbPolyline
 90
        4
 70
   129
 43
0.0
 10
4.345591499999999
 20
3.862748
 10
4.828434999999999
 20
3.862748
 10
4.828434999999999
 20
4.345591499999999
 10
4.345591499999999
 20
4.345591499999999
  0
LWPOLYLINE
  5
E78
330
19A0
100
AcDbEntity
  8
Areas
100
AcDbPolyline
 90
        4
 70
   129
 43
0.0
 10
4.828435
 20
3.862748
 10
5.3112785
 20
3.862748
 10
5.3112785
 20
4.345591499999999
 10
4.828435
 20
4.345591499999999
  0
LWPOLYLINE
  5
E79
330
19A0
100
AcDbEntity
  8
Areas
100
AcDbPolyline
 90
        4
 70
   129
 43
0.0
 10
5.3112785
 20
3.862748
 10
5.794122
 20
3.862748
 10
5.794122
 20
4.345591499999999
 10
5.3112785
 20
4.345591499999999
  0
LWPOLYLINE
  5
E7A
330
19A0
100
AcDbEntity
  8
Areas
100
AcDbPolyline
 90
        4
 70
   129
 43
0.0
 10
5.794122
 20
3.862748
 10
6.276965499999999
 20
3.862748
 10
6.276965499999999
 20
4.345591499999999
 10
5.794122
 20
4.345591499999999
  0
LWPOLYLINE
  5
E7B
330
19A0
100
AcDbEntity
  8
Areas
100
AcDbPolyline
 90
        4
 70
   129
 43
0.0
 10
6.276965499999999
 20
3.862748
 10
6.759808999999999
 20
3.862748
 10
6.759808999999999
 20
4.345591499999999
 10
6.276965499999999
 20
4.345591499999999
  0
LWPOLYLINE
  5
E86
330
19A0
100
AcDbEntity
  8
Areas
100
AcDbPolyline
 90
        4
 70
   129
 43
0.0
 10
3.3799045
 20
4.345591499999999
 10
3.862748
 20
4.345591499999999
 10
3.862748
 20
4.828434999999999
 10
3.3799045
 20
4.828434999999999
  0
LWPOLYLINE
  5
E87
330
19A0
100
AcDbEntity
  8
Areas
100
AcDbPolyline
 90
        4
 70
   129
 43
0.0
 10
3.862748
 20
4.345591499999999
 10
4.345591499999999
 20
4.345591499999999
 10
4.345591499999999
 20
4.828434999999999
 10
3.862748
 20
4.828434999999999
  0
LWPOLYLINE
  5
E88
330
19A0
100
AcDbEntity
  8
Areas
100
AcDbPolyline
 90
        4
 70
   129
 43
0.0
 10
4.345591499999999
 20
4.345591499999999
 10
4.828434999999999
 20
4.345591499999999
 10
4.828434999999999
 20
4.828434999999999
 10
4.345591499999999
 20
4.828434999999999
  0
LWPOLYLINE
  5
E89
330
19A0
100
AcDbEntity
  8
Areas
100
AcDbPolyline
 90
        4
 70
   129
 43
0.0
 10
4.828435
 20
4.345591499999999
 10
5.3112785
 20
4.345591499999999
 10
5.3112785
 20
4.828434999999999
 10
4.828435
 20
4.828434999999999
  0
LWPOLYLINE
  5
E8A
330
19A0
100
AcDbEntity
  8
Areas
100
AcDbPolyline
 90
        4
 70
   129
 43
0.0
 10
5.3112785
 20
4.345591499999999
 10
5.794122
 20
4.345591499999999
 10
5.794122
 20
4.828434999999999
 10
5.3112785
 20
4.828434999999999
  0
LWPOLYLINE
  5
E8B
330
19A0
100
AcDbEntity
  8
Areas
100
AcDbPolyline
 90
        4
 70
   129
 43
0.0
 10
5.794122
 20
4.345591499999999
 10
6.276965499999999
 20
4.345591499999999
 10
6.276965499999999
 20
4.828434999999999
 10
5.794122
 20
4.828434999999999
  0
LWPOLYLINE
  5
E98
330
19A0
100
AcDbEntity
  8
Areas
100
AcDbPolyline
 90
        4
 70
   129
 43
0.0
 10
3.862748
 20
4.828435
 10
4.345591499999999
 20
4.828435
 10
4.345591499999999
 20
5.3112785
 10
3.862748
 20
5.3112785
  0
LWPOLYLINE
  5
E99
330
19A0
100
AcDbEntity
  8
Areas
100
AcDbPolyline
 90
        4
 70
   129
 43
0.0
 10
4.345591499999999
 20
4.828435
 10
4.828434999999999
 20
4.828435
 10
4.828434999999999
 20
5.3112785
 10
4.345591499999999
 20
5.3112785
  0
LWPOLYLINE
  5
E9A
330
19A0
100
AcDbEntity
  8
Areas
100
AcDbPolyline
 90
        4
 70
   129
 43
0.0
 10
4.828435
 20
4.828435
 10
5.3112785
 20
4.828435
 10
5.3112785
 20
5.3112785
 10
4.828435
 20
5.3112785
  0
LWPOLYLINE
  5
E9B
330
19A0
100
AcDbEntity
  8
Areas
100
AcDbPolyline
 90
        4
 70
   129
 43
0.0
 10
5.3112785
 20
4.828435
 10
5.794122
 20
4.828435
 10
5.794122
 20
5.3112785
 10
5.3112785
 20
5.3112785
  0
LWPOLYLINE
  5
F72
330
19A0
100
AcDbEntity
  8
Areas
100
AcDbPolyline
 90
        4
 70
   129
 43
0.0
 10
5.311278500000001
 20
1.931374
 10
5.794122000000002
 20
1.931374
 10
5.794122000000002
 20
2.4142175
 10
5.311278500000001
 20
2.4142175
  0
ENDBLK
  5
19A2
330
19A0
100
AcDbEntity
  8
0
100
AcDbBlockEnd
  0
BLOCK
  5
19A4
330
19A3
100
AcDbEntity
  8
0
100
AcDbBlockBegin
  2
table
 70
     0
 10
0.0
 20
0.0
 30
0.0
  3
table
  1

  0
MTEXT
  5
C1F
330
19A3
100
AcDbEntity
  8
Structures
 62
    30
420
 16744192
100
AcDbMText
 10
0.0000000000000071
 20
0.0
 30
0.0
 40
0.1
 41
0.0
 46
0.0
 71
     5
 72
     1
  1
Table
  7
textstyle11
 73
     1
 44
1.0
  0
LINE
  5
C20
330
19A3
100
AcDbEntity
  8
Structures
100
AcDbLine
 10
1.049661779391755
 20
-0.3207275511476304
 30
0.0
 11
1.076802888408281
 21
-0.3549237058537891
 31
0.0
  0
ARC
  5
C21
330
19A3
100
AcDbEntity
  8
Structures
100
AcDbCircle
 10
0.4749919392828446
 20
0.0137885903643067
 30
0.0
 40
0.705779835265412
100
AcDbArc
 50
328.5053940022936
 51
30.40187296167259
  0
LINE
  5
C22
330
19A3
100
AcDbEntity
  8
Structures
100
AcDbLine
 10
1.083725019377411
 20
0.3709569163223385
 30
0.0
 11
1.049661779391755
 21
0.3482388433302575
 31
0.0
  0
LINE
  5
C23
330
19A3
100
AcDbEntity
  8
Structures
100
AcDbLine
 10
1.069924347692762
 20
0.3064655059802881
 30
0.0
 11
0.6783184157299758
 21
0.3064655059802881
 31
0.0
  0
ARC
  5
C24
330
19A3
100
AcDbEntity
  8
Structures
100
AcDbCircle
 10
0.6783184157299758
 20
0.2479439059816713
 30
0.0
 40
0.0585216000000022
100
AcDbArc
 50
90.0
 51
180.0
  0
LINE
  5
C25
330
19A3
100
AcDbEntity
  8
Structures
100
AcDbLine
 10
0.6197968157313625
 20
0.2479439059816713
 30
0.0
 11
0.6197968157313625
 21
-0.220366725253065
 31
0.0
  0
ARC
  5
C26
330
19A3
100
AcDbEntity
  8
Structures
100
AcDbCircle
 10
0.6783184157299758
 20
-0.220366725253065
 30
0.0
 40
0.0585216000000022
100
AcDbArc
 50
180.0
 51
270.0
  0
LINE
  5
C27
330
19A3
100
AcDbEntity
  8
Structures
100
AcDbLine
 10
0.6783184157299758
 20
-0.2788883252538952
 30
0.0
 11
1.069924347692762
 21
-0.2788883252538952
 31
0.0
  0
ARC
  5
C28
330
19A3
100
AcDbEntity
  8
Structures
100
AcDbCircle
 10
0.4749919392828446
 20
0.0137885903643067
 30
0.0
 40
0.663026656710548
100
AcDbArc
 50
330.0816618476595
 51
30.68210469163829
  0
LINE
  5
C29
330
19A3
100
AcDbEntity
  8
Structures
100
AcDbLine
 10
-0.3024395511439124
 20
-1.031373779388026
 30
0.0
 11
-0.336635705850064
 21
-1.058514888406773
 31
0.0
  0
ARC
  5
C2A
330
19A3
100
AcDbEntity
  8
Structures
100
AcDbCircle
 10
0.0320765903658042
 20
-0.4567039392835568
 30
0.0
 40
0.705779835265412
100
AcDbArc
 50
238.5053940024369
 51
300.4018729618152
  0
LINE
  5
C2B
330
19A3
100
AcDbEntity
  8
Structures
100
AcDbLine
 10
0.3892449163260565
 20
-1.065437019375903
 30
0.0
 11
0.3665268433317621
 21
-1.031373779388026
 31
0.0
  0
LINE
  5
C2C
330
19A3
100
AcDbEntity
  8
Structures
100
AcDbLine
 10
0.3247535059817963
 20
-1.051636347691254
 30
0.0
 11
0.3247535059817963
 21
-0.6600304157284747
 31
0.0
  0
ARC
  5
C2D
330
19A3
100
AcDbEntity
  8
Structures
100
AcDbCircle
 10
0.2662319059831759
 20
-0.6600304157284747
 30
0.0
 40
0.0585216000000022
100
AcDbArc
 50
0.0
 51
90.0
  0
LINE
  5
C2E
330
19A3
100
AcDbEntity
  8
Structures
100
AcDbLine
 10
0.2662319059831759
 20
-0.6015088157276374
 30
0.0
 11
-0.2020787252515603
 21
-0.6015088157276374
 31
0.0
  0
ARC
  5
C2F
330
19A3
100
AcDbEntity
  8
Structures
100
AcDbCircle
 10
-0.2020787252515603
 20
-0.6600304157284747
 30
0.0
 40
0.0585216000000022
100
AcDbArc
 50
90.0
 51
180.0
  0
LINE
  5
C30
330
19A3
100
AcDbEntity
  8
Structures
100
AcDbLine
 10
-0.2606003252501807
 20
-0.6600304157284747
 30
0.0
 11
-0.2606003252501807
 21
-1.051636347691254
 31
0.0
  0
ARC
  5
C31
330
19A3
100
AcDbEntity
  8
Structures
100
AcDbCircle
 10
0.0320765903658042
 20
-0.4567039392835568
 30
0.0
 40
0.663026656710548
100
AcDbArc
 50
240.0816618476595
 51
300.6821046917811
  0
LINE
  5
C32
330
19A3
100
AcDbEntity
  8
Structures
100
AcDbLine
 10
0.2902475511458604
 20
1.03137377938803
 30
0.0
 11
0.324443705852012
 21
1.058514888406773
 31
0.0
  0
ARC
  5
C33
330
19A3
100
AcDbEntity
  8
Structures
100
AcDbCircle
 10
-0.0442685903638633
 20
0.4567039392835568
 30
0.0
 40
0.705779835265412
100
AcDbArc
 50
58.50539400243691
 51
120.4018729618152
  0
LINE
  5
C34
330
19A3
100
AcDbEntity
  8
Structures
100
AcDbLine
 10
-0.4014369163241156
 20
1.065437019375906
 30
0.0
 11
-0.3787188433298212
 21
1.03137377938803
 31
0.0
  0
LINE
  5
C35
330
19A3
100
AcDbEntity
  8
Structures
100
AcDbLine
 10
-0.3369455059798483
 20
1.05163634768904
 30
0.0
 11
-0.3369455059798483
 21
0.6600304157262578
 31
0.0
  0
ARC
  5
C36
330
19A3
100
AcDbEntity
  8
Structures
100
AcDbCircle
 10
-0.278423905981235
 20
0.6600304157262578
 30
0.0
 40
0.0585216000000022
100
AcDbArc
 50
180.0
 51
270.0
  0
LINE
  5
C37
330
19A3
100
AcDbEntity
  8
Structures
100
AcDbLine
 10
-0.278423905981235
 20
0.6015088157276374
 30
0.0
 11
0.1898867252535013
 21
0.6015088157276374
 31
0.0
  0
ARC
  5
C38
330
19A3
100
AcDbEntity
  8
Structures
100
AcDbCircle
 10
0.1898867252535013
 20
0.6600304157262578
 30
0.0
 40
0.0585216000000022
100
AcDbArc
 50
270.0
 51
0.0
  0
LINE
  5
C39
330
19A3
100
AcDbEntity
  8
Structures
100
AcDbLine
 10
0.2484083252565483
 20
0.6600304157262578
 30
0.0
 11
0.2484083252565483
 21
1.05163634768904
 31
0.0
  0
ARC
  5
C3A
330
19A3
100
AcDbEntity
  8
Structures
100
AcDbCircle
 10
-0.0442685903638633
 20
0.4567039392835568
 30
0.0
 40
0.663026656710548
100
AcDbArc
 50
60.0816618476595
 51
120.6821046917811
  0
LINE
  5
C3B
330
19A3
100
AcDbEntity
  8
Structures
100
AcDbLine
 10
-1.049661779387328
 20
0.3329195511456824
 30
0.0
 11
-1.076802888403854
 21
0.3671157058518375
 31
0.0
  0
ARC
  5
C3C
330
19A3
100
AcDbEntity
  8
Structures
100
AcDbCircle
 10
-0.4749919392828517
 20
-0.0015965903640343
 30
0.0
 40
0.705779835265412
100
AcDbArc
 50
148.5053940022936
 51
210.4018729616726
  0
LINE
  5
C3D
330
19A3
100
AcDbEntity
  8
Structures
100
AcDbLine
 10
-1.083725019372977
 20
-0.3587649163242901
 30
0.0
 11
-1.049661779387328
 21
-0.3360468433299921
 31
0.0
  0
LINE
  5
C3E
330
19A3
100
AcDbEntity
  8
Structures
100
AcDbLine
 10
-1.069924347688328
 20
-0.2942735059822397
 30
0.0
 11
-0.678318415725542
 21
-0.2942735059822397
 31
0.0
  0
ARC
  5
C3F
330
19A3
100
AcDbEntity
  8
Structures
100
AcDbCircle
 10
-0.678318415725542
 20
-0.2357519059814059
 30
0.0
 40
0.0585216000000022
100
AcDbArc
 50
270.0
 51
0.0
  0
LINE
  5
C40
330
19A3
100
AcDbEntity
  8
Structures
100
AcDbLine
 10
-0.6197968157269287
 20
-0.2357519059814059
 30
0.0
 11
-0.6197968157269287
 21
0.2325587252533303
 31
0.0
  0
ARC
  5
C41
330
19A3
100
AcDbEntity
  8
Structures
100
AcDbCircle
 10
-0.678318415725542
 20
0.2325587252533303
 30
0.0
 40
0.0585216000000022
100
AcDbArc
 50
0.0
 51
90.0
  0
LINE
  5
C42
330
19A3
100
AcDbEntity
  8
Structures
100
AcDbLine
 10
-0.678318415725542
 20
0.2910803252519436
 30
0.0
 11
-1.069924347688328
 21
0.2910803252519436
 31
0.0
  0
ARC
  5
C43
330
19A3
100
AcDbEntity
  8
Structures
100
AcDbCircle
 10
-0.4749919392828517
 20
-0.0015965903640343
 30
0.0
 40
0.663026656710548
100
AcDbArc
 50
150.0816618476595
 51
210.6821046916383
  0
LINE
  5
C44
330
19A3
100
AcDbEntity
  8
Structures
100
AcDbLine
 10
0.5899037966941165
 20
0.5715357712380076
 30
0.0
 11
0.5899037966941165
 21
-0.5599974588355465
 31
0.0
  0
LINE
  5
C45
330
19A3
100
AcDbEntity
  8
Structures
100
AcDbLine
 10
0.5899037966941165
 20
-0.5599974588355465
 30
0.0
 11
-0.5849778527921927
 21
-0.5599974588355465
 31
0.0
  0
LINE
  5
C46
330
19A3
100
AcDbEntity
  8
Structures
100
AcDbLine
 10
-0.5849778527921927
 20
-0.5599974588355465
 30
0.0
 11
-0.5849778527921927
 21
0.5715357712380076
 31
0.0
  0
LINE
  5
C47
330
19A3
100
AcDbEntity
  8
Structures
100
AcDbLine
 10
-0.5849778527921927
 20
0.5715357712380076
 30
0.0
 11
0.5899037966941165
 21
0.5715357712380076
 31
0.0
  0
ENDBLK
  5
19A5
330
19A3
100
AcDbEntity
  8
0
100
AcDbBlockEnd
  0
BLOCK
  5
19A7
330
19A6
100
AcDbEntity
  8
0
100
AcDbBlockBegin
  2
A$C31D61DB3
 70
     0
 10
0.0
 20
0.0
 30
0.0
  3
A$C31D61DB3
  1

  0
LINE
  5
158E
330
19A6
100
AcDbEntity
  8
Structures
  6
Continuous
100
AcDbLine
 10
0.0009000002413377
 20
0.0019001717482388
 30
0.0
 11
0.0009000002413377
 21
-0.0000000000790606
 31
0.0
  0
LINE
  5
159E
330
19A6
100
AcDbEntity
  8
Structures
  6
Continuous
100
AcDbLine
 10
0.0000000002413362
 20
0.0019001717482388
 30
0.0
 11
0.0000000002413362
 21
-0.0000000000790606
 31
0.0
  0
LINE
  5
159F
330
19A6
100
AcDbEntity
  8
Structures
  6
Continuous
100
AcDbLine
 10
0.0000142356473661
 20
0.0019001717482388
 30
0.0
 11
0.0000142356473661
 21
0.0000142353269694
 31
0.0
  0
LINE
  5
1593
330
19A6
100
AcDbEntity
  8
Structures
  6
Continuous
100
AcDbLine
 10
0.0000055208507256
 20
0.0000305301758563
 30
0.0
 11
0.0000142356473661
 21
0.0000305301758563
 31
0.0
  0
LINE
  5
1591
330
19A6
100
AcDbEntity
  8
Structures
  6
Continuous
100
AcDbLine
 10
0.000196343867523
 20
0.0018012618931098
 30
0.0
 11
0.0007431101789989
 21
0.0018012618931098
 31
0.0
  0
LINE
  5
159B
330
19A6
100
AcDbEntity
  8
Structures
  6
Continuous
100
AcDbLine
 10
0.0007431101789989
 20
0.0015628901538148
 30
0.0
 11
0.000196343867523
 21
0.0015628901538148
 31
0.0
  0
LINE
  5
1598
330
19A6
100
AcDbEntity
  8
Structures
  6
Continuous
100
AcDbLine
 10
0.000084544263038
 20
0.0019001717482388
 30
0.0
 11
0.0000000002413362
 21
0.0019001717482388
 31
0.0
  0
LINE
  5
1596
330
19A6
100
AcDbEntity
  8
Structures
  6
Continuous
100
AcDbLine
 10
0.000196343867523
 20
0.0015628901538148
 30
0.0
 11
0.000196343867523
 21
0.0018012618931098
 31
0.0
  0
LINE
  5
159A
330
19A6
100
AcDbEntity
  8
Structures
  6
Continuous
100
AcDbLine
 10
0.0000055208507256
 20
0.000725530175856
 30
0.0
 11
0.0000142356473661
 21
0.000725530175856
 31
0.0
  0
LINE
  5
1590
330
19A6
100
AcDbEntity
  8
Structures
  6
Continuous
100
AcDbLine
 10
0.000196343867523
 20
0.0016632571352238
 30
0.0
 11
0.0000142356473661
 21
0.0016632571352238
 31
0.0
  0
LINE
  5
158D
330
19A6
100
AcDbEntity
  8
Structures
  6
Continuous
100
AcDbLine
 10
0.000196343867523
 20
0.0017071676469277
 30
0.0
 11
0.0000142356473661
 21
0.0017071676469277
 31
0.0
  0
LINE
  5
1599
330
19A6
100
AcDbEntity
  8
Structures
  6
Continuous
100
AcDbLine
 10
0.000196343867523
 20
0.0016883488562016
 30
0.0
 11
0.0000142356473661
 21
0.0016883488562016
 31
0.0
  0
ARC
  5
158F
330
19A6
100
AcDbEntity
  8
Structures
  6
Continuous
100
AcDbCircle
 10
0.0001128053579669
 20
0.0016820760234623
 30
0.0
 40
0.0001455470855164
100
AcDbArc
 50
305.0269791883129
 51
54.97302081168715
  0
LINE
  5
15A2
330
19A6
100
AcDbEntity
  8
Structures
  6
Continuous
100
AcDbLine
 10
0.0007431101789989
 20
0.0018012618931098
 30
0.0
 11
0.0007431101789989
 21
0.0015628901538148
 31
0.0
  0
ARC
  5
158C
330
19A6
100
AcDbEntity
  8
Structures
  6
Continuous
100
AcDbCircle
 10
0.0008096496397557
 20
0.0016820760234623
 30
0.0
 40
0.0001365019097344
100
AcDbArc
 50
119.1738864280228
 51
240.8261135719772
  0
LINE
  5
159C
330
19A6
100
AcDbEntity
  8
Structures
  6
Continuous
100
AcDbLine
 10
0.0000000002413362
 20
-0.0000000000790606
 30
0.0
 11
0.0009000002413377
 21
-0.0000000000790606
 31
0.0
  0
LINE
  5
159D
330
19A6
100
AcDbEntity
  8
Structures
  6
Continuous
100
AcDbLine
 10
0.0000142356473661
 20
0.0000142353269694
 30
0.0
 11
0.0009000002413377
 21
0.0000142353269694
 31
0.0
  0
LINE
  5
1597
330
19A6
100
AcDbEntity
  8
Structures
  6
Continuous
100
AcDbLine
 10
0.0009000002413377
 20
0.0002415706198008
 30
0.0
 11
0.0000142356473661
 21
0.0002415706198008
 31
0.0
  0
LINE
  5
1595
330
19A6
100
AcDbEntity
  8
Structures
  6
Continuous
100
AcDbLine
 10
0.0009000002413377
 20
0.0002603894105341
 30
0.0
 11
0.0000142356473661
 21
0.0002603894105341
 31
0.0
  0
LINE
  5
15A0
330
19A6
100
AcDbEntity
  8
Structures
  6
Continuous
100
AcDbLine
 10
0.0009000002413377
 20
0.0019001717482388
 30
0.0
 11
0.0000000002413362
 21
0.0019001717482388
 31
0.0
  0
LINE
  5
15A1
330
19A6
100
AcDbEntity
  8
Structures
  6
Continuous
100
AcDbLine
 10
0.0009000002413377
 20
0.0016632571352238
 30
0.0
 11
0.0007431101789989
 21
0.0016632571352238
 31
0.0
  0
LINE
  5
1594
330
19A6
100
AcDbEntity
  8
Structures
  6
Continuous
100
AcDbLine
 10
0.0009000002413377
 20
0.0017071676469277
 30
0.0
 11
0.0007431101789989
 21
0.0017071676469277
 31
0.0
  0
LINE
  5
1592
330
19A6
100
AcDbEntity
  8
Structures
  6
Continuous
100
AcDbLine
 10
0.0009000002413377
 20
0.0016883488562016
 30
0.0
 11
0.0007431101789989
 21
0.0016883488562016
 31
0.0
  0
ENDBLK
  5
19A8
330
19A6
100
AcDbEntity
  8
0
100
AcDbBlockEnd
  0
ENDSEC
  0
SECTION
  2
ENTITIES
  0
IMAGE
  5
205
330
18C7
100
AcDbEntity
  8
xSatellite
160
               140
310
8C0000000100000084000000060000000500000000000000000000000000000000000000000000000000000001000000008056400000000000000000000000000000000001000000008056404FECC44EECE447400000000000000000000000000058EA3C4FECC44EECE4474000000000000000000000000000000000000000
310
00000000000000000000000000
100
AcDbRasterImage
 90
        0
 10
0.0
 20
0.0
 30
0.0
 11
0.04807692307692308
 21
0.0
 31
0.0
 12
2.943862497950368E-18
 22
0.04807692307692308
 32
0.0
 13
1872.0
 23
994.0
340
19AB
 70
     7
280
     0
281
    50
282
    50
283
     0
360
19AC
 71
     1
 91
        2
 14
-0.5
 24
-0.5
 14
1871.5
 24
993.5
290
     0
  0
IMAGE
  5
112
330
18C7
100
AcDbEntity
  8
0
160
               140
310
8C000000010000008400000006000000050000000000000000000000000000000000000000000000000000000000000000000000000000000000000000000000000000000000000000000000000000000000000000000000000000000000000000000000000000000000000000000000000000000000000000000000000000
310
00000000000000000000000000
100
AcDbRasterImage
 90
        0
 10
0.0
 20
0.0
 30
0.0
 11
1.0
 21
0.0
 31
0.0
 12
0.0
 22
1.0
 32
0.0
 13
0.0
 23
0.0
340
19AD
 70
     7
280
     0
281
    50
282
    50
283
     0
360
19AE
 71
     1
 91
        2
 14
-0.5
 24
-0.5
 14
-0.5
 24
-0.5
290
     0
  0
LINE
  5
117
330
18C7
100
AcDbEntity
  8
Boundary
100
AcDbLine
 10
66.28435525767472
 20
26.34217136382556
 30
0.0
 11
29.54604721583659
 21
25.47143662445655
 31
0.0
  0
LINE
  5
1740
330
18C7
100
AcDbEntity
  8
Boundary
100
AcDbLine
 10
66.28435525767472
 20
26.34217136382556
 30
0.0
 11
29.54604721583659
 21
25.47143662445655
 31
0.0
  0
LINE
  5
118
330
18C7
100
AcDbEntity
  8
Boundary
100
AcDbLine
 10
29.56610815923426
 20
25.47175758940253
 30
0.0
 11
29.61286343724251
 21
19.67782408782889
 31
0.0
  0
LINE
  5
119
330
18C7
100
AcDbEntity
  8
Boundary
100
AcDbLine
 10
29.61302681117267
 20
19.6777016278859
 30
0.0
 11
47.53006856357322
 21
19.97910980689826
 31
0.0
  0
LINE
  5
11A
330
18C7
100
AcDbEntity
  8
Boundary
100
AcDbLine
 10
47.53006856357322
 20
19.97910980689826
 30
0.0
 11
66.55227363901903
 21
20.5484363672549
 31
0.0
  0
LINE
  5
11B
330
18C7
100
AcDbEntity
  8
Boundary
100
AcDbLine
 10
66.55227363901903
 20
20.5484363672549
 30
0.0
 11
66.3513348530108
 21
26.34217136382555
 31
0.0
  0
LINE
  5
11D
330
18C7
100
AcDbEntity
  8
Buildings
100
AcDbLine
 10
47.37655009486338
 20
24.08056287734499
 30
0.0
 11
52.25213003476663
 21
24.23231411073913
 31
0.0
  0
LINE
  5
1743
330
18C7
100
AcDbEntity
  8
Buildings
100
AcDbLine
 10
47.37655009486338
 20
24.08056287734499
 30
0.0
 11
52.25213003476663
 21
24.23231411073913
 31
0.0
  0
LINE
  5
11E
330
18C7
100
AcDbEntity
  8
Buildings
100
AcDbLine
 10
52.25213003476663
 20
24.23231411073913
 30
0.0
 11
56.05551481435216
 21
24.31381521315881
 31
0.0
  0
LINE
  5
1742
330
18C7
100
AcDbEntity
  8
Buildings
100
AcDbLine
 10
52.25213003476663
 20
24.23231411073913
 30
0.0
 11
56.05551481435216
 21
24.31381521315881
 31
0.0
  0
LINE
  5
120
330
18C7
100
AcDbEntity
  8
Buildings
100
AcDbLine
 10
56.06324480713651
 20
26.09850578346878
 30
0.0
 11
64.94702930777889
 21
26.31047539782986
 31
0.0
  0
LINE
  5
121
330
18C7
100
AcDbEntity
  8
Buildings
100
AcDbLine
 10
64.94704672824969
 20
26.31244971785473
 30
0.0
 11
65.15339388877861
 21
20.53300784678363
 31
0.0
  0
LINE
  5
122
330
18C7
100
AcDbEntity
  8
Buildings
100
AcDbLine
 10
65.15339388877861
 20
20.53300784678363
 30
0.0
 11
47.4
 21
20.1
 31
0.0
  0
LINE
  5
123
330
18C7
100
AcDbEntity
  8
Buildings
100
AcDbLine
 10
47.4
 20
20.1
 30
0.0
 11
47.37655009486338
 21
24.08056287734499
 31
0.0
  0
CIRCLE
  5
B59
330
18C7
100
AcDbEntity
  8
Trees & shrubs
100
AcDbCircle
 10
38.13274705000914
 20
25.21387464070796
 30
0.0
 40
2.0
  0
CIRCLE
  5
5DA
330
18C7
100
AcDbEntity
  8
Trees & shrubs
100
AcDbCircle
 10
29.83728593607436
 20
25.22209873336577
 30
0.0
 40
2.0
  0
CIRCLE
  5
B58
330
18C7
100
AcDbEntity
  8
Trees & shrubs
100
AcDbCircle
 10
38.42392576075442
 20
21.66365258278526
 30
0.0
 40
1.889011516407046
  0
LINE
  5
5A1
330
18C7
100
AcDbEntity
  8
0
100
AcDbLine
 10
47.39594698430157
 20
20.85591652869384
 30
0.0
 11
47.39450162743081
 21
21.04561961798044
 31
0.0
  0
CIRCLE
  5
7C1
330
18C7
100
AcDbEntity
  8
Trees & shrubs
100
AcDbCircle
 10
41.72140131163239
 20
24.80283935083041
 30
0.0
 40
1.25
  0
CIRCLE
  5
5D8
330
18C7
100
AcDbEntity
  8
Trees & shrubs
100
AcDbCircle
 10
35.34122133013845
 20
25.06901904983129
 30
0.0
 40
3.0
  0
CIRCLE
  5
5DD
330
18C7
100
AcDbEntity
  8
Trees & shrubs
100
AcDbCircle
 10
35.0
 20
20.7
 30
0.0
 40
1.1
  0
CIRCLE
  5
5E0
330
18C7
100
AcDbEntity
  8
Trees & shrubs
100
AcDbCircle
 10
33.23653807326262
 20
24.88926052892333
 30
0.0
 40
1.1
  0
CIRCLE
  5
7CE
330
18C7
100
AcDbEntity
  8
Trees & shrubs
100
AcDbCircle
 10
30.83580346223674
 20
22.24218984288932
 30
0.0
 40
1.0
  0
MTEXT
  5
7C2
330
18C7
100
AcDbEntity
  8
Trees & shrubs
 62
    30
420
 16744192
100
AcDbMText
 10
41.72140131163239
 20
24.80283935083041
 30
0.0
 40
0.1
 41
0.0
 46
0.0
 71
     5
 72
     1
  1
Damson, Pixy\P2.5m x 2.5m
  7
textstyle12
 73
     1
 44
1.0
  0
MTEXT
  5
162C
330
18C7
100
AcDbEntity
  8
Trees & shrubs
100
AcDbMText
 10
40.29853154466164
 20
23.89576884674146
 30
0.0
 40
0.05
 41
0.0
 46
0.0
 71
     5
 72
     1
  1
Japanese Quince 'Crimson & Gold'\P\Por bush rose?
  7
textstyle13
 73
     1
 44
1.0
  0
MTEXT
  5
162E
330
18C7
100
AcDbEntity
  8
Trees & shrubs
100
AcDbMText
 10
32.09999999999999
 20
24.20020463847203
 30
0.0
 40
0.05
 41
0.0
 46
0.0
 71
     5
 72
     1
  1
Japanese Quince 'Jet Trail'
  7
textstyle14
 73
     1
 44
1.0
  0
MTEXT
  5
137E
330
18C7
100
AcDbEntity
  8
Plants
100
AcDbMText
 10
45.24851607958981
 20
25.31186734339076
 30
0.0
 40
0.05
 41
0.0
 46
0.0
 71
     5
 72
     1
  1
English\PMace
  7
textstyle15
 73
     1
 44
1.0
  0
MTEXT
  5
137F
330
18C7
100
AcDbEntity
  8
Trees & shrubs
100
AcDbMText
 10
42.73905925520956
 20
24.2390840378601
 30
0.0
 40
0.05
 41
0.0
 46
0.0
 71
     5
 72
     1
  1
Dwarf\PBuddleia
  7
textstyle16
 73
     1
 44
1.0
  0
MTEXT
  5
1589
330
18C7
100
AcDbEntity
  8
Trees & shrubs
100
AcDbMText
 10
45.54974691361804
 20
22.65883423600651
 30
0.0
 40
0.05
 41
0.0
 46
0.0
 71
     5
 72
     1
  1
Lavandula\Pangustifolia
  7
textstyle17
 73
     1
 44
1.0
  0
MTEXT
  5
15BA
330
18C7
100
AcDbEntity
  8
Plants
100
AcDbMText
 10
45.49082396668211
 20
20.35925572032004
 30
0.0
 40
0.05
 41
0.0
 46
0.0
 71
     5
 72
     1
  1
Chinese\PMallow\P1.7m x 0.8
  7
textstyle18
 73
     1
 44
1.0
  0
MTEXT
  5
15C0
330
18C7
100
AcDbEntity
  8
Plants
100
AcDbMText
 10
42.26674966121717
 20
24.00433888064067
 30
0.0
 40
0.05
 41
0.0
 46
0.0
 71
     5
 72
     1
  1
Good\PKing\PHenry
  7
textstyle19
 73
     1
 44
1.0
  0
MTEXT
  5
15C2
330
18C7
100
AcDbEntity
  8
Plants
100
AcDbMText
 10
43.40652515189924
 20
24.79793104893811
 30
0.0
 40
0.05
 41
0.0
 46
0.0
 71
     5
 72
     1
  1
Echinacea\Pangustifolia\P1.2m x 0.5m
  7
textstyle20
 73
     1
 44
1.0
  0
MTEXT
  5
15C4
330
18C7
100
AcDbEntity
  8
Plants
100
AcDbMText
 10
41.56669946959571
 20
20.74497675457512
 30
0.0
 40
0.05
 41
0.0
 46
0.0
 71
     5
 72
     1
  1
Columbine\P1m x 0.5m
  7
textstyle21
 73
     1
 44
1.0
  0
MTEXT
  5
15C9
330
18C7
100
AcDbEntity
  8
Plants
100
AcDbMText
 10
47.09999999999999
 20
23.30042633015006
 30
0.0
 40
0.05
 41
0.0
 46
0.0
 71
     5
 72
     1
  1
Thyme\PRosemary
  7
textstyle22
 73
     1
 44
1.0
  0
MTEXT
  5
15D0
330
18C7
100
AcDbEntity
  8
Plants
100
AcDbMText
 10
47.1534988743523
 20
20.60668723965484
 30
0.0
 40
0.05
 41
0.0
 46
0.0
 71
     5
 72
     1
  1
Apple Mint
  7
textstyle23
 73
     1
 44
1.0
  0
MTEXT
  5
15DA
330
18C7
100
AcDbEntity
  8
Plants
100
AcDbMText
 10
40.44996497544754
 20
25.26115575810732
 30
0.0
 40
0.05
 41
0.0
 46
0.0
 71
     5
 72
     1
  1
Hemp\PAgrimony\P1.5m x 1m
  7
textstyle24
 73
     1
 44
1.0
  0
MTEXT
  5
15DE
330
18C7
100
AcDbEntity
  8
Plants
100
AcDbMText
 10
43.8
 20
24.6
 30
0.0
 40
0.05
 41
0.0
 46
0.0
 71
     5
 72
     1
  1
Sedum\Pspectabile
  7
textstyle25
 73
     1
 44
1.0
  0
MTEXT
  5
15E5
330
18C7
100
AcDbEntity
  8
Plants
100
AcDbMText
 10
32.80000000000001
 20
25.3
 30
0.0
 40
0.05
 41
0.0
 46
0.0
 71
     5
 72
     1
  1
Columbine\P1m x 0.5m
  7
textstyle26
 73
     1
 44
1.0
  0
MTEXT
  5
15E7
330
18C7
100
AcDbEntity
  8
Plants
100
AcDbMText
 10
36.76936375366903
 20
24.95260829075608
 30
0.0
 40
0.05
 41
0.0
 46
0.0
 71
     5
 72
     1
  1
Columbine\P1m x 0.5m
  7
textstyle27
 73
     1
 44
1.0
  0
MTEXT
  5
15E9
330
18C7
100
AcDbEntity
  8
Plants
100
AcDbMText
 10
36.38737921561636
 20
20.75776282605512
 30
0.0
 40
0.05
 41
0.0
 46
0.0
 71
     5
 72
     1
  1
Hollyhock\PMallow\P1.2m x 0.8
  7
textstyle28
 73
     1
 44
1.0
  0
MTEXT
  5
15ED
330
18C7
100
AcDbEntity
  8
Plants
100
AcDbMText
 10
43.49999999999999
 20
24.4
 30
0.0
 40
0.05
 41
0.0
 46
0.0
 71
     5
 72
     1
  1
Day lilly
  7
textstyle29
 73
     1
 44
1.0
  0
MTEXT
  5
15EF
330
18C7
100
AcDbEntity
  8
Plants
100
AcDbMText
 10
41.89555428270744
 20
23.88008825133541
 30
0.0
 40
0.05
 41
0.0
 46
0.0
 71
     5
 72
     1
  1
Good\PKing\PHenry
  7
textstyle30
 73
     1
 44
1.0
  0
MTEXT
  5
15F1
330
18C7
100
AcDbEntity
  8
Plants
100
AcDbMText
 10
41.15251897096523
 20
23.70608631124388
 30
0.0
 40
0.05
 41
0.0
 46
0.0
 71
     5
 72
     1
  1
Good\PKing\PHenry
  7
textstyle31
 73
     1
 44
1.0
  0
MTEXT
  5
15F3
330
18C7
100
AcDbEntity
  8
Plants
100
AcDbMText
 10
41.51933387169873
 20
23.82835794482171
 30
0.0
 40
0.05
 41
0.0
 46
0.0
 71
     5
 72
     1
  1
Day lilly
  7
textstyle32
 73
     1
 44
1.0
  0
MTEXT
  5
15F5
330
18C7
100
AcDbEntity
  8
Plants
100
AcDbMText
 10
43.2
 20
24.3
 30
0.0
 40
0.05
 41
0.0
 46
0.0
 71
     5
 72
     1
  1
Sedum\Pspectabile
  7
textstyle33
 73
     1
 44
1.0
  0
MTEXT
  5
172C
330
18C7
100
AcDbEntity
  8
Plants
100
AcDbMText
 10
43.75599781078371
 20
25.09545506933975
 30
0.0
 40
0.05
 41
0.0
 46
0.0
 71
     5
 72
     1
  1
Verbena\Pbonariensis\P'Lollipop'
  7
textstyle34
 73
     1
 44
1.0
  0
MTEXT
  5
172E
330
18C7
100
AcDbEntity
  8
Plants
100
AcDbMText
 10
42.94843261255068
 20
24.68931116847401
 30
0.0
 40
0.05
 41
0.0
 46
0.0
 71
     5
 72
     1
  1
Verbena\Pbonariensis\P'Lollipop'
  7
textstyle35
 73
     1
 44
1.0
  0
MTEXT
  5
1604
330
18C7
100
AcDbEntity
  8
Plants
100
AcDbMText
 10
47.14442720163315
 20
21.07161046651143
 30
0.0
 40
0.05
 41
0.0
 46
0.0
 71
     5
 72
     1
  1
Spearmint
  7
textstyle36
 73
     1
 44
1.0
  0
MTEXT
  5
1605
330
18C7
100
AcDbEntity
  8
Plants
100
AcDbMText
 10
47.13989136527358
 20
20.21887323091104
 30
0.0
 40
0.05
 41
0.0
 46
0.0
 71
     5
 72
     1
  1
Peppermint
  7
textstyle37
 73
     1
 44
1.0
  0
MTEXT
  5
1606
330
18C7
100
AcDbEntity
  8
Plants
100
AcDbMText
 10
36.19697595903153
 20
21.54085725572763
 30
0.0
 40
0.05
 41
0.0
 46
0.0
 71
     5
 72
     1
  1
Sweet Rocket\P0.8m x 0.6m
  7
textstyle38
 73
     1
 44
1.0
  0
MTEXT
  5
160C
330
18C7
100
AcDbEntity
  8
Plants
100
AcDbMText
 10
44.87024296191258
 20
20.19556523115009
 30
0.0
 40
0.05
 41
0.0
 46
0.0
 71
     5
 72
     1
  1
Columbine\P1m x 0.5m
  7
textstyle39
 73
     1
 44
1.0
  0
MTEXT
  5
160E
330
18C7
100
AcDbEntity
  8
Plants
100
AcDbMText
 10
31.51828412194646
 20
23.45880976982958
 30
0.0
 40
0.05
 41
0.0
 46
0.0
 71
     5
 72
     1
  1
Rhubarb
  7
textstyle40
 73
     1
 44
1.0
  0
MTEXT
  5
1612
330
18C7
100
AcDbEntity
  8
Plants
100
AcDbMText
 10
44.80376258931656
 20
21.05849376374906
 30
0.0
 40
0.05
 41
0.0
 46
0.0
 71
     5
 72
     1
  1
Musk\PMallow
  7
textstyle41
 73
     1
 44
1.0
  0
MTEXT
  5
1616
330
18C7
100
AcDbEntity
  8
Trees & shrubs
100
AcDbMText
 10
43.97367893344419
 20
20.5115075474872
 30
0.0
 40
0.05
 41
0.0
 46
0.0
 71
     5
 72
     1
  1
Blackcurrant\P1.8m x 1m
  7
textstyle42
 73
     1
 44
1.0
  0
MTEXT
  5
1618
330
18C7
100
AcDbEntity
  8
Trees & shrubs
100
AcDbMText
 10
40.7908542563104
 20
20.6582335077806
 30
0.0
 40
0.05
 41
0.0
 46
0.0
 71
     5
 72
     1
  1
Gooseberry\P1.5m x 1m
  7
textstyle43
 73
     1
 44
1.0
  0
MTEXT
  5
161A
330
18C7
100
AcDbEntity
  8
Trees & shrubs
100
AcDbMText
 10
42.32583353322599
 20
20.41557134267997
 30
0.0
 40
0.05
 41
0.0
 46
0.0
 71
     5
 72
     1
  1
Redcurrant\P1.5m x 1m
  7
textstyle44
 73
     1
 44
1.0
  0
MTEXT
  5
1620
330
18C7
100
AcDbEntity
  8
Plants
100
AcDbMText
 10
43.2518533939056
 20
20.65484061443761
 30
0.0
 40
0.05
 41
0.0
 46
0.0
 71
     5
 72
     1
  1
Musk \PMallow \Palba
  7
textstyle45
 73
     1
 44
1.0
  0
MTEXT
  5
1621
330
18C7
100
AcDbEntity
  8
Plants
100
AcDbMText
 10
43.05982422578656
 20
20.24334953989682
 30
0.0
 40
0.05
 41
0.0
 46
0.0
 71
     5
 72
     1
  1
Columbine\P1m x 0.5m
  7
textstyle46
 73
     1
 44
1.0
  0
MTEXT
  5
1622
330
18C7
100
AcDbEntity
  8
Plants
100
AcDbMText
 10
42.9
 20
20.8
 30
0.0
 40
0.05
 41
0.0
 46
0.0
 71
     5
 72
     1
  1
Sorrel
  7
textstyle47
 73
     1
 44
1.0
  0
MTEXT
  5
1623
330
18C7
100
AcDbEntity
  8
Plants
100
AcDbMText
 10
41.42169785285277
 20
20.16105132498867
 30
0.0
 40
0.05
 41
0.0
 46
0.0
 71
     5
 72
     1
  1
Sweet\PCicely\P1.5m x 1m
  7
textstyle48
 73
     1
 44
1.0
  0
MTEXT
  5
1624
330
18C7
100
AcDbEntity
  8
Plants
100
AcDbMText
 10
44.4
 20
21.0
 30
0.0
 40
0.05
 41
0.0
 46
0.0
 71
     5
 72
     1
  1
Sorrel
  7
textstyle49
 73
     1
 44
1.0
  0
MTEXT
  5
1633
330
18C7
100
AcDbEntity
  8
Plants
100
AcDbMText
 10
44.72963203476571
 20
20.6582205398269
 30
0.0
 40
0.05
 41
0.0
 46
0.0
 71
     5
 72
     1
  1
Yellow \PToadflax
  7
textstyle50
 73
     1
 44
1.0
  0
MTEXT
  5
1637
330
18C7
100
AcDbEntity
  8
Plants
100
AcDbMText
 10
55.05053436782885
 20
24.59593075866724
 30
0.0
 40
0.05
 41
0.0
 46
0.0
 71
     5
 72
     1
  1
White geranium\PTrailing ivy\PIn planter
  7
textstyle51
 73
     1
 44
1.0
  0
MTEXT
  5
1380
330
18C7
100
AcDbEntity
  8
Plants
100
AcDbMText
 10
43.74650270006305
 20
25.56976987252727
 30
0.0
 40
0.05
 41
0.0
 46
0.0
 71
     5
 72
     1
  1
Berberis \Pbuxifolia \P'Nana'
  7
textstyle52
 73
     1
 44
1.0
  0
MTEXT
  5
15E0
330
18C7
100
AcDbEntity
  8
Plants
100
AcDbMText
 10
44.45479517121409
 20
25.75336619176746
 30
0.0
 40
0.05
 41
0.0
 46
0.0
 71
     5
 72
     1
  1
Wild Thyme
  7
textstyle53
 73
     1
 44
1.0
  0
MTEXT
  5
1381
330
18C7
100
AcDbEntity
  8
Plants
100
AcDbMText
 10
43.1877582760189
 20
25.31093085504696
 30
0.0
 40
0.05
 41
0.0
 46
0.0
 71
     5
 72
     1
  1
Globe\PArtichoke
  7
textstyle54
 73
     1
 44
1.0
  0
MTEXT
  5
15A6
330
18C7
100
AcDbEntity
  8
Trees & shrubs
100
AcDbMText
 10
45.51417450215315
 20
21.22891347122509
 30
0.0
 40
0.05
 41
0.0
 46
0.0
 71
     5
 72
     1
  1
Bay tree
  7
textstyle55
 73
     1
 44
1.0
  0
MTEXT
  5
1382
330
18C7
100
AcDbEntity
  8
Plants
100
AcDbMText
 10
45.35682054346688
 20
25.56385215699323
 30
0.0
 40
0.05
 41
0.0
 46
0.0
 71
     5
 72
     1
  1
Fennel
  7
textstyle56
 73
     1
 44
1.0
  0
MTEXT
  5
1383
330
18C7
100
AcDbEntity
  8
Plants
100
AcDbMText
 10
34.52786852739059
 20
20.95074717525415
 30
0.0
 40
0.05
 41
0.0
 46
0.0
 71
     5
 72
     1
  1
Comfrey
  7
textstyle57
 73
     1
 44
1.0
  0
MTEXT
  5
1384
330
18C7
100
AcDbEntity
  8
Plants
100
AcDbMText
 10
35.80073322486385
 20
20.09540655088076
 30
0.0
 40
0.05
 41
0.0
 46
0.0
 71
     5
 72
     1
  1
Golden \PShield \PFern
  7
textstyle58
 73
     1
 44
1.0
  0
MTEXT
  5
1385
330
18C7
100
AcDbEntity
  8
Plants
100
AcDbMText
 10
37.08370717527306
 20
20.13476158003442
 30
0.0
 40
0.05
 41
0.0
 46
0.0
 71
     5
 72
     1
  1
Golden \PShield \PFern
  7
textstyle59
 73
     1
 44
1.0
  0
MTEXT
  5
1388
330
18C7
100
AcDbEntity
  8
Plants
100
AcDbMText
 10
30.1
 20
21.6
 30
0.0
 40
0.05
 41
0.0
 46
0.0
 71
     5
 72
     1
  1
Comfrey
  7
textstyle60
 73
     1
 44
1.0
  0
MTEXT
  5
15E3
330
18C7
100
AcDbEntity
  8
Plants
100
AcDbMText
 10
32.09387988114509
 20
25.18776924375298
 30
0.0
 40
0.05
 41
0.0
 46
0.0
 71
     5
 72
     1
  1
Wild \PAngelica
  7
textstyle61
 73
     1
 44
1.0
  0
MTEXT
  5
1730
330
18C7
100
AcDbEntity
  8
Plants
100
AcDbMText
 10
36.42647818840699
 20
20.10327755671149
 30
0.0
 40
0.05
 41
0.0
 46
0.0
 71
     5
 72
     1
  1
Wild \PAngelica
  7
textstyle62
 73
     1
 44
1.0
  0
MTEXT
  5
15E4
330
18C7
100
AcDbEntity
  8
Plants
100
AcDbMText
 10
33.84544654581003
 20
25.31300806244208
 30
0.0
 40
0.05
 41
0.0
 46
0.0
 71
     5
 72
     1
  1
Wild \PAngelica
  7
textstyle63
 73
     1
 44
1.0
  0
MTEXT
  5
138B
330
18C7
100
AcDbEntity
  8
Plants
100
AcDbMText
 10
39.46572437171325
 20
21.52729162292025
 30
0.0
 40
0.05
 41
0.0
 46
0.0
 71
     5
 72
     1
  1
Comfrey
  7
textstyle64
 73
     1
 44
1.0
  0
MTEXT
  5
5D1
330
18C7
100
AcDbEntity
  8
Structures
 62
    30
420
 16744192
100
AcDbMText
 10
65.69055100305688
 20
25.41412687430311
 30
0.0
 40
0.2
 41
0.0
 46
0.0
 71
     5
 72
     1
  1
Bike\Pshed?
  7
textstyle65
 73
     1
 44
1.0
  0
MTEXT
  5
5D9
330
18C7
100
AcDbEntity
  8
Trees & shrubs
 62
    30
420
 16744192
100
AcDbMText
 10
35.34122133013845
 20
25.06901904983129
 30
0.0
 40
0.1
 41
0.0
 46
0.0
 71
     5
 72
     1
  1
Italian Alder\P20m x 6m
  7
textstyle66
 73
     1
 44
1.0
  0
MTEXT
  5
127C
330
18C7
100
AcDbEntity
  8
Plants
100
AcDbMText
 10
35.21521640373649
 20
25.51637318897113
 30
0.0
 40
0.05
 41
0.0
 46
0.0
 71
     5
 72
     1
  1
Fargesia robusta 'Campbell' 4m high
  7
textstyle67
 73
     1
 44
1.0
  0
MTEXT
  5
B60
330
18C7
100
AcDbEntity
  8
Trees & shrubs
 62
    30
420
 16744192
100
AcDbMText
 10
38.11693800039846
 20
25.08740224382256
 30
0.0
 40
0.1
 41
0.0
 46
0.0
 71
     5
 72
     1
  1
Fig\P4m x 4m
  7
textstyle68
 73
     1
 44
1.0
  0
MTEXT
  5
BEA
330
18C7
100
AcDbEntity
  8
Trees & shrubs
 62
    30
420
 16744192
100
AcDbMText
 10
38.00627465312374
 20
23.61716063002978
 30
0.0
 40
0.1
 41
0.0
 46
0.0
 71
     5
 72
     1
  1
Irish yew\P2m x 1m
  7
textstyle69
 73
     1
 44
1.0
  0
MTEXT
  5
5DB
330
18C7
100
AcDbEntity
  8
Trees & shrubs
 62
    30
420
 16744192
100
AcDbMText
 10
29.83728593607436
 20
25.22209873336577
 30
0.0
 40
0.1
 41
0.0
 46
0.0
 71
     5
 72
     1
  1
Crataegus persimils \P'Prunifolia'\P4m x 4m
  7
textstyle70
 73
     1
 44
1.0
  0
MTEXT
  5
5DF
330
18C7
100
AcDbEntity
  8
Trees & shrubs
 62
    30
420
 16744192
100
AcDbMText
 10
35.0
 20
20.7
 30
0.0
 40
0.1
 41
0.0
 46
0.0
 71
     5
 72
     1
  1
Apple, M9\P2.2m x 2.2m
  7
textstyle71
 73
     1
 44
1.0
  0
MTEXT
  5
B61
330
18C7
100
AcDbEntity
  8
Trees & shrubs
 62
    30
420
 16744192
100
AcDbMText
 10
38.42392576075442
 20
21.66365258278526
 30
0.0
 40
0.1
 41
0.0
 46
0.0
 71
     5
 72
     1
  1
Cherry\P2.5m x 4m
  7
textstyle72
 73
     1
 44
1.0
  0
MTEXT
  5
5E2
330
18C7
100
AcDbEntity
  8
Trees & shrubs
 62
    30
420
 16744192
100
AcDbMText
 10
33.23653807326262
 20
24.88926052892333
 30
0.0
 40
0.1
 41
0.0
 46
0.0
 71
     5
 72
     1
  1
Corylus cornuta\P3m x 2m
  7
textstyle73
 73
     1
 44
1.0
  0
MTEXT
  5
7CF
330
18C7
100
AcDbEntity
  8
Trees & shrubs
 62
    30
420
 16744192
100
AcDbMText
 10
30.83580346223674
 20
22.24218984288932
 30
0.0
 40
0.1
 41
0.0
 46
0.0
 71
     5
 72
     1
  1
Crabapple \P'Laura'\P2m x 2m
  7
textstyle74
 73
     1
 44
1.0
  0
MTEXT
  5
15B1
330
18C7
100
AcDbEntity
  8
Structures
 62
    30
420
 16744192
100
AcDbMText
 10
33.45425429731818
 20
20.06961932560583
 30
0.0
 40
0.1
 41
0.0
 46
0.0
 71
     5
 72
     1
  1
Compost\P(open)
  7
textstyle75
 73
     1
 44
1.0
  0
LWPOLYLINE
  5
5D2
330
18C7
100
AcDbEntity
  8
Structures
100
AcDbPolyline
 90
        4
 70
   129
 43
0.0
 10
66.44148085956394
 20
24.39971285761808
 10
66.44148085956394
 20
26.39971285761808
 10
64.94148085956395
 20
26.39971285761808
 10
64.94148085956395
 20
24.39971285761808
  0
LWPOLYLINE
  5
F93
330
18C7
100
AcDbEntity
  8
Structures
100
AcDbPolyline
 90
        4
 70
   129
 43
0.0
 10
29.63904753651999
 20
19.6761635603668
 10
31.63826776660069
 20
19.73200683781394
 10
31.59638530851534
 20
21.23142201037447
 10
29.59716507843463
 20
21.17557873292733
  0
CIRCLE
  5
5CE
330
18C7
100
AcDbEntity
  8
Trees & shrubs
100
AcDbCircle
 10
38.00627465312374
 20
23.61716063002978
 30
0.0
 40
0.5
  0
LINE
  5
B66
330
18C7
100
AcDbEntity
  8
Areas
100
AcDbLine
 10
45.70112175328065
 20
19.94834247737946
 30
0.0
 11
45.71042840301321
 21
25.85454866717907
 31
0.0
  0
LINE
  5
F65
330
18C7
100
AcDbEntity
  8
Areas
100
AcDbLine
 10
45.71042840301321
 20
25.85454866717907
 30
0.0
 11
56.06324480713651
 21
26.09850578346878
 31
0.0
  0
LINE
  5
1749
330
18C7
100
AcDbEntity
  8
Areas
100
AcDbLine
 10
45.71042840301321
 20
25.85454866717907
 30
0.0
 11
56.06324480713651
 21
26.09850578346878
 31
0.0
  0
LINE
  5
F66
330
18C7
100
AcDbEntity
  8
Areas
100
AcDbLine
 10
56.06324480713651
 20
26.09850578346878
 30
0.0
 11
56.05551481435216
 21
24.31381521315881
 31
0.0
  0
LINE
  5
F67
330
18C7
100
AcDbEntity
  8
Areas
100
AcDbLine
 10
51.07611447366052
 20
24.19571091397319
 30
0.0
 11
47.37655009486338
 21
24.08056287734499
 31
0.0
  0
LINE
  5
F68
330
18C7
100
AcDbEntity
  8
Areas
100
AcDbLine
 10
47.37655009486338
 20
24.08056287734499
 30
0.0
 11
47.40133741098401
 21
19.97662133926866
 31
0.0
  0
LINE
  5
F69
330
18C7
100
AcDbEntity
  8
Areas
100
AcDbLine
 10
47.40133741098401
 20
19.97662133926866
 30
0.0
 11
45.70112175324924
 21
19.94834247737879
 31
0.0
  0
LWPOLYLINE
  5
B68
330
18C7
100
AcDbEntity
  8
Buildings
100
AcDbPolyline
 90
        4
 70
   129
 43
0.0
 10
49.17896239674743
 20
24.05144823068137
 10
50.17852225686681
 20
24.08111447476648
 10
50.17258900804979
 20
24.28102644679036
 10
49.17302914793041
 20
24.25136020270525
  0
LWPOLYLINE
  5
B6C
330
18C7
100
AcDbEntity
  8
Buildings
100
AcDbPolyline
 90
        4
 70
   129
 43
0.0
 10
51.07611447366268
 20
24.19571091397321
 10
54.26061846824656
 20
24.2752243418798
 10
53.97630359300763
 20
24.77237028907206
 10
51.43008539580151
 20
24.70778363805301
  0
LWPOLYLINE
  5
1747
330
18C7
100
AcDbEntity
  8
Buildings
100
AcDbPolyline
 90
        4
 70
   129
 43
0.0
 10
51.07611447366268
 20
24.19571091397321
 10
54.26061846824656
 20
24.2752243418798
 10
53.97630359300763
 20
24.77237028907206
 10
51.43008539580151
 20
24.70778363805301
  0
LINE
  5
F6B
330
18C7
100
AcDbEntity
  8
Areas
100
AcDbLine
 10
51.0761144736278
 20
24.19571091397219
 30
0.0
 11
51.43008539580151
 21
24.70778363805301
 31
0.0
  0
LINE
  5
F6C
330
18C7
100
AcDbEntity
  8
Areas
100
AcDbLine
 10
51.43008539580151
 20
24.70778363805301
 30
0.0
 11
53.97630359300763
 21
24.77237028907206
 31
0.0
  0
LINE
  5
1746
330
18C7
100
AcDbEntity
  8
Areas
100
AcDbLine
 10
51.43008539580151
 20
24.70778363805301
 30
0.0
 11
53.97630359300763
 21
24.77237028907206
 31
0.0
  0
LINE
  5
F6D
330
18C7
100
AcDbEntity
  8
Areas
100
AcDbLine
 10
53.97630359300764
 20
24.77237028907206
 30
0.0
 11
54.26054569624473
 21
24.27535158919937
 31
0.0
  0
LINE
  5
1744
330
18C7
100
AcDbEntity
  8
Areas
100
AcDbLine
 10
53.97630359300764
 20
24.77237028907206
 30
0.0
 11
54.26054569624473
 21
24.27535158919937
 31
0.0
  0
LINE
  5
F6E
330
18C7
100
AcDbEntity
  8
Areas
100
AcDbLine
 10
54.26054569624473
 20
24.27535158919937
 30
0.0
 11
56.05551481435215
 21
24.31381521315881
 31
0.0
  0
LINE
  5
1748
330
18C7
100
AcDbEntity
  8
Areas
100
AcDbLine
 10
54.26054569624473
 20
24.27535158919937
 30
0.0
 11
56.05551481435215
 21
24.31381521315881
 31
0.0
  0
ARC
  5
F78
330
18C7
100
AcDbEntity
  8
Areas
100
AcDbCircle
 10
37.85987785644203
 20
20.04889750667579
 30
0.0
 40
3.348836112193434
100
AcDbArc
 50
48.08929438636292
 51
73.31141863646562
1001
QCAD
1000
reversed:1
  0
LWPOLYLINE
  5
147C
330
18C7
100
AcDbEntity
  8
Plants
100
AcDbPolyline
 90
        5
 70
   128
 43
0.0
 10
40.09680532967291
 20
22.54105696903685
 42
0.2938704792074673
 10
45.7
 20
22.5
 10
45.70938850455438
 20
25.36834976236818
 42
-0.1360153809546536
 10
38.8215618737154
 20
23.2566797868893
 42
-0.1104987407187208
 10
40.09680532967292
 20
22.54105696903684
  0
ARC
  5
F79
330
18C7
100
AcDbEntity
  8
Areas
100
AcDbCircle
 10
42.93031408300571
 20
26.87559639145633
 30
0.0
 40
5.178513672833374
100
AcDbArc
 50
236.8271665688901
 51
302.3331878059456
  0
LINE
  5
F7A
330
18C7
100
AcDbEntity
  8
Areas
100
AcDbLine
 10
45.7
 20
22.5
 30
0.0
 11
45.7
 21
21.7
 31
0.0
  0
ARC
  5
F7B
330
18C7
100
AcDbEntity
  8
Areas
100
AcDbCircle
 10
42.80543220635455
 20
26.85037707924251
 30
0.0
 40
5.908037471986432
100
AcDbArc
 50
242.5842403805821
 51
299.3364590826149
1001
QCAD
1000
reversed:1
  0
ARC
  5
F7C
330
18C7
100
AcDbEntity
  8
Areas
100
AcDbCircle
 10
38.11286244768812
 20
19.49829228410458
 30
0.0
 40
2.886466383636151
100
AcDbArc
 50
46.89992478324816
 51
75.37264493542955
  0
LINE
  5
F7D
330
18C7
100
AcDbEntity
  8
Areas
100
AcDbLine
 10
38.8417856963453
 20
22.29120457800652
 30
0.0
 11
38.8215618737154
 21
23.2566797868893
 31
0.0
  0
HATCH
  5
F7E
330
18C7
100
AcDbEntity
  8
Areas
100
AcDbHatch
 10
0.0
 20
0.0
 30
0.0
210
0.0
220
0.0
230
1.0
  2
AR-B88
 70
     0
 71
     0
 91
        1
 92
        0
 93
        6
 72
     2
 10
38.11286244768812
 20
19.49829228410458
 40
2.886466383636151
 50
46.89992478324816
 51
75.37264493542955
 73
     1
 72
     1
 10
38.84178569634531
 20
22.29120457800652
 11
38.8215618737154
 21
23.2566797868893
 72
     2
 10
37.85987785644203
 20
20.04889750667579
 40
3.348836112193434
 50
286.6885813635344
 51
311.9107056136371
 73
     0
 72
     2
 10
42.93031408300571
 20
26.87559639145633
 40
5.178513672833374
 50
236.8271665688901
 51
302.3331878059456
 73
     1
 72
     1
 10
45.7
 20
22.49999999999999
 11
45.7
 21
21.7
 72
     2
 10
42.80543220635455
 20
26.85037707924251
 40
5.908037471986432
 50
60.66354091738508
 51
117.4157596194179
 73
     0
 97
        0
 75
     0
 76
     0
 52
0.0
 41
0.0025
 77
     0
 78
     2
 53
0.0
 43
0.0
 44
0.0
 45
0.0
 46
0.508
 79
     0
 53
90.0
 43
0.0
 44
0.0
 45
-0.2539999999999999
 46
0.508
 79
     2
 49
0.508
 49
-0.508
 98
        0
1001
ACAD
1010
0.0
1020
0.0
1030
0.0
  0
MTEXT
  5
15AD
330
18C7
100
AcDbEntity
  8
Structures
 62
    30
420
 16744192
100
AcDbMText
 10
46.5861549661628
 20
25.45861044905314
 30
0.0
 40
0.1
 41
0.0
 46
0.0
 71
     5
 72
     1
  1
Log\Pstore
  7
textstyle76
 73
     1
 44
1.0
  0
HATCH
  5
F94
330
18C7
100
AcDbEntity
  8
Structures
100
AcDbHatch
 10
0.0
 20
0.0
 30
0.0
210
0.0
220
0.0
230
1.0
  2
AR-HBONE
 70
     0
 71
     0
 91
        1
 92
        0
 93
        4
 72
     1
 10
29.63904753651999
 20
19.6761635603668
 11
31.63826776660069
 21
19.73200683781394
 72
     1
 10
31.63826776660069
 20
19.73200683781394
 11
31.59638530851534
 21
21.23142201037447
 72
     1
 10
31.59638530851534
 20
21.23142201037447
 11
29.59716507843463
 21
21.17557873292733
 72
     1
 10
29.59716507843463
 20
21.17557873292733
 11
29.63904753651999
 21
19.6761635603668
 97
        0
 75
     0
 76
     0
 52
1.6
 41
0.001
 77
     0
 78
     2
 53
46.6
 43
0.0
 44
0.0
 45
-0.0040118954729218
 46
0.1436280776683805
 79
     2
 49
0.3048
 49
-0.1016
 53
136.6
 43
0.0698080435155505
 44
0.0738199362539078
 45
-0.0040118954729218
 46
0.1436280776683805
 79
     2
 49
0.3048
 49
-0.1016
 98
        0
1001
ACAD
1010
0.0
1020
0.0
1030
0.0
  0
LWPOLYLINE
  5
1085
330
18C7
100
AcDbEntity
  8
Structures
100
AcDbPolyline
 90
        4
 70
   129
 43
0.0
 10
43.97747114741053
 20
24.97844661758484
 10
44.97708126245089
 20
25.00636825630841
 10
44.95753611534439
 20
25.70609533683666
 10
43.95792600030403
 20
25.6781736981131
  0
HATCH
  5
1087
330
18C7
100
AcDbEntity
  8
Structures
100
AcDbHatch
 10
0.0
 20
0.0
 30
0.0
210
0.0
220
0.0
230
1.0
  2
AR-CONC
 70
     0
 71
     0
 91
        1
 92
        0
 93
        4
 72
     1
 10
43.97747114741053
 20
24.97844661758484
 11
44.97708126245089
 21
25.00636825630841
 72
     1
 10
44.97708126245089
 20
25.00636825630841
 11
44.95753611534439
 21
25.70609533683666
 72
     1
 10
44.95753611534439
 20
25.70609533683666
 11
43.95792600030403
 21
25.6781736981131
 72
     1
 10
43.95792600030403
 20
25.6781736981131
 11
43.97747114741053
 21
24.97844661758484
 97
        0
 75
     0
 76
     0
 52
1.6
 41
0.001
 77
     0
 78
    13
 53
50.0
 43
0.0
 44
0.0
 45
0.1821846689960039
 46
-0.0159390855389031
 79
     2
 49
0.01905
 49
-0.20955
 53
355.0
 43
0.0
 44
0.0
 45
-0.035242825975667
 46
0.19105664288218
 79
     2
 49
0.01524
 49
-0.16764
 53
100.451
 43
0.015182
 44
-0.00132825
 45
0.1469425016659593
 46
0.1751166878202919
 79
     2
 49
0.01619
 49
-0.17809
 53
46.1842
 43
0.0
 44
0.0508
 45
0.2710790408921299
 46
-0.0420423279327272
 79
     2
 49
0.028575
 49
-0.3143250000000001
 53
96.63560000000001
 43
0.0225899
 44
0.0472965
 45
0.2374042344662372
 46
0.2474255558900492
 79
     2
 49
0.024285
 49
-0.267135
 53
351.1840000000001
 43
0.0
 44
0.0508
 45
0.2374046058139337
 46
0.2474251178605979
 79
     2
 49
0.02286
 49
-0.25146
 53
21.0
 43
0.0254
 44
0.0381
 45
0.1516148798353833
 46
-0.1022655185167625
 79
     2
 49
0.01905
 49
-0.20955
 53
325.9999999999999
 43
0.0254
 44
0.0381
 45
0.0618020283476473
 46
0.1841879661223192
 79
     2
 49
0.01524
 49
-0.16764
 53
71.4514
 43
0.0380345
 44
0.0295779
 45
0.2134164907701244
 46
0.0819228577160574
 79
     2
 49
0.01619
 49
-0.17809
 53
37.5
 43
0.0
 44
0.0
 45
0.0030886032505918
 46
0.0845550388731531
 79
     6
 49
0.0
 49
-0.165608
 49
0.0
 49
-0.17018
 49
0.0
 49
-0.168275
 53
7.5
 43
0.0
 44
0.0
 45
0.0668196625103057
 46
0.1001805748181195
 79
     6
 49
0.0
 49
-0.097028
 49
0.0
 49
-0.161798
 49
0.0
 49
-0.064135
 53
327.5
 43
-0.056642
 44
0.0
 45
0.1355905951668714
 46
-0.0057287439926736
 79
     6
 49
0.0
 49
-0.0635
 49
0.0
 49
-0.19812
 49
0.0
 49
-0.26289
 53
317.5
 43
-0.082042
 44
0.0
 45
0.148129181386018
 46
0.025426491033333
 79
     6
 49
0.0
 49
-0.08255
 49
0.0
 49
-0.131572
 49
0.0
 49
-0.18669
 98
        0
1001
ACAD
1010
0.0
1020
0.0
1030
0.0
  0
MTEXT
  5
BEC
330
18C7
100
AcDbEntity
  8
Structures
 62
    30
420
 16744192
100
AcDbMText
 10
44.46618453508027
 20
25.31716000525458
 30
0.0
 40
0.1
 41
0.0
 46
0.0
 71
     5
 72
     1
  1
Pond\P1m x 0.7m
  7
textstyle77
 73
     1
 44
1.0
  0
MTEXT
  5
5D3
330
18C7
100
AcDbEntity
  8
Structures
 62
    30
420
 16744192
100
AcDbMText
 10
30.65111430150398
 20
20.4754958502438
 30
0.0
 40
0.1
 41
0.0
 46
0.0
 71
     5
 72
     1
  1
Green Roof Shed\PBikes, Mower
  7
textstyle78
 73
     1
 44
1.0
  0
LWPOLYLINE
  5
15AE
330
18C7
100
AcDbEntity
  8
Structures
100
AcDbPolyline
 90
        4
 70
   129
 43
0.0
 10
45.71491946473989
 20
24.87846737461712
 10
47.86513720518602
 20
24.87846737461712
 10
47.86513720518602
 20
25.87846737461712
 10
45.71491946473989
 20
25.87846737461712
  0
CIRCLE
  5
1178
330
18C7
100
AcDbEntity
  8
Plants
100
AcDbCircle
 10
43.1877582760189
 20
25.31093085504696
 30
0.0
 40
0.5
1001
QCAD
1000
Name:Globe Artichoke
  0
CIRCLE
  5
15A7
330
18C7
100
AcDbEntity
  8
Trees & shrubs
100
AcDbCircle
 10
45.51417450215315
 20
21.22891347122509
 30
0.0
 40
0.5
1001
QCAD
1000
Name:Globe Artichoke
  0
CIRCLE
  5
162D
330
18C7
100
AcDbEntity
  8
Trees & shrubs
100
AcDbCircle
 10
40.29853154466164
 20
23.89556420826943
 30
0.0
 40
0.6
1001
QCAD
1000
Name:Japanese Quince 'Jet Trail'
  0
CIRCLE
  5
162F
330
18C7
100
AcDbEntity
  8
Trees & shrubs
100
AcDbCircle
 10
32.09999999999999
 20
24.2
 30
0.0
 40
0.6
1001
QCAD
1000
Name:Japanese Quince 'Jet Trail'
  0
CIRCLE
  5
1179
330
18C7
100
AcDbEntity
  8
Plants
100
AcDbCircle
 10
45.35682054346688
 20
25.56385215699323
 30
0.0
 40
0.5
1001
QCAD
1000
Name:Fennel
  0
CIRCLE
  5
117A
330
18C7
100
AcDbEntity
  8
Trees & shrubs
100
AcDbCircle
 10
42.73905925520956
 20
24.2390840378601
 30
0.0
 40
0.3
1001
QCAD
1000
Name:Dwarf Buddleia
  0
CIRCLE
  5
15B9
330
18C7
100
AcDbEntity
  8
Plants
100
AcDbCircle
 10
45.49082396668211
 20
20.35925572032004
 30
0.0
 40
0.4
1001
QCAD
1000
Name:Dwarf Buddleia
  0
CIRCLE
  5
15C1
330
18C7
100
AcDbEntity
  8
Plants
100
AcDbCircle
 10
42.26674966121717
 20
24.00433888064067
 30
0.0
 40
0.15
1001
QCAD
1000
Name:Dwarf Buddleia
  0
CIRCLE
  5
15C3
330
18C7
100
AcDbEntity
  8
Plants
100
AcDbCircle
 10
43.40652515189924
 20
24.79793104893811
 30
0.0
 40
0.25
1001
QCAD
1000
Name:Dwarf Buddleia
  0
CIRCLE
  5
15C5
330
18C7
100
AcDbEntity
  8
Plants
100
AcDbCircle
 10
41.56669946959571
 20
20.74497675457512
 30
0.0
 40
0.25
1001
QCAD
1000
Name:Dwarf Buddleia
  0
CIRCLE
  5
15DB
330
18C7
100
AcDbEntity
  8
Plants
100
AcDbCircle
 10
40.44996497544754
 20
25.26115575810732
 30
0.0
 40
0.5
1001
QCAD
1000
Name:Dwarf Buddleia
  0
CIRCLE
  5
15DF
330
18C7
100
AcDbEntity
  8
Plants
100
AcDbCircle
 10
43.8
 20
24.6
 30
0.0
 40
0.2
1001
QCAD
1000
Name:Dwarf Buddleia
  0
CIRCLE
  5
15E6
330
18C7
100
AcDbEntity
  8
Plants
100
AcDbCircle
 10
32.8
 20
25.3
 30
0.0
 40
0.25
1001
QCAD
1000
Name:Dwarf Buddleia
  0
CIRCLE
  5
15E8
330
18C7
100
AcDbEntity
  8
Plants
100
AcDbCircle
 10
36.76936375366903
 20
24.95260829075608
 30
0.0
 40
0.25
1001
QCAD
1000
Name:Dwarf Buddleia
  0
CIRCLE
  5
15EA
330
18C7
100
AcDbEntity
  8
Plants
100
AcDbCircle
 10
36.38737921561636
 20
20.75776282605512
 30
0.0
 40
0.4
1001
QCAD
1000
Name:Dwarf Buddleia
  0
CIRCLE
  5
15EE
330
18C7
100
AcDbEntity
  8
Plants
100
AcDbCircle
 10
43.49999999999999
 20
24.4
 30
0.0
 40
0.2
1001
QCAD
1000
Name:Dwarf Buddleia
  0
CIRCLE
  5
15F0
330
18C7
100
AcDbEntity
  8
Plants
100
AcDbCircle
 10
41.89555428270744
 20
23.88008825133541
 30
0.0
 40
0.15
1001
QCAD
1000
Name:Dwarf Buddleia
  0
CIRCLE
  5
15F2
330
18C7
100
AcDbEntity
  8
Plants
100
AcDbCircle
 10
41.15251897096523
 20
23.70608631124388
 30
0.0
 40
0.15
1001
QCAD
1000
Name:Dwarf Buddleia
  0
CIRCLE
  5
15F4
330
18C7
100
AcDbEntity
  8
Plants
100
AcDbCircle
 10
41.51933387169873
 20
23.82835794482171
 30
0.0
 40
0.2
1001
QCAD
1000
Name:Dwarf Buddleia
  0
CIRCLE
  5
15F6
330
18C7
100
AcDbEntity
  8
Plants
100
AcDbCircle
 10
43.2
 20
24.3
 30
0.0
 40
0.2
1001
QCAD
1000
Name:Dwarf Buddleia
  0
CIRCLE
  5
172D
330
18C7
100
AcDbEntity
  8
Plants
100
AcDbCircle
 10
43.75599781078371
 20
25.09545506933975
 30
0.0
 40
0.2
1001
QCAD
1000
Name:Dwarf Buddleia
  0
CIRCLE
  5
172F
330
18C7
100
AcDbEntity
  8
Plants
100
AcDbCircle
 10
42.94843261255067
 20
24.68931116847401
 30
0.0
 40
0.2
1001
QCAD
1000
Name:Dwarf Buddleia
  0
CIRCLE
  5
1607
330
18C7
100
AcDbEntity
  8
Plants
100
AcDbCircle
 10
36.19697595903153
 20
21.54085725572763
 30
0.0
 40
0.3
1001
QCAD
1000
Name:Dwarf Buddleia
  0
CIRCLE
  5
160D
330
18C7
100
AcDbEntity
  8
Plants
100
AcDbCircle
 10
44.87024296191258
 20
20.19556523115009
 30
0.0
 40
0.25
1001
QCAD
1000
Name:Dwarf Buddleia
  0
CIRCLE
  5
160F
330
18C7
100
AcDbEntity
  8
Plants
100
AcDbCircle
 10
31.51828412194646
 20
23.45880976982958
 30
0.0
 40
0.5
1001
QCAD
1000
Name:Dwarf Buddleia
  0
CIRCLE
  5
1613
330
18C7
100
AcDbEntity
  8
Plants
100
AcDbCircle
 10
44.80376258931656
 20
21.05849376374906
 30
0.0
 40
0.2
1001
QCAD
1000
Name:Dwarf Buddleia
  0
CIRCLE
  5
1625
330
18C7
100
AcDbEntity
  8
Plants
100
AcDbCircle
 10
43.2518533939056
 20
20.65484061443761
 30
0.0
 40
0.2
1001
QCAD
1000
Name:Dwarf Buddleia
  0
CIRCLE
  5
1626
330
18C7
100
AcDbEntity
  8
Plants
100
AcDbCircle
 10
43.05982422578656
 20
20.24334953989682
 30
0.0
 40
0.25
1001
QCAD
1000
Name:Dwarf Buddleia
  0
CIRCLE
  5
1627
330
18C7
100
AcDbEntity
  8
Plants
100
AcDbCircle
 10
42.9
 20
20.8
 30
0.0
 40
0.15
1001
QCAD
1000
Name:Dwarf Buddleia
  0
CIRCLE
  5
1628
330
18C7
100
AcDbEntity
  8
Plants
100
AcDbCircle
 10
44.4
 20
21.0
 30
0.0
 40
0.15
1001
QCAD
1000
Name:Dwarf Buddleia
  0
ELLIPSE
  5
1629
330
18C7
100
AcDbEntity
  8
Plants
100
AcDbEllipse
 10
41.42169785285277
 20
20.16105132498867
 30
0.0
 11
0.5
 21
0.0
 31
0.0
210
0.0
220
0.0
230
1.0
 40
0.7000000000000027
 41
0.0
 42
6.283185307179586
1001
QCAD
1000
reversed:1
  0
CIRCLE
  5
1634
330
18C7
100
AcDbEntity
  8
Plants
100
AcDbCircle
 10
44.7296320347657
 20
20.6582205398269
 30
0.0
 40
0.25
1001
QCAD
1000
Name:Dwarf Buddleia
  0
CIRCLE
  5
137D
330
18C7
100
AcDbEntity
  8
Plants
100
AcDbCircle
 10
45.24851607958981
 20
25.31186734339076
 30
0.0
 40
0.3
1001
QCAD
1000
Name:Dwarf Buddleia
  0
CIRCLE
  5
126C
330
18C7
100
AcDbEntity
  8
Plants
100
AcDbCircle
 10
43.74650270006305
 20
25.56976987252727
 30
0.0
 40
0.225
1001
QCAD
1000
Name:Berberis buxifolia 'Nana'
  0
CIRCLE
  5
1284
330
18C7
100
AcDbEntity
  8
Plants
100
AcDbCircle
 10
34.52786852739059
 20
20.95074717525415
 30
0.0
 40
0.3
1001
QCAD
1000
Name:Comfrey
  0
CIRCLE
  5
157B
330
18C7
100
AcDbEntity
  8
Trees & shrubs
100
AcDbCircle
 10
45.54974691361803
 20
22.65883423600651
 30
0.0
 40
0.25
1001
QCAD
1000
Name:Dwarf Buddleia
  0
CIRCLE
  5
157C
330
18C7
100
AcDbEntity
  8
Trees & shrubs
100
AcDbCircle
 10
45.17728870671939
 20
22.43535931186732
 30
0.0
 40
0.25
1001
QCAD
1000
Name:Dwarf Buddleia
  0
CIRCLE
  5
157D
330
18C7
100
AcDbEntity
  8
Trees & shrubs
100
AcDbCircle
 10
44.81837443461708
 20
22.27283209431156
 30
0.0
 40
0.25
1001
QCAD
1000
Name:Dwarf Buddleia
  0
CIRCLE
  5
157E
330
18C7
100
AcDbEntity
  8
Trees & shrubs
100
AcDbCircle
 10
44.43914426032028
 20
22.1238488115521
 30
0.0
 40
0.25
1001
QCAD
1000
Name:Dwarf Buddleia
  0
CIRCLE
  5
157F
330
18C7
100
AcDbEntity
  8
Trees & shrubs
100
AcDbCircle
 10
44.01251031423639
 20
22.00872536578344
 30
0.0
 40
0.25
1001
QCAD
1000
Name:Dwarf Buddleia
  0
CIRCLE
  5
1580
330
18C7
100
AcDbEntity
  8
Trees & shrubs
100
AcDbCircle
 10
43.59942030294882
 20
21.94777765920002
 30
0.0
 40
0.25
1001
QCAD
1000
Name:Dwarf Buddleia
  0
CIRCLE
  5
1581
330
18C7
100
AcDbEntity
  8
Trees & shrubs
100
AcDbCircle
 10
43.17278635686493
 20
21.90037388741293
 30
0.0
 40
0.25
1001
QCAD
1000
Name:Dwarf Buddleia
  0
CIRCLE
  5
1582
330
18C7
100
AcDbEntity
  8
Trees & shrubs
100
AcDbCircle
 10
42.73938044338288
 20
21.89360192001477
 30
0.0
 40
0.25
1001
QCAD
1000
Name:Dwarf Buddleia
  0
CIRCLE
  5
1583
330
18C7
100
AcDbEntity
  8
Trees & shrubs
100
AcDbCircle
 10
42.312746497299
 20
21.93423372440371
 30
0.0
 40
0.25
1001
QCAD
1000
Name:Dwarf Buddleia
  0
CIRCLE
  5
1584
330
18C7
100
AcDbEntity
  8
Trees & shrubs
100
AcDbCircle
 10
41.89965648601142
 20
21.97486552879265
 30
0.0
 40
0.25
1001
QCAD
1000
Name:Dwarf Buddleia
  0
CIRCLE
  5
1585
330
18C7
100
AcDbEntity
  8
Trees & shrubs
100
AcDbCircle
 10
41.50011040952016
 20
22.06967307236685
 30
0.0
 40
0.25
1001
QCAD
1000
Name:Dwarf Buddleia
  0
CIRCLE
  5
1586
330
18C7
100
AcDbEntity
  8
Trees & shrubs
100
AcDbCircle
 10
41.09379236563074
 20
22.20511242032999
 30
0.0
 40
0.25
1001
QCAD
1000
Name:Dwarf Buddleia
  0
CIRCLE
  5
1587
330
18C7
100
AcDbEntity
  8
Trees & shrubs
100
AcDbCircle
 10
40.70101825653764
 20
22.38795554008023
 30
0.0
 40
0.25
1001
QCAD
1000
Name:Dwarf Buddleia
  0
CIRCLE
  5
1588
330
18C7
100
AcDbEntity
  8
Trees & shrubs
100
AcDbCircle
 10
40.34210398443532
 20
22.55048275763599
 30
0.0
 40
0.25
1001
QCAD
1000
Name:Dwarf Buddleia
  0
CIRCLE
  5
1287
330
18C7
100
AcDbEntity
  8
Plants
100
AcDbCircle
 10
39.46572437171325
 20
21.52729162292025
 30
0.0
 40
0.3
1001
QCAD
1000
Name:Comfrey
  0
CIRCLE
  5
1288
330
18C7
100
AcDbEntity
  8
Plants
100
AcDbCircle
 10
30.1
 20
21.6
 30
0.0
 40
0.3
1001
QCAD
1000
Name:Comfrey
  0
CIRCLE
  5
128A
330
18C7
100
AcDbEntity
  8
Plants
100
AcDbCircle
 10
37.08370717527306
 20
20.13476158003442
 30
0.0
 40
0.3
1001
QCAD
1000
Name:Golden Shield Fern
  0
CIRCLE
  5
128B
330
18C7
100
AcDbEntity
  8
Plants
100
AcDbCircle
 10
35.80073322486385
 20
20.09540655088076
 30
0.0
 40
0.3
1001
QCAD
1000
Name:Golden Shield Fern
  0
CIRCLE
  5
128C
330
18C7
100
AcDbEntity
  8
Plants
100
AcDbCircle
 10
32.09387988114509
 20
25.18776924375298
 30
0.0
 40
0.3
1001
QCAD
1000
Name:Golden Shield Fern
  0
CIRCLE
  5
1731
330
18C7
100
AcDbEntity
  8
Plants
100
AcDbCircle
 10
36.42647818840699
 20
20.10327755671149
 30
0.0
 40
0.3
1001
QCAD
1000
Name:Golden Shield Fern
  0
CIRCLE
  5
128D
330
18C7
100
AcDbEntity
  8
Plants
100
AcDbCircle
 10
33.84544654581003
 20
25.31300806244208
 30
0.0
 40
0.3
1001
QCAD
1000
Name:Golden Shield Fern
  0
LINE
  5
126F
330
18C7
100
AcDbEntity
  8
Areas
100
AcDbLine
 10
43.74082963786042
 20
25.67094222336592
 30
0.0
 11
43.739334232979
 21
25.81001487733849
 31
0.0
  0
LINE
  5
1270
330
18C7
100
AcDbEntity
  8
Areas
100
AcDbLine
 10
43.739334232979
 20
25.81001487733849
 30
0.0
 11
45.71042840301321
 21
25.85454866717907
 31
0.0
  0
LINE
  5
1271
330
18C7
100
AcDbEntity
  8
Areas
100
AcDbLine
 10
45.71042840301321
 20
25.85454866717907
 30
0.0
 11
45.70938850455438
 21
25.36834976236818
 31
0.0
  0
LINE
  5
1272
330
18C7
100
AcDbEntity
  8
Areas
100
AcDbLine
 10
45.70938850455438
 20
25.36834976236818
 30
0.0
 11
45.0238870261235
 21
24.95763409492597
 31
0.0
  0
LINE
  5
1273
330
18C7
100
AcDbEntity
  8
Areas
100
AcDbLine
 10
45.0238870261235
 20
24.95763409492597
 30
0.0
 11
44.97708126245089
 21
25.00636825630841
 31
0.0
  0
LINE
  5
1274
330
18C7
100
AcDbEntity
  8
Areas
100
AcDbLine
 10
44.97708126245089
 20
25.00636825630841
 30
0.0
 11
44.95753611534439
 21
25.70609533683666
 31
0.0
  0
LINE
  5
1275
330
18C7
100
AcDbEntity
  8
Areas
100
AcDbLine
 10
44.95753611534439
 20
25.70609533683666
 30
0.0
 11
43.74082963786042
 21
25.67094222336592
 31
0.0
  0
HATCH
  5
1276
330
18C7
100
AcDbEntity
  8
Areas
100
AcDbHatch
 10
0.0
 20
0.0
 30
0.0
210
0.0
220
0.0
230
1.0
  2
GRAVEL
 70
     0
 71
     0
 91
        1
 92
        0
 93
        7
 72
     1
 10
45.70938850455438
 20
25.36834976236818
 11
45.0238870261235
 21
24.95763409492597
 72
     1
 10
45.0238870261235
 20
24.95763409492597
 11
44.97708126245089
 21
25.00636825630841
 72
     1
 10
44.97708126245089
 20
25.00636825630841
 11
44.95753611534439
 21
25.70609533683666
 72
     1
 10
44.95753611534439
 20
25.70609533683666
 11
43.74082963786042
 21
25.67094222336592
 72
     1
 10
43.74082963786042
 20
25.67094222336592
 11
43.739334232979
 21
25.81001487733849
 72
     1
 10
43.739334232979
 20
25.81001487733849
 11
45.71042840301321
 21
25.85454866717907
 72
     1
 10
45.71042840301321
 20
25.85454866717907
 11
45.70938850455438
 21
25.36834976236818
 97
        0
 75
     0
 76
     0
 52
0.0
 41
0.01
 77
     0
 78
    42
 53
228.0128
 43
0.1828800000000001
 44
0.254
 45
-2.0320017265896
 46
-2.286002808951257
 79
     2
 49
0.0341721
 49
-3.38305
 53
184.9697
 43
0.1600200000000001
 44
0.2285999999999998
 45
3.048004930617914
 46
0.2539982075387471
 79
     2
 49
0.0586405
 49
-5.8054
 53
132.5104
 43
0.1016
 44
0.22352
 45
2.539998151833169
 46
-2.794002729246042
 79
     2
 49
0.0413482
 49
-4.09347
 53
267.2737
 43
0.00254
 44
0.1600200000000002
 45
0.2539988970828174
 46
5.079998365336643
 79
     2
 49
0.0534005
 49
-5.28664
 53
292.8337
 43
0.0
 44
0.10668
 45
-1.27000360555019
 46
3.04800173300511
 79
     2
 49
0.0523634
 49
-5.18398
 53
357.2737
 43
0.02032
 44
0.05842
 45
-5.079998365336643
 46
0.2539988970828175
 79
     2
 49
0.0534005
 49
-5.28664
 53
37.6942
 43
0.07366
 44
0.05588
 45
-3.302002086123993
 46
-2.539997735698489
 79
     2
 49
0.0706194
 49
-6.991309999999999
 53
72.2553
 43
0.12954
 44
0.09906
 45
1.778003556546719
 46
5.58800162060364
 79
     2
 49
0.066672
 49
-6.60053
 53
121.4296
 43
0.14986
 44
0.16256
 45
-2.032000523526448
 46
3.301996115997269
 79
     2
 49
0.0535813
 49
-5.304550000000001
 53
175.2364
 43
0.12192
 44
0.20828
 45
2.793997805305445
 46
-0.2539976162721155
 79
     2
 49
0.0611713
 49
-2.99739
 53
222.3974
 43
0.06096
 44
0.21336
 45
-3.048000091723974
 46
-2.793996365063697
 79
     2
 49
0.0791078
 49
-7.83168
 53
138.8141
 43
0.254
 44
0.1574800000000002
 45
-1.777998867422473
 46
1.5239976557124
 79
     2
 49
0.0270005
 49
-2.67306
 53
171.4692
 43
0.23368
 44
0.17526
 45
3.30199495955914
 46
-0.5080012800045697
 79
     2
 49
0.0513682
 49
-5.08546
 53
225.0
 43
0.18288
 44
0.18288
 45
-0.0000000000000001
 46
-0.2539998268700199
 79
     2
 49
0.0359209
 49
-0.323289
 53
203.1986
 43
0.1651
 44
0.21336
 45
1.270004282559083
 46
0.5080022274306265
 79
     2
 49
0.0193441
 49
-1.91506
 53
291.8014
 43
0.1473200000000001
 44
0.20574
 45
-0.254000178189451
 46
0.7620004908731863
 79
     2
 49
0.0273566
 49
-1.34048
 53
30.9638
 43
0.15748
 44
0.18034
 45
0.7619991954808225
 46
0.5080003958660553
 79
     2
 49
0.044432
 49
-1.43663
 53
161.5651
 43
0.19558
 44
0.2032
 45
0.5080002318180975
 46
-0.2539996222465079
 79
     2
 49
0.0321287
 49
-0.7710899999999999
 53
16.3895
 43
0.0
 44
0.2057400000000001
 45
2.540001401396935
 46
0.7619984149967804
 79
     2
 49
0.0450088
 49
-4.455880000000001
 53
70.3462
 43
0.04318
 44
0.21844
 45
-1.015997168867651
 46
-2.7939960488545
 79
     2
 49
0.0377599
 49
-3.73822
 53
293.1986
 43
0.1955800000000001
 44
0.254
 45
-0.5080022274306265
 46
1.270004282559083
 79
     2
 49
0.038688
 49
-1.89572
 53
343.6105
 43
0.2108200000000001
 44
0.21844
 45
-2.540001401396935
 46
0.7619984149967809
 79
     2
 49
0.0450088
 49
-4.455880000000001
 53
339.4440000000001
 43
0.0
 44
0.04826
 45
-1.270001576425591
 46
0.5079993836050137
 79
     2
 49
0.0434035
 49
-2.12677
 53
294.7751
 43
0.04064
 44
0.03302
 45
-1.269997040362684
 46
2.793998702615667
 79
     2
 49
0.0363672
 49
-3.600359999999999
 53
66.80140000000002
 43
0.19812
 44
0.0
 45
0.5080022274306267
 46
1.270004282559083
 79
     2
 49
0.038688
 49
-1.89572
 53
17.354
 43
0.21336
 44
0.03556
 45
-3.302000178185996
 46
-1.015998467560563
 79
     2
 49
0.0425783
 49
-4.21524
 53
69.444
 43
0.07366
 44
0.0
 45
-0.5079993836050147
 46
-1.270001576425591
 79
     2
 49
0.0217018
 49
-2.14848
 53
101.3099
 43
0.18288
 44
0.0
 45
-0.2539987462887349
 46
1.015996746090262
 79
     2
 49
0.0129515
 49
-1.2822
 53
165.9638
 43
0.18034
 44
0.0127000000000002
 45
0.7620005354697175
 46
-0.2539995604123642
 79
     2
 49
0.0523634
 49
-0.994905
 53
186.009
 43
0.12954
 44
0.0253999999999998
 45
2.539996254442797
 46
0.2539994068547849
 79
     2
 49
0.0485267
 49
-4.80414
 53
303.6901
 43
0.15748
 44
0.15748
 45
-0.2540000871307232
 46
0.507999509923184
 79
     2
 49
0.0366324
 49
-0.879178
 53
353.1571999999999
 43
0.1778
 44
0.127
 45
4.318001785664347
 46
-0.5080022751654883
 79
     2
 49
0.0639557
 49
-6.3316
 53
60.94540000000001
 43
0.2413
 44
0.1193800000000001
 45
-1.015997636582909
 46
-1.777995761083412
 79
     2
 49
0.0261508
 49
-2.58894
 53
90.0
 43
0.254
 44
0.14224
 45
-0.254
 46
0.254
 79
     2
 49
0.01524
 49
-0.23876
 53
120.2564
 43
0.12446
 44
0.0330200000000005
 45
1.015997846683611
 46
-1.777999103247756
 79
     2
 49
0.0352867
 49
-3.49339
 53
48.01280000000001
 43
0.10668
 44
0.0635
 45
2.032001726589601
 46
2.286002808951256
 79
     2
 49
0.0683443
 49
-3.34888
 53
0.0
 43
0.1524
 44
0.1143
 45
0.254
 46
0.254
 79
     2
 49
0.06604
 49
-0.18796
 53
325.3047999999999
 43
0.21844
 44
0.1143000000000001
 45
-2.539995599095366
 46
1.778000169048478
 79
     2
 49
0.040161
 49
-3.97593
 53
254.0546
 43
0.25146
 44
0.0914400000000002
 45
-0.2540006479701474
 46
-1.016002420320363
 79
     2
 49
0.0369829
 49
-1.81217
 53
207.646
 43
0.2413
 44
0.0558800000000001
 45
-4.825998304902273
 46
-2.540001597472338
 79
     2
 49
0.0602145
 49
-5.96125
 53
175.4261
 43
0.18796
 44
0.0279399999999998
 45
-3.30200076047475
 46
0.2539987711219462
 79
     2
 49
0.0637029
 49
-6.30658
 53
175.4261
 43
0.18796
 44
0.0279399999999998
 45
-3.30200076047475
 46
0.2539987711219462
 79
     2
 49
0.0637029
 49
-6.30658
 98
        0
1001
ACAD
1010
0.0
1020
0.0
1030
0.0
  0
LINE
  5
1277
330
18C7
100
AcDbEntity
  8
Areas
100
AcDbLine
 10
43.97747114741053
 20
24.97844661758484
 30
0.0
 11
44.97708126245089
 21
25.0063682563084
 31
0.0
  0
LINE
  5
1278
330
18C7
100
AcDbEntity
  8
Areas
100
AcDbLine
 10
44.97708126245089
 20
25.0063682563084
 30
0.0
 11
45.02298987626116
 21
24.95856820736736
 31
0.0
  0
LINE
  5
1279
330
18C7
100
AcDbEntity
  8
Areas
100
AcDbLine
 10
45.02298987626116
 20
24.95856820736736
 30
0.0
 11
43.9873385784754
 21
24.43607930056013
 31
0.0
  0
LINE
  5
127A
330
18C7
100
AcDbEntity
  8
Areas
100
AcDbLine
 10
43.9873385784754
 20
24.43607930056013
 30
0.0
 11
43.97747114741053
 21
24.97844661758484
 31
0.0
  0
HATCH
  5
127B
330
18C7
100
AcDbEntity
  8
Areas
100
AcDbHatch
 10
0.0
 20
0.0
 30
0.0
210
0.0
220
0.0
230
1.0
  2
TRANS
 70
     0
 71
     0
 91
        1
 92
        0
 93
        4
 72
     1
 10
43.9873385784754
 20
24.43607930056013
 11
43.97747114741053
 21
24.97844661758484
 72
     1
 10
43.97747114741053
 20
24.97844661758484
 11
44.97708126245089
 21
25.0063682563084
 72
     1
 10
44.97708126245089
 20
25.0063682563084
 11
45.0238870261235
 21
24.95763409492597
 72
     1
 10
45.0238870261235
 20
24.95763409492597
 11
43.9873385784754
 21
24.43607930056013
 97
        0
 75
     0
 76
     0
 52
0.0
 41
0.01
 77
     0
 78
     2
 53
0.0
 43
0.0
 44
0.0
 45
0.0
 46
0.0635
 79
     0
 53
0.0
 43
0.0
 44
0.03175
 45
0.0
 46
0.0635
 79
     2
 49
0.03175
 49
-0.03175
 98
        0
1001
ACAD
1010
0.0
1020
0.0
1030
0.0
  0
MTEXT
  5
126E
330
18C7
100
AcDbEntity
  8
Plants
100
AcDbMText
 10
44.46424483029655
 20
25.86865203257336
 30
0.0
 40
0.05
 41
0.0
 46
0.0
 71
     5
 72
     1
  1
Jasmine
  7
textstyle79
 73
     1
 44
1.0
  0
MTEXT
  5
173D
330
18C7
100
AcDbEntity
  8
Plants
100
AcDbMText
 10
53.7835893673538
 20
26.13835462621946
 30
0.0
 40
0.05
 41
0.0
 46
0.0
 71
     5
 72
     1
  1
Ivy
  7
textstyle80
 73
     1
 44
1.0
  0
MTEXT
  5
173E
330
18C7
100
AcDbEntity
  8
Plants
100
AcDbMText
 10
51.75702575410373
 20
26.09755133199295
 30
0.0
 40
0.05
 41
0.0
 46
0.0
 71
     5
 72
     1
  1
Pyracantha
  7
textstyle81
 73
     1
 44
1.0
  0
MTEXT
  5
173F
330
18C7
100
AcDbEntity
  8
Plants
100
AcDbMText
 10
49.98208245525048
 20
26.07714968487969
 30
0.0
 40
0.05
 41
0.0
 46
0.0
 71
     5
 72
     1
  1
Pyracantha
  7
textstyle82
 73
     1
 44
1.0
  0
MTEXT
  5
174A
330
18C7
100
AcDbEntity
  8
Plants
100
AcDbMText
 10
47.34346942860273
 20
25.99554309642668
 30
0.0
 40
0.05
 41
0.0
 46
0.0
 71
     5
 72
     1
  1
Clematis
  7
textstyle83
 73
     1
 44
1.0
  0
MTEXT
  5
15F7
330
18C7
100
AcDbEntity
  8
Plants
100
AcDbMText
 10
43.02440680709096
 20
19.95866254928386
 30
0.0
 40
0.05
 41
0.0
 46
0.0
 71
     5
 72
     1
  1
Thornless bramble
  7
textstyle84
 73
     1
 44
1.0
  0
MTEXT
  5
15FB
330
18C7
100
AcDbEntity
  8
Plants
100
AcDbMText
 10
29.51933300003502
 20
22.99794140452363
 30
0.0
 40
0.05
 41
0.0
 46
0.0
 71
     5
 72
     1
  1
Common Honeysuckle
  7
textstyle85
 11
6.123233995736766E-17
 21
1.0
 31
0.0
 73
     1
 44
1.0
  0
MTEXT
  5
127D
330
18C7
100
AcDbEntity
  8
Ground cover
100
AcDbMText
 10
41.67010115268467
 20
24.29352320579243
 30
0.0
 40
0.1
 41
0.0
 46
0.0
 71
     5
 72
     1
  1
Oregano
  7
textstyle86
 73
     1
 44
1.0
  0
MTEXT
  5
127E
330
18C7
100
AcDbEntity
  8
Ground cover
100
AcDbMText
 10
40.37678267972528
 20
25.05351447340773
 30
0.0
 40
0.1
 41
0.0
 46
0.0
 71
     5
 72
     1
  1
Dwarf Comfrey
  7
textstyle87
 73
     1
 44
1.0
  0
MTEXT
  5
127F
330
18C7
100
AcDbEntity
  8
Ground cover
100
AcDbMText
 10
32.84353590424023
 20
24.52018726806366
 30
0.0
 40
0.1
 41
0.0
 46
0.0
 71
     5
 72
     1
  1
Lungwort
  7
textstyle88
 73
     1
 44
1.0
  0
MTEXT
  5
15CD
330
18C7
100
AcDbEntity
  8
Ground cover
100
AcDbMText
 10
41.52948595094654
 20
20.36452676207695
 30
0.0
 40
0.1
 41
0.0
 46
0.0
 71
     5
 72
     1
  1
Lungwort
  7
textstyle89
 73
     1
 44
1.0
  0
MTEXT
  5
15CE
330
18C7
100
AcDbEntity
  8
Ground cover
100
AcDbMText
 10
45.15709344679128
 20
20.29431500409286
 30
0.0
 40
0.1
 41
0.0
 46
0.0
 71
     5
 72
     1
  1
Beach Strawberry
  7
textstyle90
 73
     1
 44
1.0
  0
MTEXT
  5
1280
330
18C7
100
AcDbEntity
  8
Ground cover
100
AcDbMText
 10
32.03243034053199
 20
23.68843413638566
 30
0.0
 40
0.1
 41
0.0
 46
0.0
 71
     5
 72
     1
  1
Wood Betony
  7
textstyle91
 73
     1
 44
1.0
  0
MTEXT
  5
1281
330
18C7
100
AcDbEntity
  8
Ground cover
100
AcDbMText
 10
35.83016825416704
 20
21.12022633399518
 30
0.0
 40
0.1
 41
0.0
 46
0.0
 71
     5
 72
     1
  1
Nepalese Raspberry
  7
textstyle92
 73
     1
 44
1.0
  0
MTEXT
  5
15CC
330
18C7
100
AcDbEntity
  8
Ground cover
100
AcDbMText
 10
38.41676468031849
 20
20.44644047972506
 30
0.0
 40
0.1
 41
0.0
 46
0.0
 71
     5
 72
     1
  1
Geranium macrorrhizum 'Spessart'
  7
textstyle93
 73
     1
 44
1.0
  0
MTEXT
  5
1282
330
18C7
100
AcDbEntity
  8
Ground cover
100
AcDbMText
 10
30.64666346341236
 20
24.58893420078645
 30
0.0
 40
0.1
 41
0.0
 46
0.0
 71
     5
 72
     1
  1
Nepalese Raspberry
  7
textstyle94
 73
     1
 44
1.0
  0
MTEXT
  5
1283
330
18C7
100
AcDbEntity
  8
Ground cover
100
AcDbMText
 10
37.4
 20
25.3
 30
0.0
 40
0.1
 41
0.0
 46
0.0
 71
     5
 72
     1
  1
Dwarf Comfrey
  7
textstyle95
 73
     1
 44
1.0
  0
HATCH
  5
156B
330
18C7
100
AcDbEntity
  8
Plants
100
AcDbHatch
 10
0.0
 20
0.0
 30
0.0
210
0.0
220
0.0
230
1.0
  2
GRASS
 70
     0
 71
     0
 91
        1
 92
        0
 93
        4
 72
     2
 10
42.93031408300571
 20
26.87559639145633
 40
5.178513672833379
 50
236.8271665688901
 51
302.3331878059457
 73
     1
 72
     1
 10
45.70000000000001
 20
22.49999999999999
 11
45.70938850455438
 21
25.36834976236818
 72
     2
 10
38.45597276716283
 20
36.73831640887997
 40
13.48659265352928
 50
57.46435565404354
 51
88.44665887238138
 73
     0
 72
     2
 10
37.85987785644203
 20
20.04889750667578
 40
3.348836112193444
 50
286.6885813635344
 51
311.910705613637
 73
     0
 97
        0
 75
     0
 76
     0
 52
0.0
 41
0.01
 77
     0
 78
     3
 53
90.0
 43
0.0
 44
0.0
 45
-0.179605
 46
0.179605
 79
     2
 49
0.047625
 49
-0.311585
 53
45.0
 43
0.0
 44
0.0
 45
-0.179605122421383
 46
0.1796051224213831
 79
     2
 49
0.047625
 49
-0.206375
 53
135.0
 43
0.0
 44
0.0
 45
-0.1796051224213831
 46
-0.179605122421383
 79
     2
 49
0.047625
 49
-0.206375
 98
        0
1001
ACAD
1010
0.0
1020
0.0
1030
0.0
  0
HATCH
  5
158A
330
18C7
100
AcDbEntity
  8
Areas
100
AcDbHatch
 10
0.0
 20
0.0
 30
0.0
210
0.0
220
0.0
230
1.0
  2
AR-B88
 70
     0
 71
     0
 91
        1
 92
        0
 93
       10
 72
     1
 10
51.43008539580151
 20
24.70778363805301
 11
53.97630359300763
 21
24.77237028907206
 72
     1
 10
53.97630359300763
 20
24.77237028907206
 11
54.26054569624473
 21
24.27535158919937
 72
     1
 10
54.26054569624473
 20
24.27535158919937
 11
56.05551481435215
 21
24.31381521315881
 72
     1
 10
56.05551481435215
 20
24.31381521315881
 11
56.06324480713651
 21
26.09850578346878
 72
     1
 10
56.06324480713651
 20
26.09850578346878
 11
45.71042840301321
 21
25.85454866717907
 72
     1
 10
45.71042840301321
 20
25.85454866717907
 11
45.70112175328065
 21
19.94834247737946
 72
     1
 10
45.70112175328065
 20
19.94834247737946
 11
47.40133741098401
 21
19.97662133926866
 72
     1
 10
47.40133741098401
 20
19.97662133926866
 11
47.37655009486338
 21
24.08056287734499
 72
     1
 10
47.37655009486338
 20
24.08056287734499
 11
51.07611447366052
 21
24.19571091397319
 72
     1
 10
51.07611447366052
 20
24.19571091397319
 11
51.43008539580151
 21
24.70778363805301
 97
        0
 75
     0
 76
     0
 52
0.0
 41
0.0025
 77
     0
 78
     2
 53
0.0
 43
0.0
 44
0.0
 45
0.0
 46
0.508
 79
     0
 53
90.0
 43
0.0
 44
0.0
 45
-0.2539999999999999
 46
0.508
 79
     2
 49
0.508
 49
-0.508
 98
        0
1001
ACAD
1010
0.0
1020
0.0
1030
0.0
  0
HATCH
  5
1745
330
18C7
100
AcDbEntity
  8
Areas
100
AcDbHatch
 10
0.0
 20
0.0
 30
0.0
210
0.0
220
0.0
230
1.0
  2
AR-B88
 70
     0
 71
     0
 91
        1
 92
        0
 93
       10
 72
     1
 10
51.43008539580151
 20
24.70778363805301
 11
53.97630359300763
 21
24.77237028907206
 72
     1
 10
53.97630359300763
 20
24.77237028907206
 11
54.26054569624473
 21
24.27535158919937
 72
     1
 10
54.26054569624473
 20
24.27535158919937
 11
56.05551481435215
 21
24.31381521315881
 72
     1
 10
56.05551481435215
 20
24.31381521315881
 11
56.06324480713651
 21
26.09850578346878
 72
     1
 10
56.06324480713651
 20
26.09850578346878
 11
45.71042840301321
 21
25.85454866717907
 72
     1
 10
45.71042840301321
 20
25.85454866717907
 11
45.70112175328065
 21
19.94834247737946
 72
     1
 10
45.70112175328065
 20
19.94834247737946
 11
47.40133741098401
 21
19.97662133926866
 72
     1
 10
47.40133741098401
 20
19.97662133926866
 11
47.37655009486338
 21
24.08056287734499
 72
     1
 10
47.37655009486338
 20
24.08056287734499
 11
51.07611447366052
 21
24.19571091397319
 72
     1
 10
51.07611447366052
 20
24.19571091397319
 11
51.43008539580151
 21
24.70778363805301
 97
        0
 75
     0
 76
     0
 52
0.0
 41
0.0025
 77
     0
 78
     2
 53
0.0
 43
0.0
 44
0.0
 45
0.0
 46
0.508
 79
     0
 53
90.0
 43
0.0
 44
0.0
 45
-0.2539999999999999
 46
0.508
 79
     2
 49
0.508
 49
-0.508
 98
        0
1001
ACAD
1010
0.0
1020
0.0
1030
0.0
  0
MTEXT
  5
C4F
330
18C7
100
AcDbEntity
  8
Structures
 62
    30
420
 16744192
100
AcDbMText
 10
50.62048509234693
 20
24.55507585904703
 30
0.0
 40
0.1
 41
0.0
 46
0.0
 71
     5
 72
     1
  1
Water\Pbutt
  7
textstyle96
 73
     1
 44
1.0
  0
CIRCLE
  5
C50
330
18C7
100
AcDbEntity
  8
Structures
100
AcDbCircle
 10
50.62048509234693
 20
24.55507585904703
 30
0.0
 40
0.3
  0
LWPOLYLINE
  5
F87
330
18C7
100
AcDbEntity
  8
Structures
100
AcDbPolyline
 90
        4
 70
   129
 43
0.0
 10
54.28957988845821
 20
24.29895912127538
 10
55.78899506101875
 20
24.34084157936073
 10
55.77551327925172
 20
24.82349682594222
 10
54.27609810669119
 20
24.78161436785686
  0
LWPOLYLINE
  5
1741
330
18C7
100
AcDbEntity
  8
Structures
100
AcDbPolyline
 90
        4
 70
   129
 43
0.0
 10
54.28957988845821
 20
24.29895912127538
 10
55.78899506101875
 20
24.34084157936073
 10
55.77551327925172
 20
24.82349682594222
 10
54.27609810669119
 20
24.78161436785686
  0
CIRCLE
  5
1614
330
18C7
100
AcDbEntity
  8
Trees & shrubs
100
AcDbCircle
 10
43.97367893344419
 20
20.5115075474872
 30
0.0
 40
0.5
  0
CIRCLE
  5
1617
330
18C7
100
AcDbEntity
  8
Trees & shrubs
100
AcDbCircle
 10
40.7908542563104
 20
20.6582335077806
 30
0.0
 40
0.5
  0
CIRCLE
  5
1619
330
18C7
100
AcDbEntity
  8
Trees & shrubs
100
AcDbCircle
 10
42.32583353322599
 20
20.41557134267997
 30
0.0
 40
0.5
  0
INSERT
  5
15A4
330
18C7
100
AcDbEntity
  8
Structures
100
AcDbBlockReference
  2
A$C31D61DB3
 10
43.65218958109632
 20
22.66112049875732
 30
0.0
 41
1000.0
 42
1000.0
 43
1000.0
 50
340.0000000000001
  0
LWPOLYLINE
  5
15AF
330
18C7
100
AcDbEntity
  8
Buildings
100
AcDbPolyline
 90
        4
 70
   129
 43
0.0
 10
47.29023267548808
 20
20.35521814402576
 10
47.49023267548808
 20
20.35521814402576
 10
47.49023267548808
 20
21.15521814402575
 10
47.29023267548808
 20
21.15521814402575
  0
LWPOLYLINE
  5
15AC
330
18C7
100
AcDbEntity
  8
Buildings
100
AcDbPolyline
 90
        4
 70
   129
 43
0.0
 10
47.29629194374083
 20
22.93243275040283
 10
47.49629194374083
 20
22.93243275040283
 10
47.49629194374083
 20
23.73243275040283
 10
47.29629194374083
 20
23.73243275040283
  0
LWPOLYLINE
  5
15B0
330
18C7
100
AcDbEntity
  8
Structures
100
AcDbPolyline
 90
        4
 70
   129
 43
0.0
 10
33.09949399962341
 20
19.7561736200202
 10
33.79949399962341
 20
19.7561736200202
 10
33.79949399962341
 20
20.3561736200202
 10
33.09949399962341
 20
20.3561736200202
  0
LWPOLYLINE
  5
15C8
330
18C7
100
AcDbEntity
  8
Structures
100
AcDbPolyline
 90
        4
 70
   129
 43
0.0
 10
46.8721195643511
 20
22.77305145887288
 10
47.3721195643511
 20
22.77305145887288
 10
47.3721195643511
 20
23.97305145887288
 10
46.8721195643511
 20
23.97305145887288
  0
LWPOLYLINE
  5
15D1
330
18C7
100
AcDbEntity
  8
Structures
100
AcDbPolyline
 90
        4
 70
   129
 43
0.0
 10
46.89888025705778
 20
20.03576177785938
 10
47.39888025705778
 20
20.03576177785938
 10
47.39888025705778
 20
21.23576177785938
 10
46.89888025705778
 20
21.23576177785938
  0
INSERT
  5
15D9
330
18C7
100
AcDbEntity
  8
Buildings
100
AcDbBlockReference
  2
A$C7C38114C
 10
47.37927080098515
 20
21.58741173609624
 30
0.0
 50
90.0
  0
LINE
  5
15FF
330
18C7
100
AcDbEntity
  8
Plants
100
AcDbLine
 10
46.89888025705778
 20
23.91302414841388
 30
0.0
 11
47.39888025705778
 21
23.91302414841388
 31
0.0
  0
LINE
  5
1601
330
18C7
100
AcDbEntity
  8
Structures
100
AcDbLine
 10
46.9
 20
20.9
 30
0.0
 11
47.39888025705778
 21
20.9
 31
0.0
  0
LINE
  5
1603
330
18C7
100
AcDbEntity
  8
Structures
100
AcDbLine
 10
46.9
 20
20.4
 30
0.0
 11
47.4
 21
20.4
 31
0.0
  0
INSERT
  5
173C
330
18C7
100
AcDbEntity
  8
Buildings
100
AcDbBlockReference
  2
A$C50204844
 10
56.05740826618415
 20
25.72437165933421
 30
0.0
 50
270.0
  0
INSERT
  5
DD8
330
18C7
100
AcDbEntity
  8
Areas
100
AcDbBlockReference
  2
paving
 10
29.62378324764542
 20
19.68336785855256
 30
0.0
 41
1.2
 50
1.2
  0
INSERT
  5
C48
330
18C7
100
AcDbEntity
  8
Structures
100
AcDbBlockReference
  2
table
 10
35.37287519764082
 20
23.54436714790658
 30
0.0
  0
INSERT
  5
189D
330
18C7
100
AcDbEntity
  8
Structures
100
AcDbBlockReference
  2
hedgehog
 10
36.02805543192591
 20
19.73229458596613
 30
0.0
  0
INSERT
  5
189E
330
18C7
100
AcDbEntity
  8
Structures
100
AcDbBlockReference
  2
hedgehog
 10
30.93588594573622
 20
25.45922985272828
 30
0.0
  0
INSERT
  5
189F
330
18C7
100
AcDbEntity
  8
Structures
100
AcDbBlockReference
  2
hedgehog
 10
29.52874886642813
 20
23.78251842377066
 30
0.0
 50
270.0
  0
INSERT
  5
18A0
330
18C7
100
AcDbEntity
  8
Structures
100
AcDbBlockReference
  2
hedgehog
 10
38.95344878711678
 20
25.64481672033034
 30
0.0
  0
INSERT
  5
18A6
330
18C7
100
AcDbEntity
  8
Structures
100
AcDbBlockReference
  2
logpile
 10
38.09999999999999
 20
19.9
 30
0.0
  0
INSERT
  5
18A7
330
18C7
100
AcDbEntity
  8
Structures
100
AcDbBlockReference
  2
logpile
 10
30.2
 20
24.7
 30
0.0
  0
INSERT
  5
18A8
330
18C7
100
AcDbEntity
  8
Structures
100
AcDbBlockReference
  2
logpile
 10
37.92934300521194
 20
25.23258172597584
 30
0.0
  0
VIEWPORT
  5
1995
330
18C3
100
AcDbEntity
 67
     1
  8
0
 62
   178
420
        0
100
AcDbViewport
 10
128.5
 20
97.5
 30
0.0
 40
314.226
 41
222.18
 68
     1
 69
     1
 12
128.5
 22
97.5
 13
0.0
 23
0.0
 14
10.0
 24
10.0
 15
10.0
 25
10.0
 16
0.0
 26
0.0
 36
1.0
 17
0.0
 27
0.0
 37
0.0
 42
50.0
 43
0.0
 44
0.0
 45
222.18
 50
0.0
 51
0.0
 72
   100
 90
   557152
  1

281
     0
 71
     1
 74
     0
110
0.0
120
0.0
130
0.0
111
1.0
121
0.0
131
0.0
112
0.0
122
1.0
132
0.0
 79
     0
146
0.0
170
     0
 61
     5
348
18D7
292
     1
282
     1
141
0.0
142
0.0
 63
   256
361
1996
  0
ENDSEC
  0
SECTION
  2
OBJECTS
  0
DICTIONARY
  5
18B5
330
0
100
AcDbDictionary
281
     1
  3
ACAD_DETAILVIEWSTYLE
350
1A0D
  3
ACAD_GROUP
350
18B6
  3
ACAD_IMAGE_DICT
350
19AA
  3
ACAD_LAYOUT
350
18C2
  3
ACAD_MATERIAL
350
18EB
  3
ACAD_MLEADERSTYLE
350
1913
  3
ACAD_MLINESTYLE
350
18BF
  3
ACAD_PLOTSETTINGS
350
18C1
  3
ACAD_PLOTSTYLENAME
350
18B7
  3
ACAD_SCALELIST
350
18EF
  3
ACAD_SECTIONVIEWSTYLE
350
1A0E
  3
ACAD_TABLESTYLE
350
1911
  3
ACAD_VISUALSTYLE
350
18D2
  3
AcDbVariableDictionary
350
1A06
  3
ACDB_RECOMPOSE_DATA
350
1A0A
  3
QCAD_OBJECTS
350
1917
  0
SUN
  5
1915
330
18D1
100
AcDbSun
 90
        1
290
     0
 63
     7
421
 16777215
 40
1.0
291
     1
 91
  2455826
 92
 54000000
292
     0
 70
     2
 71
   256
280
     1
  0
IMAGEDEF_REACTOR
  5
19AC
330
205
100
AcDbRasterImageDefReactor
 90
        2
330
205
  0
IMAGEDEF_REACTOR
  5
19AE
330
112
100
AcDbRasterImageDefReactor
 90
        2
330
112
  0
SUN
  5
1996
330
1995
100
AcDbSun
 90
        1
290
     0
 63
     7
421
 16777215
 40
1.0
291
     1
 91
  2455826
 92
 54000000
292
     0
 70
     2
 71
   256
280
     1
  0
DICTIONARY
  5
1A0D
102
{ACAD_REACTORS
330
18B5
102
}
330
18B5
100
AcDbDictionary
281
     1
  0
DICTIONARY
  5
18B6
102
{ACAD_REACTORS
330
18B5
102
}
330
18B5
100
AcDbDictionary
281
     1
  0
DICTIONARY
  5
19AA
102
{ACAD_REACTORS
330
18B5
102
}
330
18B5
100
AcDbDictionary
281
     1
  3
image_280
350
19AB
  3
image_281
350
19AD
  0
DICTIONARY
  5
18C2
102
{ACAD_REACTORS
330
18B5
102
}
330
18B5
100
AcDbDictionary
281
     1
  3
Layout1
350
18C6
  3
Model
350
18CA
  0
DICTIONARY
  5
18EB
102
{ACAD_REACTORS
330
18B5
102
}
330
18B5
100
AcDbDictionary
281
     1
  3
ByBlock
350
18ED
  3
ByLayer
350
18EC
  3
Global
350
18EE
  0
DICTIONARY
  5
1913
102
{ACAD_REACTORS
330
18B5
102
}
330
18B5
100
AcDbDictionary
281
     1
  3
Standard
350
1914
  0
DICTIONARY
  5
18BF
102
{ACAD_REACTORS
330
18B5
102
}
330
18B5
100
AcDbDictionary
281
     1
  3
Standard
350
18C0
  0
DICTIONARY
  5
18C1
102
{ACAD_REACTORS
330
18B5
102
}
330
18B5
100
AcDbDictionary
281
     1
  0
ACDBDICTIONARYWDFLT
  5
18B7
102
{ACAD_REACTORS
330
18B5
102
}
330
18B5
100
AcDbDictionary
281
     1
  3
Normal
350
18B8
100
AcDbDictionaryWithDefault
340
18B8
  0
DICTIONARY
  5
18EF
102
{ACAD_REACTORS
330
18B5
102
}
330
18B5
100
AcDbDictionary
281
     1
  3
A0
350
18F0
  3
A1
350
18F1
  3
A2
350
18F2
  3
A3
350
18F3
  3
A4
350
18F4
  3
A5
350
18F5
  3
A6
350
18F6
  3
A7
350
18F7
  3
A8
350
18F8
  3
A9
350
18F9
  3
B0
350
18FA
  3
B1
350
18FB
  3
B2
350
18FC
  3
B3
350
18FD
  3
B4
350
18FE
  3
B5
350
18FF
  3
B6
350
1900
  3
B7
350
1901
  3
B8
350
1902
  3
B9
350
1903
  3
C0
350
1904
  3
C1
350
1905
  3
C2
350
1906
  3
C3
350
1907
  3
C4
350
1908
  3
C5
350
1909
  3
C6
350
190A
  3
C7
350
190B
  3
C8
350
190C
  3
C9
350
190D
  3
D0
350
190E
  3
D1
350
190F
  3
D2
350
1910
  0
DICTIONARY
  5
1A0E
102
{ACAD_REACTORS
330
18B5
102
}
330
18B5
100
AcDbDictionary
281
     1
  0
DICTIONARY
  5
1911
102
{ACAD_REACTORS
330
18B5
102
}
330
18B5
100
AcDbDictionary
281
     1
  3
Standard
350
1912
  0
DICTIONARY
  5
18D2
102
{ACAD_REACTORS
330
18B5
102
}
330
18B5
100
AcDbDictionary
281
     1
  3
2dWireframe
350
18D7
  3
Basic
350
18DA
  3
Brighten
350
18DE
  3
ColorChange
350
18E2
  3
Conceptual
350
18DC
  3
Dim
350
18DD
  3
EdgeColorOff
350
18E5
  3
Facepattern
350
18E1
  3
Flat
350
18D3
  3
FlatWithEdges
350
18D4
  3
Gouraud
350
18D5
  3
GouraudWithEdges
350
18D6
  3
Hidden
350
18D9
  3
JitterOff
350
18E3
  3
Linepattern
350
18E0
  3
OverhangOff
350
18E4
  3
Realistic
350
18DB
  3
Shaded
350
18EA
  3
Shaded with edges
350
18E9
  3
Shades of Gray
350
18E6
  3
Sketchy
350
18E7
  3
Thicken
350
18DF
  3
Wireframe
350
18D8
  3
X-Ray
350
18E8
  0
DICTIONARY
  5
1A06
102
{ACAD_REACTORS
330
18B5
102
}
330
18B5
100
AcDbDictionary
281
     1
  3
CANNOSCALE
350
1A07
  3
CMLEADERSTYLE
350
1A0C
  3
CTABLESTYLE
350
1A0B
  0
XRECORD
  5
1A0A
102
{ACAD_REACTORS
330
18B5
102
}
330
18B5
100
AcDbXrecord
280
     1
 90
        1
330
1912
  0
DICTIONARY
  5
1917
102
{ACAD_REACTORS
330
18B5
102
}
330
18B5
100
AcDbDictionary
281
     1
  3
ColorSettings/BackgroundColor
350
1919
  3
ColorSettings/ColorMode
350
191A
  3
Grid/DisplayGrid00
350
191B
  3
Grid/DisplayGrid01
350
191C
  3
Grid/DisplayGrid02
350
191D
  3
Grid/DisplayGrid03
350
191E
  3
Grid/GridSpacingX00
350
191F
  3
Grid/GridSpacingX01
350
1920
  3
Grid/GridSpacingX02
350
1921
  3
Grid/GridSpacingX03
350
1922
  3
Grid/GridSpacingY00
350
1923
  3
Grid/GridSpacingY01
350
1924
  3
Grid/GridSpacingY02
350
1925
  3
Grid/GridSpacingY03
350
1926
  3
Grid/IsometricGrid00
350
1927
  3
Grid/IsometricGrid01
350
1928
  3
Grid/IsometricGrid02
350
1929
  3
Grid/IsometricGrid03
350
192A
  3
Grid/IsometricProjection00
350
192B
  3
Grid/IsometricProjection01
350
192C
  3
Grid/IsometricProjection02
350
192D
  3
Grid/IsometricProjection03
350
192E
  3
Grid/MetaGridSpacingX00
350
192F
  3
Grid/MetaGridSpacingX01
350
1930
  3
Grid/MetaGridSpacingX02
350
1931
  3
Grid/MetaGridSpacingX03
350
1932
  3
Grid/MetaGridSpacingY00
350
1933
  3
Grid/MetaGridSpacingY01
350
1934
  3
Grid/MetaGridSpacingY02
350
1935
  3
Grid/MetaGridSpacingY03
350
1936
  3
MultiPageSettings/Columns
350
1937
  3
MultiPageSettings/GlueMarginsBottom
350
1938
  3
MultiPageSettings/GlueMarginsLeft
350
1939
  3
MultiPageSettings/GlueMarginsRight
350
193A
  3
MultiPageSettings/GlueMarginsTop
350
193B
  3
MultiPageSettings/PrintCropMarks
350
193C
  3
MultiPageSettings/Rows
350
193D
  3
PageSettings/OffsetX
350
193E
  3
PageSettings/OffsetY
350
193F
  3
PageSettings/PageOrientation
350
1940
  3
PageSettings/PaperHeight
350
1941
  3
PageSettings/PaperWidth
350
1942
  3
PageSettings/Scale
350
1943
  3
PageSettings/ShowPaperBorders
350
1944
  3
QCADVersion
350
1945
  3
UnitSettings/PaperUnit
350
1946
  3
ViewportCenter
350
1947
  3
ViewportHeight
350
1948
  3
ViewportWidth
350
1949
  0
IMAGEDEF
  5
19AB
102
{ACAD_REACTORS
330
19AA
330
19AC
102
}
330
19AA
100
AcDbRasterImageDef
 90
        0
  1
/Users/fgw/Work/Green Room/creation/plan/greenroom-satellite.jpg
 10
1872.0
 20
994.0
 11
0.0005341880341880342
 21
0.0005341880341880342
280
     1
281
     3
  0
IMAGEDEF
  5
19AD
102
{ACAD_REACTORS
330
19AA
330
19AE
102
}
330
19AA
100
AcDbRasterImageDef
 90
        0
  1
/Users/fgw/Work/Green Room/creation/plan/satellite.png
 10
0.0
 20
0.0
 11
0.0
 21
0.0
280
     1
281
     3
  0
LAYOUT
  5
18C6
102
{ACAD_REACTORS
330
18C2
102
}
330
18C2
100
AcDbPlotSettings
  1

  2
none_device
  4
ISO_A4_(210.00_x_297.00_MM)
  6

 40
7.5
 41
20.0
 42
7.5
 43
20.0
 44
210.0
 45
297.0
 46
0.0
 47
0.0
 48
0.0
 49
0.0
140
0.0
141
0.0
142
1.0
143
1.0
 70
   688
 72
     1
 73
     1
 74
     5
  7

 75
     0
 76
     0
 77
     2
 78
   300
147
1.0
148
0.0
149
0.0
100
AcDbLayout
  1
Layout1
 70
     1
 71
     0
 10
-20.0
 20
-7.5
 11
277.0
 21
202.5
 12
0.0
 22
0.0
 32
0.0
 14
0.0
 24
0.0
 34
0.0
 15
0.0
 25
0.0
 35
0.0
146
0.0
 13
0.0
 23
0.0
 33
0.0
 16
1.0
 26
0.0
 36
0.0
 17
0.0
 27
1.0
 37
0.0
 76
     0
330
18C3
331
1995
  0
LAYOUT
  5
18CA
102
{ACAD_REACTORS
330
18C2
102
}
330
18C2
100
AcDbPlotSettings
  1

  2
none_device
  4
Letter_(8.50_x_11.00_Inches)
  6

 40
6.35
 41
6.35
 42
6.35000508
 43
6.35000508
 44
215.9
 45
279.4
 46
0.0
 47
0.0
 48
0.0
 49
0.0
140
0.0
141
0.0
142
1.0
143
1.0
 70
  1712
 72
     0
 73
     0
 74
     0
  7

 75
     0
 76
     0
 77
     2
 78
   300
147
1.0
148
0.0
149
0.0
100
AcDbLayout
  1
Model
 70
     1
 71
     0
 10
0.0
 20
0.0
 11
12.0
 21
9.0
 12
0.0
 22
0.0
 32
0.0
 14
1.000000000000000E+20
 24
1.000000000000000E+20
 34
1.000000000000000E+20
 15
-1.000000000000000E+20
 25
-1.000000000000000E+20
 35
-1.000000000000000E+20
146
0.0
 13
0.0
 23
0.0
 33
0.0
 16
1.0
 26
0.0
 36
0.0
 17
0.0
 27
1.0
 37
0.0
 76
     0
330
18C7
331
18D1
  0
MATERIAL
  5
18ED
102
{ACAD_REACTORS
330
18EB
102
}
330
18EB
100
AcDbMaterial
  1
ByBlock
 72
     1
 94
      127
  0
MATERIAL
  5
18EC
102
{ACAD_REACTORS
330
18EB
102
}
330
18EB
100
AcDbMaterial
  1
ByLayer
 72
     1
 94
      127
  0
MATERIAL
  5
18EE
102
{ACAD_REACTORS
330
18EB
102
}
330
18EB
100
AcDbMaterial
  1
Global
 72
     1
 94
      127
  0
MLEADERSTYLE
  5
1914
102
{ACAD_REACTORS
330
1913
102
}
330
1913
100
AcDbMLeaderStyle
179
     2
170
     2
171
     1
172
     0
 90
        2
 40
0.0
 41
0.0
173
     1
 91
-1056964608
340
18BC
 92
       -2
290
     1
 42
0.09
291
     1
 43
0.36
  3
Standard
341
0
 44
0.18
300

342
18BA
174
     1
178
     6
175
     1
176
     0
 93
-1056964608
 45
0.18
292
     0
297
     0
 46
0.18
343
0
 94
-1056964608
 47
1.0
 49
1.0
140
1.0
293
     1
141
0.0
294
     1
177
     0
142
1.0
295
     0
296
     0
143
0.125
271
     0
272
     9
273
     9
298
     0
  0
MLINESTYLE
  5
18C0
102
{ACAD_REACTORS
330
18BF
102
}
330
18BF
100
AcDbMlineStyle
  2
Standard
 70
     0
  3

 62
   256
 51
90.0
 52
90.0
 71
     2
 49
0.5
 62
   256
  6
BYLAYER
 49
-0.5
 62
   256
  6
BYLAYER
  0
ACDBPLACEHOLDER
  5
18B8
102
{ACAD_REACTORS
330
18B7
102
}
330
18B7
  0
SCALE
  5
18F0
102
{ACAD_REACTORS
330
18EF
102
}
330
18EF
100
AcDbScale
 70
     0
300
1:1
140
1.0
141
1.0
290
     1
  0
SCALE
  5
18F1
102
{ACAD_REACTORS
330
18EF
102
}
330
18EF
100
AcDbScale
 70
     0
300
1:2
140
1.0
141
2.0
290
     0
  0
SCALE
  5
18F2
102
{ACAD_REACTORS
330
18EF
102
}
330
18EF
100
AcDbScale
 70
     0
300
1:4
140
1.0
141
4.0
290
     0
  0
SCALE
  5
18F3
102
{ACAD_REACTORS
330
18EF
102
}
330
18EF
100
AcDbScale
 70
     0
300
1:5
140
1.0
141
5.0
290
     0
  0
SCALE
  5
18F4
102
{ACAD_REACTORS
330
18EF
102
}
330
18EF
100
AcDbScale
 70
     0
300
1:8
140
1.0
141
8.0
290
     0
  0
SCALE
  5
18F5
102
{ACAD_REACTORS
330
18EF
102
}
330
18EF
100
AcDbScale
 70
     0
300
1:10
140
1.0
141
10.0
290
     0
  0
SCALE
  5
18F6
102
{ACAD_REACTORS
330
18EF
102
}
330
18EF
100
AcDbScale
 70
     0
300
1:16
140
1.0
141
16.0
290
     0
  0
SCALE
  5
18F7
102
{ACAD_REACTORS
330
18EF
102
}
330
18EF
100
AcDbScale
 70
     0
300
1:20
140
1.0
141
20.0
290
     0
  0
SCALE
  5
18F8
102
{ACAD_REACTORS
330
18EF
102
}
330
18EF
100
AcDbScale
 70
     0
300
1:30
140
1.0
141
30.0
290
     0
  0
SCALE
  5
18F9
102
{ACAD_REACTORS
330
18EF
102
}
330
18EF
100
AcDbScale
 70
     0
300
1:40
140
1.0
141
40.0
290
     0
  0
SCALE
  5
18FA
102
{ACAD_REACTORS
330
18EF
102
}
330
18EF
100
AcDbScale
 70
     0
300
1:50
140
1.0
141
50.0
290
     0
  0
SCALE
  5
18FB
102
{ACAD_REACTORS
330
18EF
102
}
330
18EF
100
AcDbScale
 70
     0
300
1:100
140
1.0
141
100.0
290
     0
  0
SCALE
  5
18FC
102
{ACAD_REACTORS
330
18EF
102
}
330
18EF
100
AcDbScale
 70
     0
300
2:1
140
2.0
141
1.0
290
     0
  0
SCALE
  5
18FD
102
{ACAD_REACTORS
330
18EF
102
}
330
18EF
100
AcDbScale
 70
     0
300
4:1
140
4.0
141
1.0
290
     0
  0
SCALE
  5
18FE
102
{ACAD_REACTORS
330
18EF
102
}
330
18EF
100
AcDbScale
 70
     0
300
8:1
140
8.0
141
1.0
290
     0
  0
SCALE
  5
18FF
102
{ACAD_REACTORS
330
18EF
102
}
330
18EF
100
AcDbScale
 70
     0
300
10:1
140
10.0
141
1.0
290
     0
  0
SCALE
  5
1900
102
{ACAD_REACTORS
330
18EF
102
}
330
18EF
100
AcDbScale
 70
     0
300
100:1
140
100.0
141
1.0
290
     0
  0
SCALE
  5
1901
102
{ACAD_REACTORS
330
18EF
102
}
330
18EF
100
AcDbScale
 70
     0
300
1/128" = 1'-0"
140
0.0078125
141
12.0
290
     0
  0
SCALE
  5
1902
102
{ACAD_REACTORS
330
18EF
102
}
330
18EF
100
AcDbScale
 70
     0
300
1/64" = 1'-0"
140
0.015625
141
12.0
290
     0
  0
SCALE
  5
1903
102
{ACAD_REACTORS
330
18EF
102
}
330
18EF
100
AcDbScale
 70
     0
300
1/32" = 1'-0"
140
0.03125
141
12.0
290
     0
  0
SCALE
  5
1904
102
{ACAD_REACTORS
330
18EF
102
}
330
18EF
100
AcDbScale
 70
     0
300
1/16" = 1'-0"
140
0.0625
141
12.0
290
     0
  0
SCALE
  5
1905
102
{ACAD_REACTORS
330
18EF
102
}
330
18EF
100
AcDbScale
 70
     0
300
3/32" = 1'-0"
140
0.09375
141
12.0
290
     0
  0
SCALE
  5
1906
102
{ACAD_REACTORS
330
18EF
102
}
330
18EF
100
AcDbScale
 70
     0
300
1/8" = 1'-0"
140
0.125
141
12.0
290
     0
  0
SCALE
  5
1907
102
{ACAD_REACTORS
330
18EF
102
}
330
18EF
100
AcDbScale
 70
     0
300
3/16" = 1'-0"
140
0.1875
141
12.0
290
     0
  0
SCALE
  5
1908
102
{ACAD_REACTORS
330
18EF
102
}
330
18EF
100
AcDbScale
 70
     0
300
1/4" = 1'-0"
140
0.25
141
12.0
290
     0
  0
SCALE
  5
1909
102
{ACAD_REACTORS
330
18EF
102
}
330
18EF
100
AcDbScale
 70
     0
300
3/8" = 1'-0"
140
0.375
141
12.0
290
     0
  0
SCALE
  5
190A
102
{ACAD_REACTORS
330
18EF
102
}
330
18EF
100
AcDbScale
 70
     0
300
1/2" = 1'-0"
140
0.5
141
12.0
290
     0
  0
SCALE
  5
190B
102
{ACAD_REACTORS
330
18EF
102
}
330
18EF
100
AcDbScale
 70
     0
300
3/4" = 1'-0"
140
0.75
141
12.0
290
     0
  0
SCALE
  5
190C
102
{ACAD_REACTORS
330
18EF
102
}
330
18EF
100
AcDbScale
 70
     0
300
1" = 1'-0"
140
1.0
141
12.0
290
     0
  0
SCALE
  5
190D
102
{ACAD_REACTORS
330
18EF
102
}
330
18EF
100
AcDbScale
 70
     0
300
1-1/2" = 1'-0"
140
1.5
141
12.0
290
     0
  0
SCALE
  5
190E
102
{ACAD_REACTORS
330
18EF
102
}
330
18EF
100
AcDbScale
 70
     0
300
3" = 1'-0"
140
3.0
141
12.0
290
     0
  0
SCALE
  5
190F
102
{ACAD_REACTORS
330
18EF
102
}
330
18EF
100
AcDbScale
 70
     0
300
6" = 1'-0"
140
6.0
141
12.0
290
     0
  0
SCALE
  5
1910
102
{ACAD_REACTORS
330
18EF
102
}
330
18EF
100
AcDbScale
 70
     0
300
1'-0" = 1'-0"
140
12.0
141
12.0
290
     0
  0
TABLESTYLE
  5
1912
102
{ACAD_REACTORS
330
1911
102
}
102
{ACAD_XDICTIONARY
360
1A08
102
}
330
1911
100
AcDbTableStyle
  3
Standard
 70
     0
 71
     0
 40
0.06
 41
0.06
280
     0
281
     0
  7
Standard
140
0.18
170
     2
 62
     0
 63
   257
283
     0
 90
        4
 91
        0
  1

274
    -2
284
     1
 64
     0
275
    -2
285
     1
 65
     0
276
    -2
286
     1
 66
     0
277
    -2
287
     1
 67
     0
278
    -2
288
     1
 68
     0
279
    -2
289
     1
 69
     0
  7
Standard
140
0.25
170
     5
 62
     0
 63
   257
283
     0
 90
        4
 91
        0
  1

274
    -2
284
     1
 64
     0
275
    -2
285
     1
 65
     0
276
    -2
286
     1
 66
     0
277
    -2
287
     1
 67
     0
278
    -2
288
     1
 68
     0
279
    -2
289
     1
 69
     0
  7
Standard
140
0.18
170
     5
 62
     0
 63
   257
283
     0
 90
        4
 91
        0
  1

274
    -2
284
     1
 64
     0
275
    -2
285
     1
 65
     0
276
    -2
286
     1
 66
     0
277
    -2
287
     1
 67
     0
278
    -2
288
     1
 68
     0
279
    -2
289
     1
 69
     0
  0
VISUALSTYLE
  5
18D7
102
{ACAD_REACTORS
330
18D2
102
}
330
18D2
100
AcDbVisualStyle
  2
2dWireframe
 70
     4
177
     3
291
     0
 70
    58
 90
        0
176
     1
 90
        2
176
     1
 90
        0
176
     1
 90
        0
176
     1
 40
0.6
176
     1
 40
30.0
176
     1
 62
     7
420
 16777215
176
     1
 90
        1
176
     1
 90
        4
176
     1
 62
     7
176
     1
 62
   257
176
     1
 90
        1
176
     1
 90
        1
176
     1
 40
1.0
176
     1
 90
        0
176
     1
 62
   257
176
     1
 40
1.0
176
     1
 90
        1
176
     1
 90
        6
176
     1
 90
        2
176
     1
 62
     7
176
     1
 90
        5
176
     1
 90
        0
176
     1
 90
        0
176
     1
290
     0
176
     1
 90
        1
176
     1
 40
0.0
176
     1
 90
        0
176
     1
290
     1
176
     1
290
     1
176
     1
290
     0
176
     1
290
     0
176
     1
290
     0
176
     1
290
     0
176
     1
290
     0
176
     1
290
     0
176
     1
290
     0
176
     1
 90
       50
176
     1
 40
0.0
176
     1
 40
1.0
176
     1
 90
        0
176
     1
 62
   178
420
        0
176
     1
 90
       50
176
     1
 90
        3
176
     1
 62
     5
420
      255
176
     1
290
     0
176
     1
 90
       50
176
     1
 90
       50
176
     1
 90
       50
176
     1
290
     0
176
     1
 90
       50
176
     1
 62
   256
176
     0
 40
1.0
176
     0
 90
        2
176
     1
  1
strokes_ogs.tif
176
     1
290
     0
176
     1
 40
1.0
176
     1
 40
1.0
176
     1
  0
VISUALSTYLE
  5
18DA
102
{ACAD_REACTORS
330
18D2
102
}
330
18D2
100
AcDbVisualStyle
  2
Basic
 70
     7
177
     3
291
     1
 70
    58
 90
        1
176
     1
 90
        0
176
     1
 90
        1
176
     1
 90
        0
176
     1
 40
0.6
176
     1
 40
30.0
176
     1
 62
     7
420
 16777215
176
     1
 90
        0
176
     1
 90
        4
176
     1
 62
     7
176
     1
 62
   257
176
     1
 90
        1
176
     1
 90
        1
176
     1
 40
1.0
176
     1
 90
        8
176
     1
 62
     7
176
     1
 40
1.0
176
     1
 90
        1
176
     1
 90
        6
176
     1
 90
        2
176
     1
 62
     7
176
     1
 90
        5
176
     1
 90
        0
176
     1
 90
        0
176
     1
290
     0
176
     1
 90
        1
176
     1
 40
0.0
176
     1
 90
        0
176
     1
290
     0
176
     1
290
     1
176
     1
290
     1
176
     1
290
     0
176
     1
290
     0
176
     1
290
     0
176
     1
290
     0
176
     1
290
     0
176
     1
290
     0
176
     1
 90
       50
176
     1
 40
0.0
176
     1
 40
1.0
176
     1
 90
        0
176
     1
 62
   178
420
        0
176
     1
 90
       50
176
     1
 90
        3
176
     1
 62
     5
420
      255
176
     1
290
     0
176
     1
 90
       50
176
     1
 90
       50
176
     1
 90
       50
176
     1
290
     0
176
     1
 90
       50
176
     1
 62
   256
176
     0
 40
1.0
176
     0
 90
        2
176
     1
  1
strokes_ogs.tif
176
     1
290
     0
176
     1
 40
1.0
176
     1
 40
1.0
176
     1
  0
VISUALSTYLE
  5
18DE
102
{ACAD_REACTORS
330
18D2
102
}
330
18D2
100
AcDbVisualStyle
  2
Brighten
 70
    12
177
     3
291
     1
 70
    58
 90
        2
176
     1
 90
        2
176
     1
 90
        0
176
     1
 90
        0
176
     1
 40
0.6
176
     1
 40
30.0
176
     1
 62
     7
420
 16777215
176
     1
 90
        1
176
     1
 90
        4
176
     1
 62
     7
176
     1
 62
   257
176
     1
 90
        1
176
     1
 90
        1
176
     1
 40
1.0
176
     1
 90
        8
176
     1
 62
     7
176
     1
 40
1.0
176
     1
 90
        1
176
     1
 90
        6
176
     1
 90
        2
176
     1
 62
     7
176
     1
 90
        5
176
     1
 90
        0
176
     1
 90
        0
176
     1
290
     0
176
     1
 90
        1
176
     1
 40
50.0
176
     1
 90
        0
176
     1
290
     0
176
     1
290
     1
176
     1
290
     1
176
     1
290
     0
176
     1
290
     0
176
     1
290
     0
176
     1
290
     0
176
     1
290
     0
176
     1
290
     0
176
     1
 90
       50
176
     1
 40
0.0
176
     1
 40
1.0
176
     1
 90
        0
176
     1
 62
   178
420
        0
176
     1
 90
       50
176
     1
 90
        3
176
     1
 62
     5
420
      255
176
     1
290
     0
176
     1
 90
       50
176
     1
 90
       50
176
     1
 90
       50
176
     1
290
     0
176
     1
 90
       50
176
     1
 62
   256
176
     0
 40
1.0
176
     0
 90
        2
176
     1
  1
strokes_ogs.tif
176
     1
290
     0
176
     1
 40
1.0
176
     1
 40
1.0
176
     1
  0
VISUALSTYLE
  5
18E2
102
{ACAD_REACTORS
330
18D2
102
}
330
18D2
100
AcDbVisualStyle
  2
ColorChange
 70
    16
177
     3
291
     1
 70
    58
 90
        2
176
     1
 90
        2
176
     1
 90
        3
176
     1
 90
        0
176
     1
 40
0.6
176
     1
 40
30.0
176
     1
 62
     8
420
  8421504
176
     1
 90
        1
176
     1
 90
        4
176
     1
 62
     7
176
     1
 62
   257
176
     1
 90
        1
176
     1
 90
        1
176
     1
 40
1.0
176
     1
 90
        8
176
     1
 62
     8
420
  8421504
176
     1
 40
1.0
176
     1
 90
        1
176
     1
 90
        6
176
     1
 90
        2
176
     1
 62
     7
176
     1
 90
        5
176
     1
 90
        0
176
     1
 90
        0
176
     1
290
     0
176
     1
 90
        1
176
     1
 40
0.0
176
     1
 90
        0
176
     1
290
     0
176
     1
290
     1
176
     1
290
     1
176
     1
290
     0
176
     1
290
     0
176
     1
290
     0
176
     1
290
     0
176
     1
290
     0
176
     1
290
     0
176
     1
 90
       50
176
     1
 40
0.0
176
     1
 40
1.0
176
     1
 90
        0
176
     1
 62
   178
420
        0
176
     1
 90
       50
176
     1
 90
        3
176
     1
 62
     5
420
      255
176
     1
290
     0
176
     1
 90
       50
176
     1
 90
       50
176
     1
 90
       50
176
     1
290
     0
176
     1
 90
       50
176
     1
 62
   256
176
     0
 40
1.0
176
     0
 90
        2
176
     1
  1
strokes_ogs.tif
176
     1
290
     0
176
     1
 40
1.0
176
     1
 40
1.0
176
     1
  0
VISUALSTYLE
  5
18DC
102
{ACAD_REACTORS
330
18D2
102
}
330
18D2
100
AcDbVisualStyle
  2
Conceptual
 70
     9
177
     3
291
     0
 70
    58
 90
        3
176
     1
 90
        2
176
     1
 90
        0
176
     1
 90
        0
176
     1
 40
0.6
176
     1
 40
30.0
176
     1
 62
     7
420
 16777215
176
     1
 90
        2
176
     1
 90
        2
176
     1
 62
     7
176
     1
 62
   257
176
     1
 90
        1
176
     1
 90
        1
176
     1
 40
179.0
176
     1
 90
        8
176
     1
 62
     7
176
     1
 40
1.0
176
     1
 90
        1
176
     1
 90
        6
176
     1
 90
        2
176
     1
 62
     7
176
     1
 90
        3
176
     1
 90
        0
176
     1
 90
        0
176
     1
290
     0
176
     1
 90
        1
176
     1
 40
0.0
176
     1
 90
        0
176
     1
290
     0
176
     1
290
     1
176
     1
290
     1
176
     1
290
     0
176
     1
290
     0
176
     1
290
     0
176
     1
290
     0
176
     1
290
     0
176
     1
290
     0
176
     1
 90
       50
176
     1
 40
0.0
176
     1
 40
1.0
176
     1
 90
        0
176
     1
 62
   178
420
        0
176
     1
 90
       50
176
     1
 90
        3
176
     1
 62
     5
420
      255
176
     1
290
     0
176
     1
 90
       50
176
     1
 90
       50
176
     1
 90
       50
176
     1
290
     0
176
     1
 90
       50
176
     1
 62
   256
176
     0
 40
1.0
176
     0
 90
        2
176
     1
  1
strokes_ogs.tif
176
     1
290
     0
176
     1
 40
1.0
176
     1
 40
1.0
176
     1
  0
VISUALSTYLE
  5
18DD
102
{ACAD_REACTORS
330
18D2
102
}
330
18D2
100
AcDbVisualStyle
  2
Dim
 70
    11
177
     3
291
     1
 70
    58
 90
        2
176
     1
 90
        2
176
     1
 90
        0
176
     1
 90
        0
176
     1
 40
0.6
176
     1
 40
30.0
176
     1
 62
     7
420
 16777215
176
     1
 90
        1
176
     1
 90
        4
176
     1
 62
     7
176
     1
 62
   257
176
     1
 90
        1
176
     1
 90
        1
176
     1
 40
1.0
176
     1
 90
        8
176
     1
 62
     7
176
     1
 40
1.0
176
     1
 90
        1
176
     1
 90
        6
176
     1
 90
        2
176
     1
 62
     7
176
     1
 90
        5
176
     1
 90
        0
176
     1
 90
        0
176
     1
290
     0
176
     1
 90
        1
176
     1
 40
-50.0
176
     1
 90
        0
176
     1
290
     0
176
     1
290
     1
176
     1
290
     1
176
     1
290
     0
176
     1
290
     0
176
     1
290
     0
176
     1
290
     0
176
     1
290
     0
176
     1
290
     0
176
     1
 90
       50
176
     1
 40
0.0
176
     1
 40
1.0
176
     1
 90
        0
176
     1
 62
   178
420
        0
176
     1
 90
       50
176
     1
 90
        3
176
     1
 62
     5
420
      255
176
     1
290
     0
176
     1
 90
       50
176
     1
 90
       50
176
     1
 90
       50
176
     1
290
     0
176
     1
 90
       50
176
     1
 62
   256
176
     0
 40
1.0
176
     0
 90
        2
176
     1
  1
strokes_ogs.tif
176
     1
290
     0
176
     1
 40
1.0
176
     1
 40
1.0
176
     1
  0
VISUALSTYLE
  5
18E5
102
{ACAD_REACTORS
330
18D2
102
}
330
18D2
100
AcDbVisualStyle
  2
EdgeColorOff
 70
    22
177
     3
291
     1
 70
    58
 90
        2
176
     0
 90
        2
176
     0
 90
        0
176
     0
 90
        0
176
     0
 40
0.6
176
     0
 40
30.0
176
     0
 62
     7
420
 16777215
176
     0
 90
        1
176
     0
 90
        4
176
     0
 62
     7
176
     0
 62
   257
176
     0
 90
        1
176
     0
 90
        1
176
     0
 40
1.0
176
     0
 90
        8
176
     2
 62
     7
176
     0
 40
1.0
176
     0
 90
        1
176
     0
 90
        6
176
     0
 90
        2
176
     0
 62
     7
176
     0
 90
        5
176
     0
 90
        0
176
     0
 90
        0
176
     0
290
     0
176
     0
 90
        1
176
     0
 40
0.0
176
     0
 90
        0
176
     0
290
     0
176
     0
290
     1
176
     0
290
     1
176
     0
290
     0
176
     0
290
     0
176
     0
290
     0
176
     0
290
     0
176
     0
290
     0
176
     0
290
     0
176
     0
 90
       50
176
     0
 40
0.0
176
     0
 40
1.0
176
     0
 90
        0
176
     0
 62
   178
420
        0
176
     0
 90
       50
176
     0
 90
        3
176
     0
 62
     5
420
      255
176
     0
290
     0
176
     0
 90
       50
176
     0
 90
       50
176
     0
 90
       50
176
     0
290
     0
176
     0
 90
       50
176
     0
 62
   256
176
     0
 40
1.0
176
     0
 90
        2
176
     0
  1
strokes_ogs.tif
176
     0
290
     0
176
     0
 40
1.0
176
     0
 40
1.0
176
     0
  0
VISUALSTYLE
  5
18E1
102
{ACAD_REACTORS
330
18D2
102
}
330
18D2
100
AcDbVisualStyle
  2
Facepattern
 70
    15
177
     3
291
     1
 70
    58
 90
        2
176
     1
 90
        2
176
     1
 90
        0
176
     1
 90
        0
176
     1
 40
0.6
176
     1
 40
30.0
176
     1
 62
     7
420
 16777215
176
     1
 90
        1
176
     1
 90
        4
176
     1
 62
     7
176
     1
 62
   257
176
     1
 90
        1
176
     1
 90
        1
176
     1
 40
1.0
176
     1
 90
        8
176
     1
 62
     7
176
     1
 40
1.0
176
     1
 90
        1
176
     1
 90
        6
176
     1
 90
        2
176
     1
 62
     7
176
     1
 90
        5
176
     1
 90
        0
176
     1
 90
        0
176
     1
290
     0
176
     1
 90
        1
176
     1
 40
0.0
176
     1
 90
        0
176
     1
290
     0
176
     1
290
     1
176
     1
290
     1
176
     1
290
     0
176
     1
290
     0
176
     1
290
     0
176
     1
290
     0
176
     1
290
     0
176
     1
290
     0
176
     1
 90
       50
176
     1
 40
0.0
176
     1
 40
1.0
176
     1
 90
        0
176
     1
 62
   178
420
        0
176
     1
 90
       50
176
     1
 90
        3
176
     1
 62
     5
420
      255
176
     1
290
     0
176
     1
 90
       50
176
     1
 90
       50
176
     1
 90
       50
176
     1
290
     0
176
     1
 90
       50
176
     1
 62
   256
176
     0
 40
1.0
176
     0
 90
        2
176
     1
  1
strokes_ogs.tif
176
     1
290
     0
176
     1
 40
1.0
176
     1
 40
1.0
176
     1
  0
VISUALSTYLE
  5
18D3
102
{ACAD_REACTORS
330
18D2
102
}
330
18D2
100
AcDbVisualStyle
  2
Flat
 70
     0
177
     3
291
     1
 70
    58
 90
        2
176
     1
 90
        1
176
     1
 90
        1
176
     1
 90
        2
176
     1
 40
0.6
176
     1
 40
30.0
176
     1
 62
     7
420
 16777215
176
     1
 90
        0
176
     1
 90
        0
176
     1
 62
     7
176
     1
 62
   257
176
     1
 90
        1
176
     1
 90
        1
176
     1
 40
1.0
176
     1
 90
        8
176
     1
 62
     7
176
     1
 40
1.0
176
     1
 90
        1
176
     1
 90
        6
176
     1
 90
        2
176
     1
 62
     7
176
     1
 90
        5
176
     1
 90
        0
176
     1
 90
        0
176
     1
290
     0
176
     1
 90
       13
176
     1
 40
0.0
176
     1
 90
        0
176
     1
290
     0
176
     1
290
     1
176
     1
290
     1
176
     1
290
     0
176
     1
290
     0
176
     1
290
     0
176
     1
290
     0
176
     1
290
     0
176
     1
290
     0
176
     1
 90
       50
176
     1
 40
0.0
176
     1
 40
1.0
176
     1
 90
        0
176
     1
 62
   178
420
        0
176
     1
 90
       50
176
     1
 90
        3
176
     1
 62
     5
420
      255
176
     1
290
     0
176
     1
 90
       50
176
     1
 90
       50
176
     1
 90
       50
176
     1
290
     0
176
     1
 90
       50
176
     1
 62
   256
176
     0
 40
1.0
176
     0
 90
        2
176
     1
  1
strokes_ogs.tif
176
     1
290
     0
176
     1
 40
1.0
176
     1
 40
1.0
176
     1
  0
VISUALSTYLE
  5
18D4
102
{ACAD_REACTORS
330
18D2
102
}
330
18D2
100
AcDbVisualStyle
  2
FlatWithEdges
 70
     1
177
     3
291
     1
 70
    58
 90
        2
176
     1
 90
        1
176
     1
 90
        1
176
     1
 90
        2
176
     1
 40
0.6
176
     1
 40
30.0
176
     1
 62
     7
420
 16777215
176
     1
 90
        1
176
     1
 90
        0
176
     1
 62
     7
176
     1
 62
   257
176
     1
 90
        1
176
     1
 90
        1
176
     1
 40
1.0
176
     1
 90
        0
176
     1
 62
   257
176
     1
 40
1.0
176
     1
 90
        1
176
     1
 90
        6
176
     1
 90
        2
176
     1
 62
     7
176
     1
 90
        5
176
     1
 90
        0
176
     1
 90
        0
176
     1
290
     0
176
     1
 90
       13
176
     1
 40
0.0
176
     1
 90
        0
176
     1
290
     0
176
     1
290
     1
176
     1
290
     1
176
     1
290
     0
176
     1
290
     0
176
     1
290
     0
176
     1
290
     0
176
     1
290
     0
176
     1
290
     0
176
     1
 90
       50
176
     1
 40
0.0
176
     1
 40
1.0
176
     1
 90
        0
176
     1
 62
   178
420
        0
176
     1
 90
       50
176
     1
 90
        3
176
     1
 62
     5
420
      255
176
     1
290
     0
176
     1
 90
       50
176
     1
 90
       50
176
     1
 90
       50
176
     1
290
     0
176
     1
 90
       50
176
     1
 62
   256
176
     0
 40
1.0
176
     0
 90
        2
176
     1
  1
strokes_ogs.tif
176
     1
290
     0
176
     1
 40
1.0
176
     1
 40
1.0
176
     1
  0
VISUALSTYLE
  5
18D5
102
{ACAD_REACTORS
330
18D2
102
}
330
18D2
100
AcDbVisualStyle
  2
Gouraud
 70
     2
177
     3
291
     1
 70
    58
 90
        2
176
     1
 90
        2
176
     1
 90
        1
176
     1
 90
        2
176
     1
 40
0.6
176
     1
 40
30.0
176
     1
 62
     7
420
 16777215
176
     1
 90
        0
176
     1
 90
        0
176
     1
 62
     7
176
     1
 62
   257
176
     1
 90
        1
176
     1
 90
        1
176
     1
 40
1.0
176
     1
 90
        0
176
     1
 62
     7
176
     1
 40
1.0
176
     1
 90
        1
176
     1
 90
        6
176
     1
 90
        2
176
     1
 62
     7
176
     1
 90
        5
176
     1
 90
        0
176
     1
 90
        0
176
     1
290
     0
176
     1
 90
       13
176
     1
 40
0.0
176
     1
 90
        0
176
     1
290
     0
176
     1
290
     1
176
     1
290
     1
176
     1
290
     0
176
     1
290
     0
176
     1
290
     0
176
     1
290
     0
176
     1
290
     0
176
     1
290
     0
176
     1
 90
       50
176
     1
 40
0.0
176
     1
 40
1.0
176
     1
 90
        0
176
     1
 62
   178
420
        0
176
     1
 90
       50
176
     1
 90
        3
176
     1
 62
     5
420
      255
176
     1
290
     0
176
     1
 90
       50
176
     1
 90
       50
176
     1
 90
       50
176
     1
290
     0
176
     1
 90
       50
176
     1
 62
   256
176
     0
 40
1.0
176
     0
 90
        2
176
     1
  1
strokes_ogs.tif
176
     1
290
     0
176
     1
 40
1.0
176
     1
 40
1.0
176
     1
  0
VISUALSTYLE
  5
18D6
102
{ACAD_REACTORS
330
18D2
102
}
330
18D2
100
AcDbVisualStyle
  2
GouraudWithEdges
 70
     3
177
     3
291
     1
 70
    58
 90
        2
176
     1
 90
        2
176
     1
 90
        1
176
     1
 90
        2
176
     1
 40
0.6
176
     1
 40
30.0
176
     1
 62
     7
420
 16777215
176
     1
 90
        1
176
     1
 90
        0
176
     1
 62
     7
176
     1
 62
   257
176
     1
 90
        1
176
     1
 90
        1
176
     1
 40
1.0
176
     1
 90
        0
176
     1
 62
   257
176
     1
 40
1.0
176
     1
 90
        1
176
     1
 90
        6
176
     1
 90
        2
176
     1
 62
     7
176
     1
 90
        5
176
     1
 90
        0
176
     1
 90
        0
176
     1
290
     0
176
     1
 90
       13
176
     1
 40
0.0
176
     1
 90
        0
176
     1
290
     0
176
     1
290
     1
176
     1
290
     1
176
     1
290
     0
176
     1
290
     0
176
     1
290
     0
176
     1
290
     0
176
     1
290
     0
176
     1
290
     0
176
     1
 90
       50
176
     1
 40
0.0
176
     1
 40
1.0
176
     1
 90
        0
176
     1
 62
   178
420
        0
176
     1
 90
       50
176
     1
 90
        3
176
     1
 62
     5
420
      255
176
     1
290
     0
176
     1
 90
       50
176
     1
 90
       50
176
     1
 90
       50
176
     1
290
     0
176
     1
 90
       50
176
     1
 62
   256
176
     0
 40
1.0
176
     0
 90
        2
176
     1
  1
strokes_ogs.tif
176
     1
290
     0
176
     1
 40
1.0
176
     1
 40
1.0
176
     1
  0
VISUALSTYLE
  5
18D9
102
{ACAD_REACTORS
330
18D2
102
}
330
18D2
100
AcDbVisualStyle
  2
Hidden
 70
     6
177
     3
291
     0
 70
    58
 90
        1
176
     1
 90
        2
176
     1
 90
        2
176
     1
 90
        0
176
     1
 40
0.6
176
     1
 40
30.0
176
     1
 62
     7
420
 16777215
176
     1
 90
        2
176
     1
 90
        2
176
     1
 62
     7
176
     1
 62
   257
176
     1
 90
        2
176
     1
 90
        1
176
     1
 40
40.0
176
     1
 90
        0
176
     1
 62
   257
176
     1
 40
1.0
176
     1
 90
        1
176
     1
 90
        6
176
     1
 90
        2
176
     1
 62
     7
176
     1
 90
        3
176
     1
 90
        0
176
     1
 90
        0
176
     1
290
     0
176
     1
 90
        1
176
     1
 40
0.0
176
     1
 90
        0
176
     1
290
     0
176
     1
290
     1
176
     1
290
     1
176
     1
290
     0
176
     1
290
     0
176
     1
290
     0
176
     1
290
     0
176
     1
290
     0
176
     1
290
     0
176
     1
 90
       50
176
     1
 40
0.0
176
     1
 40
1.0
176
     1
 90
        0
176
     1
 62
   178
420
        0
176
     1
 90
       50
176
     1
 90
        3
176
     1
 62
     5
420
      255
176
     1
290
     0
176
     1
 90
       50
176
     1
 90
       50
176
     1
 90
       50
176
     1
290
     0
176
     1
 90
       50
176
     1
 62
   256
176
     0
 40
1.0
176
     0
 90
        2
176
     1
  1
strokes_ogs.tif
176
     1
290
     0
176
     1
 40
1.0
176
     1
 40
1.0
176
     1
  0
VISUALSTYLE
  5
18E3
102
{ACAD_REACTORS
330
18D2
102
}
330
18D2
100
AcDbVisualStyle
  2
JitterOff
 70
    20
177
     3
291
     1
 70
    58
 90
        2
176
     0
 90
        2
176
     0
 90
        0
176
     0
 90
        0
176
     0
 40
0.6
176
     0
 40
30.0
176
     0
 62
     7
420
 16777215
176
     0
 90
        1
176
     0
 90
        4
176
     0
 62
     7
176
     0
 62
   257
176
     0
 90
        1
176
     0
 90
        1
176
     0
 40
1.0
176
     0
 90
       10
176
     2
 62
     7
176
     0
 40
1.0
176
     0
 90
        1
176
     0
 90
        6
176
     0
 90
        2
176
     0
 62
     7
176
     0
 90
        5
176
     0
 90
        0
176
     0
 90
        0
176
     0
290
     0
176
     0
 90
        1
176
     0
 40
0.0
176
     0
 90
        0
176
     0
290
     0
176
     0
290
     1
176
     0
290
     1
176
     0
290
     0
176
     0
290
     0
176
     0
290
     0
176
     0
290
     0
176
     0
290
     0
176
     0
290
     0
176
     0
 90
       50
176
     0
 40
0.0
176
     0
 40
1.0
176
     0
 90
        0
176
     0
 62
   178
420
        0
176
     0
 90
       50
176
     0
 90
        3
176
     0
 62
     5
420
      255
176
     0
290
     0
176
     0
 90
       50
176
     0
 90
       50
176
     0
 90
       50
176
     0
290
     0
176
     0
 90
       50
176
     0
 62
   256
176
     0
 40
1.0
176
     0
 90
        2
176
     0
  1
strokes_ogs.tif
176
     0
290
     0
176
     0
 40
1.0
176
     0
 40
1.0
176
     0
  0
VISUALSTYLE
  5
18E0
102
{ACAD_REACTORS
330
18D2
102
}
330
18D2
100
AcDbVisualStyle
  2
Linepattern
 70
    14
177
     3
291
     1
 70
    58
 90
        2
176
     1
 90
        2
176
     1
 90
        0
176
     1
 90
        0
176
     1
 40
0.6
176
     1
 40
30.0
176
     1
 62
     7
420
 16777215
176
     1
 90
        1
176
     1
 90
        4
176
     1
 62
     7
176
     1
 62
   257
176
     1
 90
        7
176
     1
 90
        7
176
     1
 40
1.0
176
     1
 90
        8
176
     1
 62
     7
176
     1
 40
1.0
176
     1
 90
        1
176
     1
 90
        6
176
     1
 90
        2
176
     1
 62
     7
176
     1
 90
        5
176
     1
 90
        0
176
     1
 90
        0
176
     1
290
     0
176
     1
 90
        1
176
     1
 40
0.0
176
     1
 90
        0
176
     1
290
     0
176
     1
290
     1
176
     1
290
     1
176
     1
290
     0
176
     1
290
     0
176
     1
290
     0
176
     1
290
     0
176
     1
290
     0
176
     1
290
     0
176
     1
 90
       50
176
     1
 40
0.0
176
     1
 40
1.0
176
     1
 90
        0
176
     1
 62
   178
420
        0
176
     1
 90
       50
176
     1
 90
        3
176
     1
 62
     5
420
      255
176
     1
290
     0
176
     1
 90
       50
176
     1
 90
       50
176
     1
 90
       50
176
     1
290
     0
176
     1
 90
       50
176
     1
 62
   256
176
     0
 40
1.0
176
     0
 90
        2
176
     1
  1
strokes_ogs.tif
176
     1
290
     0
176
     1
 40
1.0
176
     1
 40
1.0
176
     1
  0
VISUALSTYLE
  5
18E4
102
{ACAD_REACTORS
330
18D2
102
}
330
18D2
100
AcDbVisualStyle
  2
OverhangOff
 70
    21
177
     3
291
     1
 70
    58
 90
        2
176
     0
 90
        2
176
     0
 90
        0
176
     0
 90
        0
176
     0
 40
0.6
176
     0
 40
30.0
176
     0
 62
     7
420
 16777215
176
     0
 90
        1
176
     0
 90
        4
176
     0
 62
     7
176
     0
 62
   257
176
     0
 90
        1
176
     0
 90
        1
176
     0
 40
1.0
176
     0
 90
        9
176
     2
 62
     7
176
     0
 40
1.0
176
     0
 90
        1
176
     0
 90
        6
176
     0
 90
        2
176
     0
 62
     7
176
     0
 90
        5
176
     0
 90
        0
176
     0
 90
        0
176
     0
290
     0
176
     0
 90
        1
176
     0
 40
0.0
176
     0
 90
        0
176
     0
290
     0
176
     0
290
     1
176
     0
290
     1
176
     0
290
     0
176
     0
290
     0
176
     0
290
     0
176
     0
290
     0
176
     0
290
     0
176
     0
290
     0
176
     0
 90
       50
176
     0
 40
0.0
176
     0
 40
1.0
176
     0
 90
        0
176
     0
 62
   178
420
        0
176
     0
 90
       50
176
     0
 90
        3
176
     0
 62
     5
420
      255
176
     0
290
     0
176
     0
 90
       50
176
     0
 90
       50
176
     0
 90
       50
176
     0
290
     0
176
     0
 90
       50
176
     0
 62
   256
176
     0
 40
1.0
176
     0
 90
        2
176
     0
  1
strokes_ogs.tif
176
     0
290
     0
176
     0
 40
1.0
176
     0
 40
1.0
176
     0
  0
VISUALSTYLE
  5
18DB
102
{ACAD_REACTORS
330
18D2
102
}
330
18D2
100
AcDbVisualStyle
  2
Realistic
 70
     8
177
     3
291
     0
 70
    58
 90
        2
176
     1
 90
        3
176
     1
 90
        0
176
     1
 90
        2
176
     1
 40
0.6
176
     1
 40
30.0
176
     1
 62
     7
420
 16777215
176
     1
 90
        0
176
     1
 90
        0
176
     1
 62
     7
176
     1
 62
   257
176
     1
 90
        1
176
     1
 90
        1
176
     1
 40
1.0
176
     1
 90
        8
176
     1
 62
   257
176
     1
 40
1.0
176
     1
 90
        1
176
     1
 90
        6
176
     1
 90
        2
176
     1
 62
     7
176
     1
 90
        3
176
     1
 90
        0
176
     1
 90
        0
176
     1
290
     0
176
     1
 90
       13
176
     1
 40
0.0
176
     1
 90
        0
176
     1
290
     0
176
     1
290
     1
176
     1
290
     1
176
     1
290
     0
176
     1
290
     0
176
     1
290
     0
176
     1
290
     0
176
     1
290
     0
176
     1
290
     0
176
     1
 90
       50
176
     1
 40
0.0
176
     1
 40
1.0
176
     1
 90
        0
176
     1
 62
   178
420
        0
176
     1
 90
       50
176
     1
 90
        3
176
     1
 62
     5
420
      255
176
     1
290
     0
176
     1
 90
       50
176
     1
 90
       50
176
     1
 90
       50
176
     1
290
     0
176
     1
 90
       50
176
     1
 62
   256
176
     0
 40
1.0
176
     0
 90
        2
176
     1
  1
strokes_ogs.tif
176
     1
290
     0
176
     1
 40
1.0
176
     1
 40
1.0
176
     1
  0
VISUALSTYLE
  5
18EA
102
{ACAD_REACTORS
330
18D2
102
}
330
18D2
100
AcDbVisualStyle
  2
Shaded
 70
    27
177
     3
291
     0
 70
    58
 90
        2
176
     1
 90
        2
176
     1
 90
        1
176
     1
 90
        2
176
     1
 40
0.6
176
     1
 40
30.0
176
     1
 62
     7
420
 16777215
176
     1
 90
        0
176
     1
 90
        4
176
     1
 62
     7
176
     1
 62
   257
176
     1
 90
        1
176
     1
 90
        1
176
     1
 40
1.0
176
     1
 90
        8
176
     1
 62
   257
176
     1
 40
1.0
176
     1
 90
        1
176
     1
 90
        6
176
     1
 90
        2
176
     1
 62
     8
420
  7895160
176
     1
 90
        3
176
     1
 90
        0
176
     1
 90
        0
176
     1
290
     0
176
     1
 90
        5
176
     1
 40
0.0
176
     1
 90
        0
176
     1
290
     0
176
     1
290
     1
176
     1
290
     1
176
     1
290
     0
176
     1
290
     0
176
     1
290
     0
176
     1
290
     0
176
     1
290
     0
176
     1
290
     0
176
     1
 90
       50
176
     1
 40
0.0
176
     1
 40
1.0
176
     1
 90
        0
176
     1
 62
   178
420
        0
176
     1
 90
       50
176
     1
 90
        3
176
     1
 62
     5
420
      255
176
     1
290
     0
176
     1
 90
       50
176
     1
 90
       50
176
     1
 90
       50
176
     1
290
     0
176
     1
 90
       50
176
     1
 62
   256
176
     0
 40
1.0
176
     0
 90
        2
176
     1
  1
strokes_ogs.tif
176
     1
290
     0
176
     1
 40
1.0
176
     1
 40
1.0
176
     1
  0
VISUALSTYLE
  5
18E9
102
{ACAD_REACTORS
330
18D2
102
}
330
18D2
100
AcDbVisualStyle
  2
Shaded with edges
 70
    26
177
     3
291
     0
 70
    58
 90
        2
176
     1
 90
        2
176
     1
 90
        1
176
     1
 90
        2
176
     1
 40
0.6
176
     1
 40
30.0
176
     1
 62
     7
420
 16777215
176
     1
 90
        1
176
     1
 90
       10
176
     1
 62
     7
176
     1
 62
   257
176
     1
 90
        2
176
     1
 90
        1
176
     1
 40
1.0
176
     1
 90
        8
176
     1
 62
   257
176
     1
 40
1.0
176
     1
 90
        1
176
     1
 90
        6
176
     1
 90
        2
176
     1
 62
     7
176
     1
 90
        3
176
     1
 90
        0
176
     1
 90
        0
176
     1
290
     0
176
     1
 90
        5
176
     1
 40
0.0
176
     1
 90
        0
176
     1
290
     0
176
     1
290
     1
176
     1
290
     1
176
     1
290
     0
176
     1
290
     0
176
     1
290
     0
176
     1
290
     0
176
     1
290
     0
176
     1
290
     0
176
     1
 90
       50
176
     1
 40
0.0
176
     1
 40
1.0
176
     1
 90
        0
176
     1
 62
   178
420
        0
176
     1
 90
       50
176
     1
 90
        3
176
     1
 62
     5
420
      255
176
     1
290
     0
176
     1
 90
       50
176
     1
 90
       50
176
     1
 90
       50
176
     1
290
     0
176
     1
 90
       50
176
     1
 62
   256
176
     0
 40
1.0
176
     0
 90
        2
176
     1
  1
strokes_ogs.tif
176
     1
290
     0
176
     1
 40
1.0
176
     1
 40
1.0
176
     1
  0
VISUALSTYLE
  5
18E6
102
{ACAD_REACTORS
330
18D2
102
}
330
18D2
100
AcDbVisualStyle
  2
Shades of Gray
 70
    23
177
     3
291
     0
 70
    58
 90
        2
176
     1
 90
        2
176
     1
 90
        3
176
     1
 90
        0
176
     1
 40
0.6
176
     1
 40
30.0
176
     1
 62
     7
420
 16777215
176
     1
 90
        2
176
     1
 90
        2
176
     1
 62
     7
176
     1
 62
     7
176
     1
 90
        1
176
     1
 90
        1
176
     1
 40
40.0
176
     1
 90
        8
176
     1
 62
     7
176
     1
 40
1.0
176
     1
 90
        1
176
     1
 90
        6
176
     1
 90
        2
176
     1
 62
     7
176
     1
 90
        3
176
     1
 90
        0
176
     1
 90
        0
176
     1
290
     0
176
     1
 90
        1
176
     1
 40
0.0
176
     1
 90
        0
176
     1
290
     0
176
     1
290
     1
176
     1
290
     1
176
     1
290
     0
176
     1
290
     0
176
     1
290
     0
176
     1
290
     0
176
     1
290
     0
176
     1
290
     0
176
     1
 90
       50
176
     1
 40
0.0
176
     1
 40
1.0
176
     1
 90
        0
176
     1
 62
   178
420
        0
176
     1
 90
       50
176
     1
 90
        3
176
     1
 62
     5
420
      255
176
     1
290
     0
176
     1
 90
       50
176
     1
 90
       50
176
     1
 90
       50
176
     1
290
     0
176
     1
 90
       50
176
     1
 62
   256
176
     0
 40
1.0
176
     0
 90
        2
176
     1
  1
strokes_ogs.tif
176
     1
290
     0
176
     1
 40
1.0
176
     1
 40
1.0
176
     1
  0
VISUALSTYLE
  5
18E7
102
{ACAD_REACTORS
330
18D2
102
}
330
18D2
100
AcDbVisualStyle
  2
Sketchy
 70
    24
177
     3
291
     0
 70
    58
 90
        1
176
     1
 90
        2
176
     1
 90
        2
176
     1
 90
        0
176
     1
 40
0.6
176
     1
 40
30.0
176
     1
 62
     7
420
 16777215
176
     1
 90
        2
176
     1
 90
        2
176
     1
 62
     7
176
     1
 62
     7
176
     1
 90
        1
176
     1
 90
        1
176
     1
 40
40.0
176
     1
 90
       11
176
     1
 62
     7
176
     1
 40
1.0
176
     1
 90
        1
176
     1
 90
        6
176
     1
 90
        2
176
     1
 62
     7
176
     1
 90
        6
176
     1
 90
        0
176
     1
 90
        0
176
     1
290
     0
176
     1
 90
        1
176
     1
 40
0.0
176
     1
 90
        0
176
     1
290
     0
176
     1
290
     1
176
     1
290
     1
176
     1
290
     0
176
     1
290
     0
176
     1
290
     0
176
     1
290
     0
176
     1
290
     0
176
     1
290
     0
176
     1
 90
       50
176
     1
 40
0.0
176
     1
 40
1.0
176
     1
 90
        0
176
     1
 62
   178
420
        0
176
     1
 90
       50
176
     1
 90
        3
176
     1
 62
     5
420
      255
176
     1
290
     0
176
     1
 90
       50
176
     1
 90
       50
176
     1
 90
       50
176
     1
290
     0
176
     1
 90
       50
176
     1
 62
   256
176
     0
 40
1.0
176
     0
 90
        2
176
     1
  1
strokes_ogs.tif
176
     1
290
     0
176
     1
 40
1.0
176
     1
 40
1.0
176
     1
  0
VISUALSTYLE
  5
18DF
102
{ACAD_REACTORS
330
18D2
102
}
330
18D2
100
AcDbVisualStyle
  2
Thicken
 70
    13
177
     3
291
     1
 70
    58
 90
        2
176
     1
 90
        2
176
     1
 90
        0
176
     1
 90
        0
176
     1
 40
0.6
176
     1
 40
30.0
176
     1
 62
     7
420
 16777215
176
     1
 90
        1
176
     1
 90
        4
176
     1
 62
     7
176
     1
 62
   257
176
     1
 90
        1
176
     1
 90
        1
176
     1
 40
1.0
176
     1
 90
       12
176
     1
 62
     7
176
     1
 40
1.0
176
     1
 90
        1
176
     1
 90
        6
176
     1
 90
        2
176
     1
 62
     7
176
     1
 90
        5
176
     1
 90
        0
176
     1
 90
        0
176
     1
290
     0
176
     1
 90
        1
176
     1
 40
0.0
176
     1
 90
        0
176
     1
290
     0
176
     1
290
     1
176
     1
290
     1
176
     1
290
     0
176
     1
290
     0
176
     1
290
     0
176
     1
290
     0
176
     1
290
     0
176
     1
290
     0
176
     1
 90
       50
176
     1
 40
0.0
176
     1
 40
1.0
176
     1
 90
        0
176
     1
 62
   178
420
        0
176
     1
 90
       50
176
     1
 90
        3
176
     1
 62
     5
420
      255
176
     1
290
     0
176
     1
 90
       50
176
     1
 90
       50
176
     1
 90
       50
176
     1
290
     0
176
     1
 90
       50
176
     1
 62
   256
176
     0
 40
1.0
176
     0
 90
        2
176
     1
  1
strokes_ogs.tif
176
     1
290
     0
176
     1
 40
1.0
176
     1
 40
1.0
176
     1
  0
VISUALSTYLE
  5
18D8
102
{ACAD_REACTORS
330
18D2
102
}
330
18D2
100
AcDbVisualStyle
  2
Wireframe
 70
     5
177
     3
291
     0
 70
    58
 90
        0
176
     1
 90
        2
176
     1
 90
        0
176
     1
 90
        0
176
     1
 40
0.6
176
     1
 40
30.0
176
     1
 62
     7
420
 16777215
176
     1
 90
        1
176
     1
 90
        4
176
     1
 62
     7
176
     1
 62
   257
176
     1
 90
        1
176
     1
 90
        1
176
     1
 40
1.0
176
     1
 90
        0
176
     1
 62
   257
176
     1
 40
1.0
176
     1
 90
        1
176
     1
 90
        6
176
     1
 90
        2
176
     1
 62
     7
176
     1
 90
        3
176
     1
 90
        0
176
     1
 90
        0
176
     1
290
     0
176
     1
 90
        1
176
     1
 40
0.0
176
     1
 90
        0
176
     1
290
     0
176
     1
290
     1
176
     1
290
     1
176
     1
290
     0
176
     1
290
     0
176
     1
290
     0
176
     1
290
     0
176
     1
290
     0
176
     1
290
     0
176
     1
 90
       50
176
     1
 40
0.0
176
     1
 40
1.0
176
     1
 90
        0
176
     1
 62
   178
420
        0
176
     1
 90
       50
176
     1
 90
        3
176
     1
 62
     5
420
      255
176
     1
290
     0
176
     1
 90
       50
176
     1
 90
       50
176
     1
 90
       50
176
     1
290
     0
176
     1
 90
       50
176
     1
 62
   256
176
     0
 40
1.0
176
     0
 90
        2
176
     1
  1
strokes_ogs.tif
176
     1
290
     0
176
     1
 40
1.0
176
     1
 40
1.0
176
     1
  0
VISUALSTYLE
  5
18E8
102
{ACAD_REACTORS
330
18D2
102
}
330
18D2
100
AcDbVisualStyle
  2
X-Ray
 70
    25
177
     3
291
     0
 70
    58
 90
        2
176
     1
 90
        2
176
     1
 90
        1
176
     1
 90
        1
176
     1
 40
0.5
176
     1
 40
30.0
176
     1
 62
     7
420
 16777215
176
     1
 90
        1
176
     1
 90
        0
176
     1
 62
     7
176
     1
 62
   257
176
     1
 90
        1
176
     1
 90
        1
176
     1
 40
1.0
176
     1
 90
        8
176
     1
 62
     7
176
     1
 40
1.0
176
     1
 90
        1
176
     1
 90
        6
176
     1
 90
        2
176
     1
 62
     7
176
     1
 90
        3
176
     1
 90
        0
176
     1
 90
        0
176
     1
290
     0
176
     1
 90
       13
176
     1
 40
0.0
176
     1
 90
        0
176
     1
290
     0
176
     1
290
     1
176
     1
290
     1
176
     1
290
     0
176
     1
290
     0
176
     1
290
     0
176
     1
290
     0
176
     1
290
     0
176
     1
290
     0
176
     1
 90
       50
176
     1
 40
0.0
176
     1
 40
1.0
176
     1
 90
        0
176
     1
 62
   178
420
        0
176
     1
 90
       50
176
     1
 90
        3
176
     1
 62
     5
420
      255
176
     1
290
     0
176
     1
 90
       50
176
     1
 90
       50
176
     1
 90
       50
176
     1
290
     0
176
     1
 90
       50
176
     1
 62
   256
176
     0
 40
1.0
176
     0
 90
        2
176
     1
  1
strokes_ogs.tif
176
     1
290
     0
176
     1
 40
1.0
176
     1
 40
1.0
176
     1
  0
DICTIONARYVAR
  5
1A07
102
{ACAD_REACTORS
330
1A06
102
}
330
1A06
100
DictionaryVariables
280
     0
  1
1:1
  0
DICTIONARYVAR
  5
1A0C
102
{ACAD_REACTORS
330
1A06
102
}
330
1A06
100
DictionaryVariables
280
     0
  1
Standard
  0
DICTIONARYVAR
  5
1A0B
102
{ACAD_REACTORS
330
1A06
102
}
330
1A06
100
DictionaryVariables
280
     0
  1
Standard
  0
XRECORD
  5
1919
102
{ACAD_REACTORS
330
1917
102
}
330
1917
100
AcDbXrecord
280
     1
1000
#ffffff
  0
XRECORD
  5
191A
102
{ACAD_REACTORS
330
1917
102
}
330
1917
100
AcDbXrecord
280
     1
1000
FullColor
  0
XRECORD
  5
191B
102
{ACAD_REACTORS
330
1917
102
}
330
1917
100
AcDbXrecord
280
     1
290
     1
  0
XRECORD
  5
191C
102
{ACAD_REACTORS
330
1917
102
}
330
1917
100
AcDbXrecord
280
     1
290
     1
  0
XRECORD
  5
191D
102
{ACAD_REACTORS
330
1917
102
}
330
1917
100
AcDbXrecord
280
     1
290
     1
  0
XRECORD
  5
191E
102
{ACAD_REACTORS
330
1917
102
}
330
1917
100
AcDbXrecord
280
     1
290
     1
  0
XRECORD
  5
191F
102
{ACAD_REACTORS
330
1917
102
}
330
1917
100
AcDbXrecord
280
     1
1000
auto
  0
XRECORD
  5
1920
102
{ACAD_REACTORS
330
1917
102
}
330
1917
100
AcDbXrecord
280
     1
1000
auto
  0
XRECORD
  5
1921
102
{ACAD_REACTORS
330
1917
102
}
330
1917
100
AcDbXrecord
280
     1
1000
auto
  0
XRECORD
  5
1922
102
{ACAD_REACTORS
330
1917
102
}
330
1917
100
AcDbXrecord
280
     1
1000
auto
  0
XRECORD
  5
1923
102
{ACAD_REACTORS
330
1917
102
}
330
1917
100
AcDbXrecord
280
     1
1000
auto
  0
XRECORD
  5
1924
102
{ACAD_REACTORS
330
1917
102
}
330
1917
100
AcDbXrecord
280
     1
1000
auto
  0
XRECORD
  5
1925
102
{ACAD_REACTORS
330
1917
102
}
330
1917
100
AcDbXrecord
280
     1
1000
auto
  0
XRECORD
  5
1926
102
{ACAD_REACTORS
330
1917
102
}
330
1917
100
AcDbXrecord
280
     1
1000
auto
  0
XRECORD
  5
1927
102
{ACAD_REACTORS
330
1917
102
}
330
1917
100
AcDbXrecord
280
     1
290
     0
  0
XRECORD
  5
1928
102
{ACAD_REACTORS
330
1917
102
}
330
1917
100
AcDbXrecord
280
     1
290
     0
  0
XRECORD
  5
1929
102
{ACAD_REACTORS
330
1917
102
}
330
1917
100
AcDbXrecord
280
     1
290
     0
  0
XRECORD
  5
192A
102
{ACAD_REACTORS
330
1917
102
}
330
1917
100
AcDbXrecord
280
     1
290
     0
  0
XRECORD
  5
192B
102
{ACAD_REACTORS
330
1917
102
}
330
1917
100
AcDbXrecord
280
     1
 90
    65537
  0
XRECORD
  5
192C
102
{ACAD_REACTORS
330
1917
102
}
330
1917
100
AcDbXrecord
280
     1
 90
    65537
  0
XRECORD
  5
192D
102
{ACAD_REACTORS
330
1917
102
}
330
1917
100
AcDbXrecord
280
     1
 90
    65537
  0
XRECORD
  5
192E
102
{ACAD_REACTORS
330
1917
102
}
330
1917
100
AcDbXrecord
280
     1
 90
    65537
  0
XRECORD
  5
192F
102
{ACAD_REACTORS
330
1917
102
}
330
1917
100
AcDbXrecord
280
     1
1000
auto
  0
XRECORD
  5
1930
102
{ACAD_REACTORS
330
1917
102
}
330
1917
100
AcDbXrecord
280
     1
1000
auto
  0
XRECORD
  5
1931
102
{ACAD_REACTORS
330
1917
102
}
330
1917
100
AcDbXrecord
280
     1
1000
auto
  0
XRECORD
  5
1932
102
{ACAD_REACTORS
330
1917
102
}
330
1917
100
AcDbXrecord
280
     1
1000
auto
  0
XRECORD
  5
1933
102
{ACAD_REACTORS
330
1917
102
}
330
1917
100
AcDbXrecord
280
     1
1000
auto
  0
XRECORD
  5
1934
102
{ACAD_REACTORS
330
1917
102
}
330
1917
100
AcDbXrecord
280
     1
1000
auto
  0
XRECORD
  5
1935
102
{ACAD_REACTORS
330
1917
102
}
330
1917
100
AcDbXrecord
280
     1
1000
auto
  0
XRECORD
  5
1936
102
{ACAD_REACTORS
330
1917
102
}
330
1917
100
AcDbXrecord
280
     1
1000
auto
  0
XRECORD
  5
1937
102
{ACAD_REACTORS
330
1917
102
}
330
1917
100
AcDbXrecord
280
     1
 90
        1
  0
XRECORD
  5
1938
102
{ACAD_REACTORS
330
1917
102
}
330
1917
100
AcDbXrecord
280
     1
 40
10.0
  0
XRECORD
  5
1939
102
{ACAD_REACTORS
330
1917
102
}
330
1917
100
AcDbXrecord
280
     1
 40
10.0
  0
XRECORD
  5
193A
102
{ACAD_REACTORS
330
1917
102
}
330
1917
100
AcDbXrecord
280
     1
 40
10.0
  0
XRECORD
  5
193B
102
{ACAD_REACTORS
330
1917
102
}
330
1917
100
AcDbXrecord
280
     1
 40
10.0
  0
XRECORD
  5
193C
102
{ACAD_REACTORS
330
1917
102
}
330
1917
100
AcDbXrecord
280
     1
290
     0
  0
XRECORD
  5
193D
102
{ACAD_REACTORS
330
1917
102
}
330
1917
100
AcDbXrecord
280
     1
 90
        1
  0
XRECORD
  5
193E
102
{ACAD_REACTORS
330
1917
102
}
330
1917
100
AcDbXrecord
280
     1
 40
28.93333784154839
  0
XRECORD
  5
193F
102
{ACAD_REACTORS
330
1917
102
}
330
1917
100
AcDbXrecord
280
     1
 40
15.9945801029296
  0
XRECORD
  5
1940
102
{ACAD_REACTORS
330
1917
102
}
330
1917
100
AcDbXrecord
280
     1
1000
Landscape
  0
XRECORD
  5
1941
102
{ACAD_REACTORS
330
1917
102
}
330
1917
100
AcDbXrecord
280
     1
 40
420.0
  0
XRECORD
  5
1942
102
{ACAD_REACTORS
330
1917
102
}
330
1917
100
AcDbXrecord
280
     1
 40
297.0
  0
XRECORD
  5
1943
102
{ACAD_REACTORS
330
1917
102
}
330
1917
100
AcDbXrecord
280
     1
1000
0.015
  0
XRECORD
  5
1944
102
{ACAD_REACTORS
330
1917
102
}
330
1917
100
AcDbXrecord
280
     1
290
     1
  0
XRECORD
  5
1945
102
{ACAD_REACTORS
330
1917
102
}
330
1917
100
AcDbXrecord
280
     1
1000
3.21.3
  0
XRECORD
  5
1946
102
{ACAD_REACTORS
330
1917
102
}
330
1917
100
AcDbXrecord
280
     1
 90
        4
  0
XRECORD
  5
1947
102
{ACAD_REACTORS
330
1917
102
}
330
1917
100
AcDbXrecord
280
     1
  0
XRECORD
  5
1948
102
{ACAD_REACTORS
330
1917
102
}
330
1917
100
AcDbXrecord
280
     1
 40
7.931971072022758
  0
XRECORD
  5
1949
102
{ACAD_REACTORS
330
1917
102
}
330
1917
100
AcDbXrecord
280
     1
 40
12.57039014182153
  0
DICTIONARY
  5
1A08
330
1912
100
AcDbDictionary
280
     1
281
     1
  3
ACAD_ROUNDTRIP_2008_TABLESTYLE_CELLSTYLEMAP
360
1A09
  0
CELLSTYLEMAP
  5
1A09
102
{ACAD_REACTORS
330
1A08
102
}
330
1A08
100
AcDbCellStyleMap
 90
        3
300
CELLSTYLE
  1
TABLEFORMAT_BEGIN
 90
        5
170
     1
 91
        0
 92
    32768
 62
   257
 93
        1
300
CONTENTFORMAT
  1
CONTENTFORMAT_BEGIN
 90
        0
 91
        0
 92
        4
 93
        0
300

 40
0.0
140
1.0
 94
        5
 62
     0
340
18BA
144
0.25
309
CONTENTFORMAT_END
171
     1
301
MARGIN
  1
CELLMARGIN_BEGIN
 40
0.06
 40
0.06
 40
0.06
 40
0.06
 40
0.06
 40
0.06
309
CELLMARGIN_END
 94
        6
 95
        1
302
GRIDFORMAT
  1
GRIDFORMAT_BEGIN
 90
        0
 91
        1
 62
     0
 92
       -2
340
18BC
 93
        0
 40
0.045
309
GRIDFORMAT_END
 95
        2
302
GRIDFORMAT
  1
GRIDFORMAT_BEGIN
 90
        0
 91
        1
 62
     0
 92
       -2
340
18BC
 93
        0
 40
0.045
309
GRIDFORMAT_END
 95
        4
302
GRIDFORMAT
  1
GRIDFORMAT_BEGIN
 90
        0
 91
        1
 62
     0
 92
       -2
340
18BC
 93
        0
 40
0.045
309
GRIDFORMAT_END
 95
        8
302
GRIDFORMAT
  1
GRIDFORMAT_BEGIN
 90
        0
 91
        1
 62
     0
 92
       -2
340
18BC
 93
        0
 40
0.045
309
GRIDFORMAT_END
 95
       16
302
GRIDFORMAT
  1
GRIDFORMAT_BEGIN
 90
        0
 91
        1
 62
     0
 92
       -2
340
18BC
 93
        0
 40
0.045
309
GRIDFORMAT_END
 95
       32
302
GRIDFORMAT
  1
GRIDFORMAT_BEGIN
 90
        0
 91
        1
 62
     0
 92
       -2
340
18BC
 93
        0
 40
0.045
309
GRIDFORMAT_END
309
TABLEFORMAT_END
  1
CELLSTYLE_BEGIN
 90
        1
 91
        1
300
_TITLE
309
CELLSTYLE_END
300
CELLSTYLE
  1
TABLEFORMAT_BEGIN
 90
        5
170
     1
 91
        0
 92
        0
 62
   257
 93
        1
300
CONTENTFORMAT
  1
CONTENTFORMAT_BEGIN
 90
        0
 91
        0
 92
        4
 93
        0
300

 40
0.0
140
1.0
 94
        5
 62
     0
340
18BA
144
0.18
309
CONTENTFORMAT_END
171
     1
301
MARGIN
  1
CELLMARGIN_BEGIN
 40
0.06
 40
0.06
 40
0.06
 40
0.06
 40
0.06
 40
0.06
309
CELLMARGIN_END
 94
        6
 95
        1
302
GRIDFORMAT
  1
GRIDFORMAT_BEGIN
 90
        0
 91
        1
 62
     0
 92
       -2
340
18BC
 93
        0
 40
0.045
309
GRIDFORMAT_END
 95
        2
302
GRIDFORMAT
  1
GRIDFORMAT_BEGIN
 90
        0
 91
        1
 62
     0
 92
       -2
340
18BC
 93
        0
 40
0.045
309
GRIDFORMAT_END
 95
        4
302
GRIDFORMAT
  1
GRIDFORMAT_BEGIN
 90
        0
 91
        1
 62
     0
 92
       -2
340
18BC
 93
        0
 40
0.045
309
GRIDFORMAT_END
 95
        8
302
GRIDFORMAT
  1
GRIDFORMAT_BEGIN
 90
        0
 91
        1
 62
     0
 92
       -2
340
18BC
 93
        0
 40
0.045
309
GRIDFORMAT_END
 95
       16
302
GRIDFORMAT
  1
GRIDFORMAT_BEGIN
 90
        0
 91
        1
 62
     0
 92
       -2
340
18BC
 93
        0
 40
0.045
309
GRIDFORMAT_END
 95
       32
302
GRIDFORMAT
  1
GRIDFORMAT_BEGIN
 90
        0
 91
        1
 62
     0
 92
       -2
340
18BC
 93
        0
 40
0.045
309
GRIDFORMAT_END
309
TABLEFORMAT_END
  1
CELLSTYLE_BEGIN
 90
        2
 91
        1
300
_HEADER
309
CELLSTYLE_END
300
CELLSTYLE
  1
TABLEFORMAT_BEGIN
 90
        5
170
     1
 91
        0
 92
        0
 62
   257
 93
        1
300
CONTENTFORMAT
  1
CONTENTFORMAT_BEGIN
 90
        0
 91
        0
 92
        4
 93
        0
300

 40
0.0
140
1.0
 94
        2
 62
     0
340
18BA
144
0.18
309
CONTENTFORMAT_END
171
     1
301
MARGIN
  1
CELLMARGIN_BEGIN
 40
0.06
 40
0.06
 40
0.06
 40
0.06
 40
0.06
 40
0.06
309
CELLMARGIN_END
 94
        6
 95
        1
302
GRIDFORMAT
  1
GRIDFORMAT_BEGIN
 90
        0
 91
        1
 62
     0
 92
       -2
340
18BC
 93
        0
 40
0.045
309
GRIDFORMAT_END
 95
        2
302
GRIDFORMAT
  1
GRIDFORMAT_BEGIN
 90
        0
 91
        1
 62
     0
 92
       -2
340
18BC
 93
        0
 40
0.045
309
GRIDFORMAT_END
 95
        4
302
GRIDFORMAT
  1
GRIDFORMAT_BEGIN
 90
        0
 91
        1
 62
     0
 92
       -2
340
18BC
 93
        0
 40
0.045
309
GRIDFORMAT_END
 95
        8
302
GRIDFORMAT
  1
GRIDFORMAT_BEGIN
 90
        0
 91
        1
 62
     0
 92
       -2
340
18BC
 93
        0
 40
0.045
309
GRIDFORMAT_END
 95
       16
302
GRIDFORMAT
  1
GRIDFORMAT_BEGIN
 90
        0
 91
        1
 62
     0
 92
       -2
340
18BC
 93
        0
 40
0.045
309
GRIDFORMAT_END
 95
       32
302
GRIDFORMAT
  1
GRIDFORMAT_BEGIN
 90
        0
 91
        1
 62
     0
 92
       -2
340
18BC
 93
        0
 40
0.045
309
GRIDFORMAT_END
309
TABLEFORMAT_END
  1
CELLSTYLE_BEGIN
 90
        3
 91
        2
300
_DATA
309
CELLSTYLE_END
  0
ENDSEC
  0
EOF
