  0
SECTION
  2
HEADER
  9
$ACADVER
  1
AC1015
  9
$ACADMAINTVER
 70
     6
  9
$DWGCODEPAGE
  3
ANSI_1252
  9
$INSBASE
 10
0.0
 20
0.0
 30
0.0
  9
$EXTMIN
 10
0.0
 20
0.0
 30
0.0
  9
$EXTMAX
 10
25.0
 20
35.0
 30
0.0
  9
$LIMMIN
 10
0.0
 20
0.0
  9
$LIMMAX
 10
420.0
 20
297.0
  9
$ORTHOMODE
 70
     0
  9
$REGENMODE
 70
     1
  9
$FILLMODE
 70
     1
  9
$QTEXTMODE
 70
     0
  9
$MIRRTEXT
 70
     1
  9
$LTSCALE
 40
4.6
  9
$ATTMODE
 70
     1
  9
$TEXTSIZE
 40
2.5
  9
$TRACEWID
 40
1.0
  9
$TEXTSTYLE
  7
Standard
  9
$CLAYER
  8
0
  9
$CELTYPE
  6
ByLayer
  9
$CECOLOR
 62
   256
  9
$CELTSCALE
 40
1.0
  9
$DISPSILH
 70
     0
  9
$DIMSCALE
 40
1.0
  9
$DIMASZ
 40
2.5
  9
$DIMEXO
 40
0.625
  9
$DIMDLI
 40
3.75
  9
$DIMRND
 40
0.0
  9
$DIMDLE
 40
0.0
  9
$DIMEXE
 40
1.25
  9
$DIMTP
 40
0.0
  9
$DIMTM
 40
0.0
  9
$DIMTXT
 40
2.5
  9
$DIMCEN
 40
2.5
  9
$DIMTSZ
 40
0.0
  9
$DIMTOL
 70
     0
  9
$DIMLIM
 70
     0
  9
$DIMTIH
 70
     0
  9
$DIMTOH
 70
     0
  9
$DIMSE1
 70
     0
  9
$DIMSE2
 70
     0
  9
$DIMTAD
 70
     1
  9
$DIMZIN
 70
     8
  9
$DIMBLK
  1

  9
$DIMASO
 70
     1
  9
$DIMSHO
 70
     1
  9
$DIMPOST
  1

  9
$DIMAPOST
  1

  9
$DIMALT
 70
     0
  9
$DIMALTD
 70
     3
  9
$DIMALTF
 40
0.03937007874016
  9
$DIMLFAC
 40
1.0
  9
$DIMTOFL
 70
     1
  9
$DIMTVP
 40
0.0
  9
$DIMTIX
 70
     0
  9
$DIMSOXD
 70
     0
  9
$DIMSAH
 70
     0
  9
$DIMBLK1
  1

  9
$DIMBLK2
  1

  9
$DIMSTYLE
  2
ISO-25
  9
$DIMCLRD
 70
     0
  9
$DIMCLRE
 70
     0
  9
$DIMCLRT
 70
     0
  9
$DIMTFAC
 40
1.0
  9
$DIMGAP
 40
0.625
  9
$DIMJUST
 70
     0
  9
$DIMSD1
 70
     0
  9
$DIMSD2
 70
     0
  9
$DIMTOLJ
 70
     0
  9
$DIMTZIN
 70
     8
  9
$DIMALTZ
 70
     0
  9
$DIMALTTZ
 70
     0
  9
$DIMUPT
 70
     0
  9
$DIMDEC
 70
     2
  9
$DIMTDEC
 70
     2
  9
$DIMALTU
 70
     2
  9
$DIMALTTD
 70
     3
  9
$DIMTXSTY
  7
Standard
  9
$DIMAUNIT
 70
     0
  9
$DIMADEC
 70
     0
  9
$DIMALTRND
 40
0.0
  9
$DIMAZIN
 70
     0
  9
$DIMDSEP
 70
    44
  9
$DIMATFIT
 70
     3
  9
$DIMFRAC
 70
     0
  9
$DIMLDRBLK
  1

  9
$DIMLUNIT
 70
     2
  9
$DIMLWD
 70
    -2
  9
$DIMLWE
 70
    -2
  9
$DIMTMOVE
 70
     0
  9
$LUNITS
 70
     2
  9
$LUPREC
 70
     4
  9
$SKETCHINC
 40
1.0
  9
$FILLETRAD
 40
10.0
  9
$AUNITS
 70
     0
  9
$AUPREC
 70
     0
  9
$MENU
  1
.
  9
$ELEVATION
 40
0.0
  9
$PELEVATION
 40
0.0
  9
$THICKNESS
 40
0.0
  9
$LIMCHECK
 70
     0
  9
$CHAMFERA
 40
10.0
  9
$CHAMFERB
 40
10.0
  9
$CHAMFERC
 40
20.0
  9
$CHAMFERD
 40
0.0
  9
$SKPOLY
 70
     0
  9
$TDCREATE
 40
2458622.825694445
  9
$TDUCREATE
 40
2458622.742361111
  9
$TDUPDATE
 40
2458622.829166667
  9
$TDUUPDATE
 40
2458622.745833333
  9
$TDINDWG
 40
0.0000000116
  9
$TDUSRTIMER
 40
0.0000000116
  9
$USRTIMER
 70
     1
  9
$ANGBASE
 50
0.0
  9
$ANGDIR
 70
     0
  9
$PDMODE
 70
     0
  9
$PDSIZE
 40
0.0
  9
$PLINEWID
 40
0.0
  9
$SPLFRAME
 70
     0
  9
$SPLINETYPE
 70
     6
  9
$SPLINESEGS
 70
     8
  9
$HANDSEED
  5
78D
  9
$SURFTAB1
 70
     6
  9
$SURFTAB2
 70
     6
  9
$SURFTYPE
 70
     6
  9
$SURFU
 70
     6
  9
$SURFV
 70
     6
  9
$UCSBASE
  2

  9
$UCSNAME
  2

  9
$UCSORG
 10
0.0
 20
0.0
 30
0.0
  9
$UCSXDIR
 10
1.0
 20
0.0
 30
0.0
  9
$UCSYDIR
 10
0.0
 20
1.0
 30
0.0
  9
$UCSORTHOREF
  2

  9
$UCSORTHOVIEW
 70
     0
  9
$UCSORGTOP
 10
0.0
 20
0.0
 30
0.0
  9
$UCSORGBOTTOM
 10
0.0
 20
0.0
 30
0.0
  9
$UCSORGLEFT
 10
0.0
 20
0.0
 30
0.0
  9
$UCSORGRIGHT
 10
0.0
 20
0.0
 30
0.0
  9
$UCSORGFRONT
 10
0.0
 20
0.0
 30
0.0
  9
$UCSORGBACK
 10
0.0
 20
0.0
 30
0.0
  9
$PUCSBASE
  2

  9
$PUCSNAME
  2

  9
$PUCSORG
 10
0.0
 20
0.0
 30
0.0
  9
$PUCSXDIR
 10
1.0
 20
0.0
 30
0.0
  9
$PUCSYDIR
 10
0.0
 20
1.0
 30
0.0
  9
$PUCSORTHOREF
  2

  9
$PUCSORTHOVIEW
 70
     0
  9
$PUCSORGTOP
 10
0.0
 20
0.0
 30
0.0
  9
$PUCSORGBOTTOM
 10
0.0
 20
0.0
 30
0.0
  9
$PUCSORGLEFT
 10
0.0
 20
0.0
 30
0.0
  9
$PUCSORGRIGHT
 10
0.0
 20
0.0
 30
0.0
  9
$PUCSORGFRONT
 10
0.0
 20
0.0
 30
0.0
  9
$PUCSORGBACK
 10
0.0
 20
0.0
 30
0.0
  9
$USERI1
 70
     0
  9
$USERI2
 70
     0
  9
$USERI3
 70
     0
  9
$USERI4
 70
     0
  9
$USERI5
 70
     0
  9
$USERR1
 40
0.0
  9
$USERR2
 40
0.0
  9
$USERR3
 40
0.0
  9
$USERR4
 40
0.0
  9
$USERR5
 40
0.0
  9
$WORLDVIEW
 70
     1
  9
$SHADEDGE
 70
     3
  9
$SHADEDIF
 70
    70
  9
$TILEMODE
 70
     1
  9
$MAXACTVP
 70
    64
  9
$PINSBASE
 10
0.0
 20
0.0
 30
0.0
  9
$PLIMCHECK
 70
     0
  9
$PEXTMIN
 10
1.000000000000000E+20
 20
1.000000000000000E+20
 30
1.000000000000000E+20
  9
$PEXTMAX
 10
-1.000000000000000E+20
 20
-1.000000000000000E+20
 30
-1.000000000000000E+20
  9
$PLIMMIN
 10
0.0
 20
0.0
  9
$PLIMMAX
 10
420.0
 20
297.0
  9
$UNITMODE
 70
     0
  9
$VISRETAIN
 70
     1
  9
$PLINEGEN
 70
     0
  9
$PSLTSCALE
 70
     1
  9
$TREEDEPTH
 70
  3020
  9
$CMLSTYLE
  2
Standard
  9
$CMLJUST
 70
     0
  9
$CMLSCALE
 40
20.0
  9
$PROXYGRAPHICS
 70
     1
  9
$MEASUREMENT
 70
     1
  9
$CELWEIGHT
370
    -1
  9
$ENDCAPS
280
     0
  9
$JOINSTYLE
280
     0
  9
$LWDISPLAY
290
     0
  9
$INSUNITS
 70
     4
  9
$HYPERLINKBASE
  1

  9
$STYLESHEET
  1

  9
$XEDIT
290
     1
  9
$CEPSNTYPE
380
     0
  9
$PSTYLEMODE
290
     1
  9
$FINGERPRINTGUID
  2
{2728456D-402F-4ADA-A6DE-9B198C84796F}
  9
$VERSIONGUID
  2
{FAEB1C32-E019-11D5-929B-00C0DF256EC4}
  9
$EXTNAMES
290
     1
  9
$PSVPSCALE
 40
0.0
  9
$OLESTARTUP
290
     0
  0
ENDSEC
  0
SECTION
  2
CLASSES
  0
CLASS
  1
ACDBDICTIONARYWDFLT
  2
AcDbDictionaryWithDefault
  3
ObjectDBX Classes
 90
        0
280
     0
281
     0
  0
CLASS
  1
VISUALSTYLE
  2
AcDbVisualStyle
  3
ObjectDBX Classes
 90
     4095
280
     0
281
     0
  0
CLASS
  1
MATERIAL
  2
AcDbMaterial
  3
ObjectDBX Classes
 90
     1153
280
     0
281
     0
  0
CLASS
  1
SCALE
  2
AcDbScale
  3
ObjectDBX Classes
 90
     1153
280
     0
281
     0
  0
CLASS
  1
DICTIONARYVAR
  2
AcDbDictionaryVar
  3
ObjectDBX Classes
 90
        0
280
     0
281
     0
  0
CLASS
  1
ACDBPLACEHOLDER
  2
AcDbPlaceHolder
  3
ObjectDBX Classes
 90
        0
280
     0
281
     0
  0
CLASS
  1
LAYOUT
  2
AcDbLayout
  3
ObjectDBX Classes
 90
        0
280
     0
281
     0
  0
ENDSEC
  0
SECTION
  2
TABLES
  0
TABLE
  2
VPORT
  5
8
330
0
100
AcDbSymbolTable
 70
     1
  0
VPORT
  5
29
330
8
100
AcDbSymbolTableRecord
100
AcDbViewportTableRecord
  2
*Active
 70
     0
 10
0.0
 20
0.0
 11
1.0
 21
1.0
 12
11.26
 22
4.5
 13
0.0
 23
0.0
 14
10.0
 24
10.0
 15
10.0
 25
10.0
 16
0.0
 26
0.0
 36
1.0
 17
0.0
 27
0.0
 37
0.0
 40
9.0
 41
2.503333333333333
 42
50.0
 43
0.0
 44
0.0
 50
0.0
 51
0.0
 71
     0
 72
   100
 73
     1
 74
     3
 75
     0
 76
     0
 77
     0
 78
     0
281
     0
 65
     1
110
0.0
120
0.0
130
0.0
111
1.0
121
0.0
131
0.0
112
0.0
122
1.0
132
0.0
 79
     0
146
0.0
  0
ENDTAB
  0
TABLE
  2
LTYPE
  5
5
330
0
100
AcDbSymbolTable
 70
    10
  0
LTYPE
  5
14
330
5
100
AcDbSymbolTableRecord
100
AcDbLinetypeTableRecord
  2
ByBlock
 70
     0
  3

 72
    65
 73
     0
 40
0.0
  0
LTYPE
  5
15
330
5
100
AcDbSymbolTableRecord
100
AcDbLinetypeTableRecord
  2
ByLayer
 70
     0
  3

 72
    65
 73
     0
 40
0.0
  0
LTYPE
  5
16
330
5
100
AcDbSymbolTableRecord
100
AcDbLinetypeTableRecord
  2
Continuous
 70
     0
  3
Solid line
 72
    65
 73
     0
 40
0.0
  0
LTYPE
  5
45
330
5
100
AcDbSymbolTableRecord
100
AcDbLinetypeTableRecord
  2
phl_thick
 70
     0
  3
THICK
 72
    65
 73
     0
 40
0.0
  0
LTYPE
  5
14F
330
5
100
AcDbSymbolTableRecord
100
AcDbLinetypeTableRecord
  2
ls_CUT
 70
     0
  3
THICK
 72
    65
 73
     0
 40
0.0
  0
LTYPE
  5
155
330
5
100
AcDbSymbolTableRecord
100
AcDbLinetypeTableRecord
  2
ls1
 70
     0
  3
THICK
 72
    65
 73
     0
 40
0.0
  0
LTYPE
  5
15C
330
5
100
AcDbSymbolTableRecord
100
AcDbLinetypeTableRecord
  2
NOCUT
 70
     0
  3
THICK
 72
    65
 73
     0
 40
0.0
  0
LTYPE
  5
160
330
5
100
AcDbSymbolTableRecord
100
AcDbLinetypeTableRecord
  2
SK1
 70
     0
  3
THICK
 72
    65
 73
     0
 40
0.0
  0
LTYPE
  5
168
330
5
100
AcDbSymbolTableRecord
100
AcDbLinetypeTableRecord
  2
ls_SK2
 70
     0
  3
THIN
 72
    65
 73
     0
 40
0.0
  0
LTYPE
  5
214
330
5
100
AcDbSymbolTableRecord
100
AcDbLinetypeTableRecord
  2
ls_2
 70
     0
  3
THIN
 72
    65
 73
     0
 40
0.0
  0
LTYPE
  5
363
330
5
100
AcDbSymbolTableRecord
100
AcDbLinetypeTableRecord
  2
LONGDASH_DASH
 70
     0
  3
THIN_DASHDOT
 72
    65
 73
     4
 40
0.85
 49
0.4
 74
     0
 49
-0.2
 74
     0
 49
0.05
 74
     0
 49
-0.2
 74
     0
  0
LTYPE
  5
3A8
330
5
100
AcDbSymbolTableRecord
100
AcDbLinetypeTableRecord
  2
ls_SK1
 70
     0
  3
THICK
 72
    65
 73
     0
 40
0.0
  0
ENDTAB
  0
TABLE
  2
LAYER
  5
2
330
0
100
AcDbSymbolTable
 70
    10
  0
LAYER
  5
10
330
2
100
AcDbSymbolTableRecord
100
AcDbLayerTableRecord
  2
0
 70
     0
 62
     7
  6
Continuous
370
    -3
390
F
  0
LAYER
  5
44
330
2
100
AcDbSymbolTableRecord
100
AcDbLayerTableRecord
  2
1
 70
     0
 62
4
  6
CONTINUOUS
370
50
370
    -3
390
F
  0
LAYER
  5
14E
330
2
100
AcDbSymbolTableRecord
100
AcDbLayerTableRecord
  2
CUT
 70
     0
 62
1
  6
CONTINUOUS
370
25
370
    -3
390
F
  0
LAYER
  5
154
330
2
100
AcDbSymbolTableRecord
100
AcDbLayerTableRecord
  2
NOCUT
 70
     0
 62
7
  6
CONTINUOUS
370
25
370
    -3
390
F
  0
LAYER
  5
15F
330
2
100
AcDbSymbolTableRecord
100
AcDbLayerTableRecord
  2
SK1
 70
     0
 62
4
  6
CONTINUOUS
370
50
370
    -3
390
F
  0
LAYER
  5
167
330
2
100
AcDbSymbolTableRecord
100
AcDbLayerTableRecord
  2
SK2
 70
     0
 62
7
  6
CONTINUOUS
370
25
370
    -3
390
F
  0
LAYER
  5
213
330
2
100
AcDbSymbolTableRecord
100
AcDbLayerTableRecord
  2
2
 70
     0
 62
7
  6
CONTINUOUS
370
25
370
    -3
390
F
  0
LAYER
  5
362
330
2
100
AcDbSymbolTableRecord
100
AcDbLayerTableRecord
  2
4
 70
     0
 62
2
  6
LONGDASH_DASH
370
25
370
    -3
390
F
  0
LAYER
  5
365
330
2
100
AcDbSymbolTableRecord
100
AcDbLayerTableRecord
  2
SK4
 70
     0
 62
2
  6
LONGDASH_DASH
370
25
370
    -3
390
F
  0
LAYER
  5
3E1
330
2
100
AcDbSymbolTableRecord
100
AcDbLayerTableRecord
  2
SK6
 70
     0
 62
5
  6
CONTINUOUS
370
25
370
    -3
390
F
  0
ENDTAB
  0
TABLE
  2
STYLE
  5
3
330
0
100
AcDbSymbolTable
 70
     1
  0
STYLE
  5
11
330
3
100
AcDbSymbolTableRecord
100
AcDbTextStyleTableRecord
  2
Standard
 70
     0
 40
0.0
 41
1.0
 50
0.0
 71
     0
 42
2.5
  3
Monospac821 BT
  4

  0
ENDTAB
  0
TABLE
  2
VIEW
  5
6
330
0
100
AcDbSymbolTable
 70
     0
  0
ENDTAB
  0
TABLE
  2
UCS
  5
7
330
0
100
AcDbSymbolTable
 70
     0
  0
ENDTAB
  0
TABLE
  2
APPID
  5
9
330
0
100
AcDbSymbolTable
 70
     2
  0
APPID
  5
12
330
9
100
AcDbSymbolTableRecord
100
AcDbRegAppTableRecord
  2
ACAD
 70
     0
  0
APPID
  5
3F
330
9
100
AcDbSymbolTableRecord
100
AcDbRegAppTableRecord
  2
ccLab
 70
     0
  0
ENDTAB
  0
TABLE
  2
DIMSTYLE
  5
A
330
0
100
AcDbSymbolTable
 70
     1
100
AcDbDimStyleTable
  0
DIMSTYLE
105
27
330
A
100
AcDbSymbolTableRecord
100
AcDbDimStyleTableRecord
  2
ISO-25
 70
     0
 41
2.5
 42
0.625
 43
3.75
 44
1.25
 73
     0
 74
     0
 77
     1
 78
     8
140
2.5
141
2.5
143
0.03937007874016
147
0.625
171
     3
172
     1
271
     2
272
     2
274
     3
278
    44
283
     0
284
     8
340
11
  0
ENDTAB
  0
TABLE
  2
BLOCK_RECORD
  5
1
330
0
100
AcDbSymbolTable
 70
     2
  0
BLOCK_RECORD
  5
1F
330
1
100
AcDbSymbolTableRecord
100
AcDbBlockTableRecord
  2
*Model_Space
340
22
  0
BLOCK_RECORD
  5
1B
330
1
100
AcDbSymbolTableRecord
100
AcDbBlockTableRecord
  2
*Paper_Space
340
1E
  0
BLOCK_RECORD
  5
23
330
1
100
AcDbSymbolTableRecord
100
AcDbBlockTableRecord
  2
*Paper_Space0
340
26
  0
ENDTAB
  0
ENDSEC
  0
SECTION
  2
BLOCKS
  0
BLOCK
  5
20
330
1F
100
AcDbEntity
  8
0
100
AcDbBlockBegin
  2
*Model_Space
 70
     0
 10
0.0
 20
0.0
 30
0.0
  3
*Model_Space
  1

  0
ENDBLK
  5
21
330
1F
100
AcDbEntity
  8
0
100
AcDbBlockEnd
  0
BLOCK
  5
1C
330
1B
100
AcDbEntity
 67
     1
  8
0
100
AcDbBlockBegin
  2
*Paper_Space
 70
     0
 10
0.0
 20
0.0
 30
0.0
  3
*Paper_Space
  1

  0
ENDBLK
  5
1D
330
1B
100
AcDbEntity
 67
     1
  8
0
100
AcDbBlockEnd
  0
BLOCK
  5
24
330
23
100
AcDbEntity
  8
0
100
AcDbBlockBegin
  2
*Paper_Space0
 70
     0
 10
0.0
 20
0.0
 30
0.0
  3
*Paper_Space0
  1

  0
ENDBLK
  5
25
330
23
100
AcDbEntity
  8
0
100
AcDbBlockEnd
  0
ENDSEC
  0
SECTION
  2
ENTITIES
  0
LINE
  5
3EB
330
1F
100
AcDbEntity
  8
1
  6
CONTINUOUS
370
50
 62
4
100
AcDbLine
 10
39.416569
 20
1.021415
 30
0.0
 11
39.408497
 21
1.102491
 31
0.0
  0
LINE
  5
3EC
330
1F
100
AcDbEntity
  8
1
  6
CONTINUOUS
370
50
 62
4
100
AcDbLine
 10
67.63253
 20
-0.233568
 30
0.0
 11
67.622047
 21
-0.168306
 31
0.0
  0
LINE
  5
3ED
330
1F
100
AcDbEntity
  8
1
  6
CONTINUOUS
370
50
 62
4
100
AcDbLine
 10
39.436661
 20
0.940535
 30
0.0
 11
39.416569
 21
1.021415
 31
0.0
  0
LINE
  5
3EE
330
1F
100
AcDbEntity
  8
1
  6
CONTINUOUS
370
50
 62
4
100
AcDbLine
 10
67.622047
 20
-0.168306
 30
0.0
 11
67.60213499999999
 21
-0.100484
 31
0.0
  0
LINE
  5
3EF
330
1F
100
AcDbEntity
  8
1
  6
CONTINUOUS
370
50
 62
4
100
AcDbLine
 10
39.466923
 20
0.861792
 30
0.0
 11
39.436661
 21
0.940535
 31
0.0
  0
LINE
  5
3F0
330
1F
100
AcDbEntity
  8
1
  6
CONTINUOUS
370
50
 62
4
100
AcDbLine
 10
67.60213499999999
 20
-0.100484
 30
0.0
 11
67.574715
 21
-0.031504
 31
0.0
  0
LINE
  5
3F1
330
1F
100
AcDbEntity
  8
1
  6
CONTINUOUS
370
50
 62
4
100
AcDbLine
 10
67.574715
 20
-0.031504
 30
0.0
 11
67.541428
 21
0.037782
 31
0.0
  0
LINE
  5
3F2
330
1F
100
AcDbEntity
  8
1
  6
CONTINUOUS
370
50
 62
4
100
AcDbLine
 10
39.505516
 20
0.785704
 30
0.0
 11
39.466923
 21
0.861792
 31
0.0
  0
LINE
  5
3F3
330
1F
100
AcDbEntity
  8
1
  6
CONTINUOUS
370
50
 62
4
100
AcDbLine
 10
67.541428
 20
0.037782
 30
0.0
 11
67.502731
 21
0.108309
 31
0.0
  0
LINE
  5
3F4
330
1F
100
AcDbEntity
  8
1
  6
CONTINUOUS
370
50
 62
4
100
AcDbLine
 10
44.486301
 20
-0.712603
 30
0.0
 11
44.48596999999999
 21
-0.712039
 31
0.0
  0
LINE
  5
3F5
330
1F
100
AcDbEntity
  8
1
  6
CONTINUOUS
370
50
 62
4
100
AcDbLine
 10
44.48696899999999
 20
-0.7137319999999999
 30
0.0
 11
44.48663699999999
 21
-0.713167
 31
0.0
  0
LINE
  5
3F6
330
1F
100
AcDbEntity
  8
1
  6
CONTINUOUS
370
50
 62
4
100
AcDbLine
 10
44.485634
 20
-0.711475
 30
0.0
 11
44.48497
 21
-0.710347
 31
0.0
  0
LINE
  5
3F7
330
1F
100
AcDbEntity
  8
1
  6
CONTINUOUS
370
50
 62
4
100
AcDbLine
 10
44.48663699999999
 20
-0.713167
 30
0.0
 11
44.486301
 21
-0.712603
 31
0.0
  0
LINE
  5
3F8
330
1F
100
AcDbEntity
  8
1
  6
CONTINUOUS
370
50
 62
4
100
AcDbLine
 10
44.48596999999999
 20
-0.712039
 30
0.0
 11
44.485634
 21
-0.711475
 31
0.0
  0
LINE
  5
3F9
330
1F
100
AcDbEntity
  8
1
  6
CONTINUOUS
370
50
 62
4
100
AcDbLine
 10
67.502731
 20
0.108309
 30
0.0
 11
67.459587
 21
0.179493
 31
0.0
  0
LINE
  5
3FA
330
1F
100
AcDbEntity
  8
1
  6
CONTINUOUS
370
50
 62
4
100
AcDbLine
 10
39.550632
 20
0.712699
 30
0.0
 11
39.505516
 21
0.785704
 31
0.0
  0
LINE
  5
3FB
330
1F
100
AcDbEntity
  8
1
  6
CONTINUOUS
370
50
 62
4
100
AcDbLine
 10
67.459587
 20
0.179493
 30
0.0
 11
67.413033
 21
0.250569
 31
0.0
  0
LINE
  5
3FC
330
1F
100
AcDbEntity
  8
1
  6
CONTINUOUS
370
50
 62
4
100
AcDbLine
 10
67.413033
 20
0.250569
 30
0.0
 11
67.364105
 21
0.320773
 31
0.0
  0
LINE
  5
3FD
330
1F
100
AcDbEntity
  8
1
  6
CONTINUOUS
370
50
 62
4
100
AcDbLine
 10
39.60185999999999
 20
0.6414139999999999
 30
0.0
 11
39.550632
 21
0.712699
 31
0.0
  0
LINE
  5
3FE
330
1F
100
AcDbEntity
  8
1
  6
CONTINUOUS
370
50
 62
4
100
AcDbLine
 10
67.364105
 20
0.320773
 30
0.0
 11
67.31384299999999
 21
0.38934
 31
0.0
  0
LINE
  5
3FF
330
1F
100
AcDbEntity
  8
1
  6
CONTINUOUS
370
50
 62
4
100
AcDbLine
 10
67.31384299999999
 20
0.38934
 30
0.0
 11
67.26203199999999
 21
0.45712
 31
0.0
  0
LINE
  5
400
330
1F
100
AcDbEntity
  8
1
  6
CONTINUOUS
370
50
 62
4
100
AcDbLine
 10
67.26203199999999
 20
0.45712
 30
0.0
 11
67.207748
 21
0.5256219999999999
 31
0.0
  0
LINE
  5
401
330
1F
100
AcDbEntity
  8
1
  6
CONTINUOUS
370
50
 62
4
100
AcDbLine
 10
39.658932
 20
0.5710999999999999
 30
0.0
 11
39.60185999999999
 21
0.6414139999999999
 31
0.0
  0
LINE
  5
402
330
1F
100
AcDbEntity
  8
1
  6
CONTINUOUS
370
50
 62
4
100
AcDbLine
 10
67.207748
 20
0.5256219999999999
 30
0.0
 11
67.15130599999999
 21
0.594611
 31
0.0
  0
LINE
  5
403
330
1F
100
AcDbEntity
  8
1
  6
CONTINUOUS
370
50
 62
4
100
AcDbLine
 10
67.15130599999999
 20
0.594611
 30
0.0
 11
67.093048
 21
0.663847
 31
0.0
  0
LINE
  5
404
330
1F
100
AcDbEntity
  8
1
  6
CONTINUOUS
370
50
 62
4
100
AcDbLine
 10
67.093048
 20
0.663847
 30
0.0
 11
67.033318
 21
0.7330949999999999
 31
0.0
  0
LINE
  5
405
330
1F
100
AcDbEntity
  8
1
  6
CONTINUOUS
370
50
 62
4
100
AcDbLine
 10
39.721104
 20
0.501902
 30
0.0
 11
39.658932
 21
0.5710999999999999
 31
0.0
  0
LINE
  5
406
330
1F
100
AcDbEntity
  8
1
  6
CONTINUOUS
370
50
 62
4
100
AcDbLine
 10
39.787617
 20
0.43397
 30
0.0
 11
39.721104
 21
0.501902
 31
0.0
  0
LINE
  5
407
330
1F
100
AcDbEntity
  8
1
  6
CONTINUOUS
370
50
 62
4
100
AcDbLine
 10
39.857712
 20
0.36745
 30
0.0
 11
39.787617
 21
0.43397
 31
0.0
  0
LINE
  5
408
330
1F
100
AcDbEntity
  8
1
  6
CONTINUOUS
370
50
 62
4
100
AcDbLine
 10
39.930637
 20
0.30249
 30
0.0
 11
39.857712
 21
0.36745
 31
0.0
  0
LINE
  5
409
330
1F
100
AcDbEntity
  8
1
  6
CONTINUOUS
370
50
 62
4
100
AcDbLine
 10
40.005638
 20
0.239238
 30
0.0
 11
39.930637
 21
0.30249
 31
0.0
  0
LINE
  5
40A
330
1F
100
AcDbEntity
  8
1
  6
CONTINUOUS
370
50
 62
4
100
AcDbLine
 10
40.08196299999999
 20
0.177842
 30
0.0
 11
40.005638
 21
0.239238
 31
0.0
  0
LINE
  5
40B
330
1F
100
AcDbEntity
  8
1
  6
CONTINUOUS
370
50
 62
4
100
AcDbLine
 10
40.159557
 20
0.117921
 30
0.0
 11
40.08196299999999
 21
0.177842
 31
0.0
  0
LINE
  5
40C
330
1F
100
AcDbEntity
  8
1
  6
CONTINUOUS
370
50
 62
4
100
AcDbLine
 10
40.239201
 20
0.058601
 30
0.0
 11
40.159557
 21
0.117921
 31
0.0
  0
LINE
  5
40D
330
1F
100
AcDbEntity
  8
1
  6
CONTINUOUS
370
50
 62
4
100
AcDbLine
 10
40.32064099999999
 20
0.0
 30
0.0
 11
40.239201
 21
0.058601
 31
0.0
  0
LINE
  5
40E
330
1F
100
AcDbEntity
  8
1
  6
CONTINUOUS
370
50
 62
4
100
AcDbLine
 10
40.699623
 20
-0.254371
 30
0.0
 11
40.32064099999999
 21
0.0
 31
0.0
  0
LINE
  5
40F
330
1F
100
AcDbEntity
  8
1
  6
CONTINUOUS
370
50
 62
4
100
AcDbLine
 10
52.999565
 20
-1.664634
 30
0.0
 11
52.999424
 21
-1.664542
 31
0.0
  0
LINE
  5
410
330
1F
100
AcDbEntity
  8
1
  6
CONTINUOUS
370
50
 62
4
100
AcDbLine
 10
52.999855
 20
-1.664818
 30
0.0
 11
52.999565
 21
-1.664634
 31
0.0
  0
LINE
  5
411
330
1F
100
AcDbEntity
  8
1
  6
CONTINUOUS
370
50
 62
4
100
AcDbLine
 10
52.999424
 20
-1.664542
 30
0.0
 11
52.99927899999999
 21
-1.66445
 31
0.0
  0
LINE
  5
412
330
1F
100
AcDbEntity
  8
1
  6
CONTINUOUS
370
50
 62
4
100
AcDbLine
 10
53.0
 20
-1.664909
 30
0.0
 11
52.999855
 21
-1.664818
 31
0.0
  0
LINE
  5
413
330
1F
100
AcDbEntity
  8
1
  6
CONTINUOUS
370
50
 62
4
100
AcDbLine
 10
52.99927899999999
 20
-1.66445
 30
0.0
 11
52.999134
 21
-1.664359
 31
0.0
  0
LINE
  5
414
330
1F
100
AcDbEntity
  8
1
  6
CONTINUOUS
370
50
 62
4
100
AcDbLine
 10
41.079315
 20
-0.489533
 30
0.0
 11
40.699623
 21
-0.254371
 31
0.0
  0
LINE
  5
415
330
1F
100
AcDbEntity
  8
1
  6
CONTINUOUS
370
50
 62
4
100
AcDbLine
 10
41.463211
 20
-0.7164429999999999
 30
0.0
 11
41.079315
 21
-0.489533
 31
0.0
  0
LINE
  5
416
330
1F
100
AcDbEntity
  8
1
  6
CONTINUOUS
370
50
 62
4
100
AcDbLine
 10
41.848614
 20
-0.9378599999999999
 30
0.0
 11
41.463211
 21
-0.7164429999999999
 31
0.0
  0
LINE
  5
417
330
1F
100
AcDbEntity
  8
1
  6
CONTINUOUS
370
50
 62
4
100
AcDbLine
 10
42.234219
 20
-1.155542
 30
0.0
 11
41.848614
 21
-0.9378599999999999
 31
0.0
  0
LINE
  5
418
330
1F
100
AcDbEntity
  8
1
  6
CONTINUOUS
370
50
 62
4
100
AcDbLine
 10
42.618244
 20
-1.369161
 30
0.0
 11
42.234219
 21
-1.155542
 31
0.0
  0
LINE
  5
419
330
1F
100
AcDbEntity
  8
1
  6
CONTINUOUS
370
50
 62
4
100
AcDbLine
 10
42.999165
 20
-1.5772
 30
0.0
 11
42.618244
 21
-1.369161
 31
0.0
  0
LINE
  5
41A
330
1F
100
AcDbEntity
  8
1
  6
CONTINUOUS
370
50
 62
4
100
AcDbLine
 10
43.378456
 20
-1.778472
 30
0.0
 11
42.999165
 21
-1.5772
 31
0.0
  0
LINE
  5
41B
330
1F
100
AcDbEntity
  8
1
  6
CONTINUOUS
370
50
 62
4
100
AcDbLine
 10
52.999565
 20
-3.199105
 30
0.0
 11
52.999424
 21
-3.199031
 31
0.0
  0
LINE
  5
41C
330
1F
100
AcDbEntity
  8
1
  6
CONTINUOUS
370
50
 62
4
100
AcDbLine
 10
53.0
 20
-3.199326
 30
0.0
 11
52.99971
 21
-3.199178
 31
0.0
  0
LINE
  5
41D
330
1F
100
AcDbEntity
  8
1
  6
CONTINUOUS
370
50
 62
4
100
AcDbLine
 10
52.999424
 20
-3.199031
 30
0.0
 11
52.99927899999999
 21
-3.198957
 31
0.0
  0
LINE
  5
41E
330
1F
100
AcDbEntity
  8
1
  6
CONTINUOUS
370
50
 62
4
100
AcDbLine
 10
43.748917
 20
-1.966584
 30
0.0
 11
43.378456
 21
-1.778472
 31
0.0
  0
LINE
  5
41F
330
1F
100
AcDbEntity
  8
1
  6
CONTINUOUS
370
50
 62
4
100
AcDbLine
 10
52.99971
 20
-3.199178
 30
0.0
 11
52.999565
 21
-3.199105
 31
0.0
  0
LINE
  5
420
330
1F
100
AcDbEntity
  8
1
  6
CONTINUOUS
370
50
 62
4
100
AcDbLine
 10
52.99927899999999
 20
-3.198957
 30
0.0
 11
52.999134
 21
-3.198884
 31
0.0
  0
LINE
  5
421
330
1F
100
AcDbEntity
  8
1
  6
CONTINUOUS
370
50
 62
4
100
AcDbLine
 10
44.11517
 20
-2.140201
 30
0.0
 11
43.748917
 21
-1.966584
 31
0.0
  0
LINE
  5
422
330
1F
100
AcDbEntity
  8
1
  6
CONTINUOUS
370
50
 62
4
100
AcDbLine
 10
44.48696899999999
 20
1.346183
 30
0.0
 11
44.306385
 21
1.424844
 31
0.0
  0
LINE
  5
423
330
1F
100
AcDbEntity
  8
1
  6
CONTINUOUS
370
50
 62
4
100
AcDbLine
 10
44.48497
 20
-2.299513
 30
0.0
 11
44.11517
 21
-2.140201
 31
0.0
  0
LINE
  5
424
330
1F
100
AcDbEntity
  8
1
  6
CONTINUOUS
370
50
 62
4
100
AcDbLine
 10
44.306385
 20
1.424844
 30
0.0
 11
44.124763
 21
1.498691
 31
0.0
  0
LINE
  5
425
330
1F
100
AcDbEntity
  8
1
  6
CONTINUOUS
370
50
 62
4
100
AcDbLine
 10
44.124763
 20
1.498691
 30
0.0
 11
43.941952
 21
1.567681
 31
0.0
  0
LINE
  5
426
330
1F
100
AcDbEntity
  8
1
  6
CONTINUOUS
370
50
 62
4
100
AcDbLine
 10
48.185268
 20
0.0
 30
0.0
 11
48.099663
 21
0.031693
 31
0.0
  0
LINE
  5
427
330
1F
100
AcDbEntity
  8
1
  6
CONTINUOUS
370
50
 62
4
100
AcDbLine
 10
48.099663
 20
0.031693
 30
0.0
 11
48.013878
 21
0.062869
 31
0.0
  0
LINE
  5
428
330
1F
100
AcDbEntity
  8
1
  6
CONTINUOUS
370
50
 62
4
100
AcDbLine
 10
48.013878
 20
0.062869
 30
0.0
 11
47.928089
 21
0.094031
 31
0.0
  0
LINE
  5
429
330
1F
100
AcDbEntity
  8
1
  6
CONTINUOUS
370
50
 62
4
100
AcDbLine
 10
49.056461
 20
-0.315982
 30
0.0
 11
48.620705
 21
-0.157774
 31
0.0
  0
LINE
  5
42A
330
1F
100
AcDbEntity
  8
1
  6
CONTINUOUS
370
50
 62
4
100
AcDbLine
 10
47.928089
 20
0.094031
 30
0.0
 11
47.84229699999999
 21
0.125177
 31
0.0
  0
LINE
  5
42B
330
1F
100
AcDbEntity
  8
1
  6
CONTINUOUS
370
50
 62
4
100
AcDbLine
 10
65.977226
 20
-0.190651
 30
0.0
 11
65.049866
 21
0.145918
 31
0.0
  0
LINE
  5
42C
330
1F
100
AcDbEntity
  8
1
  6
CONTINUOUS
370
50
 62
4
100
AcDbLine
 10
65.998085
 20
-0.198219
 30
0.0
 11
65.977226
 21
-0.190651
 31
0.0
  0
LINE
  5
42D
330
1F
100
AcDbEntity
  8
1
  6
CONTINUOUS
370
50
 62
4
100
AcDbLine
 10
47.84229699999999
 20
0.125177
 30
0.0
 11
47.756496
 21
0.156304
 31
0.0
  0
LINE
  5
42E
330
1F
100
AcDbEntity
  8
1
  6
CONTINUOUS
370
50
 62
4
100
AcDbLine
 10
66.01894399999999
 20
-0.205786
 30
0.0
 11
65.998085
 21
-0.198219
 31
0.0
  0
LINE
  5
42F
330
1F
100
AcDbEntity
  8
1
  6
CONTINUOUS
370
50
 62
4
100
AcDbLine
 10
66.03981
 20
-0.213352
 30
0.0
 11
66.01894399999999
 21
-0.205786
 31
0.0
  0
LINE
  5
430
330
1F
100
AcDbEntity
  8
1
  6
CONTINUOUS
370
50
 62
4
100
AcDbLine
 10
66.060677
 20
-0.220918
 30
0.0
 11
66.03981
 21
-0.213352
 31
0.0
  0
LINE
  5
431
330
1F
100
AcDbEntity
  8
1
  6
CONTINUOUS
370
50
 62
4
100
AcDbLine
 10
66.081543
 20
-0.228483
 30
0.0
 11
66.060677
 21
-0.220918
 31
0.0
  0
LINE
  5
432
330
1F
100
AcDbEntity
  8
1
  6
CONTINUOUS
370
50
 62
4
100
AcDbLine
 10
47.756496
 20
0.156304
 30
0.0
 11
47.67068099999999
 21
0.187411
 31
0.0
  0
LINE
  5
433
330
1F
100
AcDbEntity
  8
1
  6
CONTINUOUS
370
50
 62
4
100
AcDbLine
 10
48.620705
 20
-0.157774
 30
0.0
 11
48.185268
 21
0.0
 31
0.0
  0
LINE
  5
434
330
1F
100
AcDbEntity
  8
1
  6
CONTINUOUS
370
50
 62
4
100
AcDbLine
 10
66.102417
 20
-0.236046
 30
0.0
 11
66.081543
 21
-0.228483
 31
0.0
  0
LINE
  5
435
330
1F
100
AcDbEntity
  8
1
  6
CONTINUOUS
370
50
 62
4
100
AcDbLine
 10
49.493126
 20
-0.473812
 30
0.0
 11
49.056461
 21
-0.315982
 31
0.0
  0
LINE
  5
436
330
1F
100
AcDbEntity
  8
1
  6
CONTINUOUS
370
50
 62
4
100
AcDbLine
 10
47.67068099999999
 20
0.187411
 30
0.0
 11
47.128975
 21
0.382981
 31
0.0
  0
LINE
  5
437
330
1F
100
AcDbEntity
  8
1
  6
CONTINUOUS
370
50
 62
4
100
AcDbLine
 10
65.049866
 20
0.145918
 30
0.0
 11
64.117836
 21
0.481026
 31
0.0
  0
LINE
  5
438
330
1F
100
AcDbEntity
  8
1
  6
CONTINUOUS
370
50
 62
4
100
AcDbLine
 10
49.930927
 20
-0.630888
 30
0.0
 11
49.493126
 21
-0.473812
 31
0.0
  0
LINE
  5
439
330
1F
100
AcDbEntity
  8
1
  6
CONTINUOUS
370
50
 62
4
100
AcDbLine
 10
47.128975
 20
0.382981
 30
0.0
 11
46.585922
 21
0.57704
 31
0.0
  0
LINE
  5
43A
330
1F
100
AcDbEntity
  8
1
  6
CONTINUOUS
370
50
 62
4
100
AcDbLine
 10
64.117836
 20
0.481026
 30
0.0
 11
63.18707999999999
 21
0.812344
 31
0.0
  0
LINE
  5
43B
330
1F
100
AcDbEntity
  8
1
  6
CONTINUOUS
370
50
 62
4
100
AcDbLine
 10
50.369099
 20
-0.7863399999999999
 30
0.0
 11
49.930927
 21
-0.630888
 31
0.0
  0
LINE
  5
43C
330
1F
100
AcDbEntity
  8
1
  6
CONTINUOUS
370
50
 62
4
100
AcDbLine
 10
46.585922
 20
0.57704
 30
0.0
 11
46.055962
 21
0.7644599999999999
 31
0.0
  0
LINE
  5
43D
330
1F
100
AcDbEntity
  8
1
  6
CONTINUOUS
370
50
 62
4
100
AcDbLine
 10
46.055962
 20
0.7644599999999999
 30
0.0
 11
45.53281
 21
0.948676
 31
0.0
  0
LINE
  5
43E
330
1F
100
AcDbEntity
  8
1
  6
CONTINUOUS
370
50
 62
4
100
AcDbLine
 10
50.807495
 20
-0.9397909999999999
 30
0.0
 11
50.369099
 21
-0.7863399999999999
 31
0.0
  0
LINE
  5
43F
330
1F
100
AcDbEntity
  8
1
  6
CONTINUOUS
370
50
 62
4
100
AcDbLine
 10
63.18707999999999
 20
0.812344
 30
0.0
 11
62.265209
 21
1.13422
 31
0.0
  0
LINE
  5
440
330
1F
100
AcDbEntity
  8
1
  6
CONTINUOUS
370
50
 62
4
100
AcDbLine
 10
66.226906
 20
-0.279468
 30
0.0
 11
66.102417
 21
-0.236047
 31
0.0
  0
LINE
  5
441
330
1F
100
AcDbEntity
  8
1
  6
CONTINUOUS
370
50
 62
4
100
AcDbLine
 10
45.53281
 20
0.948676
 30
0.0
 11
45.01053599999999
 21
1.13065
 31
0.0
  0
LINE
  5
442
330
1F
100
AcDbEntity
  8
1
  6
CONTINUOUS
370
50
 62
4
100
AcDbLine
 10
43.941952
 20
1.567681
 30
0.0
 11
43.757805
 21
1.631773
 31
0.0
  0
LINE
  5
443
330
1F
100
AcDbEntity
  8
1
  6
CONTINUOUS
370
50
 62
4
100
AcDbLine
 10
70.0
 20
-0.291387
 30
0.0
 11
67.033318
 21
0.7330949999999999
 31
0.0
  0
LINE
  5
444
330
1F
100
AcDbEntity
  8
1
  6
CONTINUOUS
370
50
 62
4
100
AcDbLine
 10
51.24523199999999
 20
-1.090904
 30
0.0
 11
50.807495
 21
-0.9397909999999999
 31
0.0
  0
LINE
  5
445
330
1F
100
AcDbEntity
  8
1
  6
CONTINUOUS
370
50
 62
4
100
AcDbLine
 10
45.01053599999999
 20
1.13065
 30
0.0
 11
44.48696899999999
 21
1.309879
 31
0.0
  0
LINE
  5
446
330
1F
100
AcDbEntity
  8
1
  6
CONTINUOUS
370
50
 62
4
100
AcDbLine
 10
51.682663
 20
-1.239196
 30
0.0
 11
51.24523199999999
 21
-1.090904
 31
0.0
  0
LINE
  5
447
330
1F
100
AcDbEntity
  8
1
  6
CONTINUOUS
370
50
 62
4
100
AcDbLine
 10
62.265209
 20
1.13422
 30
0.0
 11
61.345135
 21
1.44264
 31
0.0
  0
LINE
  5
448
330
1F
100
AcDbEntity
  8
1
  6
CONTINUOUS
370
50
 62
4
100
AcDbLine
 10
52.120853
 20
-1.384378
 30
0.0
 11
51.682663
 21
-1.239196
 31
0.0
  0
LINE
  5
449
330
1F
100
AcDbEntity
  8
1
  6
CONTINUOUS
370
50
 62
4
100
AcDbLine
 10
66.344818
 20
-0.318433
 30
0.0
 11
66.226906
 21
-0.279468
 31
0.0
  0
LINE
  5
44A
330
1F
100
AcDbEntity
  8
1
  6
CONTINUOUS
370
50
 62
4
100
AcDbLine
 10
52.560104
 20
-1.526098
 30
0.0
 11
52.120853
 21
-1.384378
 31
0.0
  0
LINE
  5
44B
330
1F
100
AcDbEntity
  8
1
  6
CONTINUOUS
370
50
 62
4
100
AcDbLine
 10
43.757805
 20
1.631773
 30
0.0
 11
43.572166
 21
1.690923
 31
0.0
  0
LINE
  5
44C
330
1F
100
AcDbEntity
  8
1
  6
CONTINUOUS
370
50
 62
4
100
AcDbLine
 10
61.345135
 20
1.44264
 30
0.0
 11
60.416706
 21
1.735108
 31
0.0
  0
LINE
  5
44D
330
1F
100
AcDbEntity
  8
1
  6
CONTINUOUS
370
50
 62
4
100
AcDbLine
 10
52.999134
 20
-1.664359
 30
0.0
 11
52.560104
 21
-1.526098
 31
0.0
  0
LINE
  5
44E
330
1F
100
AcDbEntity
  8
1
  6
CONTINUOUS
370
50
 62
4
100
AcDbLine
 10
66.456238
 20
-0.353124
 30
0.0
 11
66.344818
 21
-0.318433
 31
0.0
  0
LINE
  5
44F
330
1F
100
AcDbEntity
  8
1
  6
CONTINUOUS
370
50
 62
4
100
AcDbLine
 10
53.485664
 20
-1.813855
 30
0.0
 11
53.0
 21
-1.664673
 31
0.0
  0
LINE
  5
450
330
1F
100
AcDbEntity
  8
1
  6
CONTINUOUS
370
50
 62
4
100
AcDbLine
 10
53.96857499999999
 20
-1.957468
 30
0.0
 11
53.485664
 21
-1.813855
 31
0.0
  0
LINE
  5
451
330
1F
100
AcDbEntity
  8
1
  6
CONTINUOUS
370
50
 62
4
100
AcDbLine
 10
60.416706
 20
1.735108
 30
0.0
 11
59.480843
 21
2.011042
 31
0.0
  0
LINE
  5
452
330
1F
100
AcDbEntity
  8
1
  6
CONTINUOUS
370
50
 62
4
100
AcDbLine
 10
66.561264
 20
-0.383722
 30
0.0
 11
66.456238
 21
-0.353124
 31
0.0
  0
LINE
  5
453
330
1F
100
AcDbEntity
  8
1
  6
CONTINUOUS
370
50
 62
4
100
AcDbLine
 10
43.572166
 20
1.690923
 30
0.0
 11
43.384892
 21
1.745088
 31
0.0
  0
LINE
  5
454
330
1F
100
AcDbEntity
  8
1
  6
CONTINUOUS
370
50
 62
4
100
AcDbLine
 10
54.450157
 20
-2.095223
 30
0.0
 11
53.96857499999999
 21
-1.957468
 31
0.0
  0
LINE
  5
455
330
1F
100
AcDbEntity
  8
1
  6
CONTINUOUS
370
50
 62
4
100
AcDbLine
 10
59.480843
 20
2.011042
 30
0.0
 11
58.548023
 21
2.26702
 31
0.0
  0
LINE
  5
456
330
1F
100
AcDbEntity
  8
1
  6
CONTINUOUS
370
50
 62
4
100
AcDbLine
 10
54.931831
 20
-2.226835
 30
0.0
 11
54.450157
 21
-2.095223
 31
0.0
  0
LINE
  5
457
330
1F
100
AcDbEntity
  8
1
  6
CONTINUOUS
370
50
 62
4
100
AcDbLine
 10
66.660011
 20
-0.410405
 30
0.0
 11
66.561264
 21
-0.383722
 31
0.0
  0
LINE
  5
458
330
1F
100
AcDbEntity
  8
1
  6
CONTINUOUS
370
50
 62
4
100
AcDbLine
 10
70.0
 20
2.099351
 30
0.0
 11
69.292442
 21
2.288941
 31
0.0
  0
LINE
  5
459
330
1F
100
AcDbEntity
  8
1
  6
CONTINUOUS
370
50
 62
4
100
AcDbLine
 10
39.0
 20
3.25
 30
0.0
 11
36.200001
 21
4.0
 31
0.0
  0
LINE
  5
45A
330
1F
100
AcDbEntity
  8
1
  6
CONTINUOUS
370
50
 62
4
100
AcDbLine
 10
43.384892
 20
1.745088
 30
0.0
 11
43.195827
 21
1.794225
 31
0.0
  0
LINE
  5
45B
330
1F
100
AcDbEntity
  8
1
  6
CONTINUOUS
370
50
 62
4
100
AcDbLine
 10
55.415028
 20
-2.352016
 30
0.0
 11
54.931831
 21
-2.226835
 31
0.0
  0
LINE
  5
45C
330
1F
100
AcDbEntity
  8
1
  6
CONTINUOUS
370
50
 62
4
100
AcDbLine
 10
58.548023
 20
2.26702
 30
0.0
 11
57.613319
 21
2.498998
 31
0.0
  0
LINE
  5
45D
330
1F
100
AcDbEntity
  8
1
  6
CONTINUOUS
370
50
 62
4
100
AcDbLine
 10
66.752563
 20
-0.433353
 30
0.0
 11
66.660011
 21
-0.410405
 31
0.0
  0
LINE
  5
45E
330
1F
100
AcDbEntity
  8
1
  6
CONTINUOUS
370
50
 62
4
100
AcDbLine
 10
69.292442
 20
2.288941
 30
0.0
 11
68.58841699999999
 21
2.463497
 31
0.0
  0
LINE
  5
45F
330
1F
100
AcDbEntity
  8
1
  6
CONTINUOUS
370
50
 62
4
100
AcDbLine
 10
45.35090599999999
 20
-2.533979
 30
0.0
 11
44.48497
 21
-2.321224
 31
0.0
  0
LINE
  5
460
330
1F
100
AcDbEntity
  8
1
  6
CONTINUOUS
370
50
 62
4
100
AcDbLine
 10
55.901096
 20
-2.470448
 30
0.0
 11
55.415028
 21
-2.352016
 31
0.0
  0
LINE
  5
461
330
1F
100
AcDbEntity
  8
1
  6
CONTINUOUS
370
50
 62
4
100
AcDbLine
 10
43.195827
 20
1.794225
 30
0.0
 11
43.004829
 21
1.838293
 31
0.0
  0
LINE
  5
462
330
1F
100
AcDbEntity
  8
1
  6
CONTINUOUS
370
50
 62
4
100
AcDbLine
 10
56.389767
 20
-2.581534
 30
0.0
 11
55.901096
 21
-2.470448
 31
0.0
  0
LINE
  5
463
330
1F
100
AcDbEntity
  8
1
  6
CONTINUOUS
370
50
 62
4
100
AcDbLine
 10
68.58841699999999
 20
2.463497
 30
0.0
 11
67.88655899999999
 21
2.622364
 31
0.0
  0
LINE
  5
464
330
1F
100
AcDbEntity
  8
1
  6
CONTINUOUS
370
50
 62
4
100
AcDbLine
 10
66.839027
 20
-0.452746
 30
0.0
 11
66.752563
 21
-0.433353
 31
0.0
  0
LINE
  5
465
330
1F
100
AcDbEntity
  8
1
  6
CONTINUOUS
370
50
 62
4
100
AcDbLine
 10
57.613319
 20
2.498998
 30
0.0
 11
56.676598
 21
2.702188
 31
0.0
  0
LINE
  5
466
330
1F
100
AcDbEntity
  8
1
  6
CONTINUOUS
370
50
 62
4
100
AcDbLine
 10
46.21859
 20
-2.719785
 30
0.0
 11
45.35090599999999
 21
-2.533979
 31
0.0
  0
LINE
  5
467
330
1F
100
AcDbEntity
  8
1
  6
CONTINUOUS
370
50
 62
4
100
AcDbLine
 10
56.879543
 20
-2.684996
 30
0.0
 11
56.389767
 21
-2.581534
 31
0.0
  0
LINE
  5
468
330
1F
100
AcDbEntity
  8
1
  6
CONTINUOUS
370
50
 62
4
100
AcDbLine
 10
67.88655899999999
 20
2.622364
 30
0.0
 11
67.185501
 21
2.764887
 31
0.0
  0
LINE
  5
469
330
1F
100
AcDbEntity
  8
1
  6
CONTINUOUS
370
50
 62
4
100
AcDbLine
 10
43.004829
 20
1.838293
 30
0.0
 11
42.811741
 21
1.877247
 31
0.0
  0
LINE
  5
46A
330
1F
100
AcDbEntity
  8
1
  6
CONTINUOUS
370
50
 62
4
100
AcDbLine
 10
66.91982999999999
 20
-0.468824
 30
0.0
 11
66.839027
 21
-0.452746
 31
0.0
  0
LINE
  5
46B
330
1F
100
AcDbEntity
  8
1
  6
CONTINUOUS
370
50
 62
4
100
AcDbLine
 10
57.368969
 20
-2.780661
 30
0.0
 11
56.879543
 21
-2.684996
 31
0.0
  0
LINE
  5
46C
330
1F
100
AcDbEntity
  8
1
  6
CONTINUOUS
370
50
 62
4
100
AcDbLine
 10
56.676598
 20
2.702188
 30
0.0
 11
55.746197
 21
2.873964
 31
0.0
  0
LINE
  5
46D
330
1F
100
AcDbEntity
  8
1
  6
CONTINUOUS
370
50
 62
4
100
AcDbLine
 10
47.085384
 20
-2.878142
 30
0.0
 11
46.21859
 21
-2.719785
 31
0.0
  0
LINE
  5
46E
330
1F
100
AcDbEntity
  8
1
  6
CONTINUOUS
370
50
 62
4
100
AcDbLine
 10
57.856602
 20
-2.868318
 30
0.0
 11
57.368969
 21
-2.780661
 31
0.0
  0
LINE
  5
46F
330
1F
100
AcDbEntity
  8
1
  6
CONTINUOUS
370
50
 62
4
100
AcDbLine
 10
67.185501
 20
2.764887
 30
0.0
 11
66.483879
 21
2.890412
 31
0.0
  0
LINE
  5
470
330
1F
100
AcDbEntity
  8
1
  6
CONTINUOUS
370
50
 62
4
100
AcDbLine
 10
42.811741
 20
1.877247
 30
0.0
 11
42.616737
 21
1.910999
 31
0.0
  0
LINE
  5
471
330
1F
100
AcDbEntity
  8
1
  6
CONTINUOUS
370
50
 62
4
100
AcDbLine
 10
66.999901
 20
-0.482479
 30
0.0
 11
66.91982999999999
 21
-0.468824
 31
0.0
  0
LINE
  5
472
330
1F
100
AcDbEntity
  8
1
  6
CONTINUOUS
370
50
 62
4
100
AcDbLine
 10
58.342144
 20
-2.947428
 30
0.0
 11
57.856602
 21
-2.868318
 31
0.0
  0
LINE
  5
473
330
1F
100
AcDbEntity
  8
1
  6
CONTINUOUS
370
50
 62
4
100
AcDbLine
 10
55.746197
 20
2.873964
 30
0.0
 11
54.830025
 21
3.014642
 31
0.0
  0
LINE
  5
474
330
1F
100
AcDbEntity
  8
1
  6
CONTINUOUS
370
50
 62
4
100
AcDbLine
 10
66.483879
 20
2.890412
 30
0.0
 11
65.780334
 21
2.998285
 31
0.0
  0
LINE
  5
475
330
1F
100
AcDbEntity
  8
1
  6
CONTINUOUS
370
50
 62
4
100
AcDbLine
 10
47.948212
 20
-3.01004
 30
0.0
 11
47.085384
 21
-2.878142
 31
0.0
  0
LINE
  5
476
330
1F
100
AcDbEntity
  8
1
  6
CONTINUOUS
370
50
 62
4
100
AcDbLine
 10
42.616737
 20
1.910999
 30
0.0
 11
42.424805
 21
1.938867
 31
0.0
  0
LINE
  5
477
330
1F
100
AcDbEntity
  8
1
  6
CONTINUOUS
370
50
 62
4
100
AcDbLine
 10
58.826973
 20
-3.017744
 30
0.0
 11
58.342144
 21
-2.947428
 31
0.0
  0
LINE
  5
478
330
1F
100
AcDbEntity
  8
1
  6
CONTINUOUS
370
50
 62
4
100
AcDbLine
 10
67.079987
 20
-0.493453
 30
0.0
 11
66.999901
 21
-0.482479
 31
0.0
  0
LINE
  5
479
330
1F
100
AcDbEntity
  8
1
  6
CONTINUOUS
370
50
 62
4
100
AcDbLine
 10
65.780334
 20
2.998285
 30
0.0
 11
65.073494
 21
3.08785
 31
0.0
  0
LINE
  5
47A
330
1F
100
AcDbEntity
  8
1
  6
CONTINUOUS
370
50
 62
4
100
AcDbLine
 10
59.312599
 20
-3.079113
 30
0.0
 11
58.826973
 21
-3.017744
 31
0.0
  0
LINE
  5
47B
330
1F
100
AcDbEntity
  8
1
  6
CONTINUOUS
370
50
 62
4
100
AcDbLine
 10
48.81144
 20
-3.114194
 30
0.0
 11
47.948212
 21
-3.01004
 31
0.0
  0
LINE
  5
47C
330
1F
100
AcDbEntity
  8
1
  6
CONTINUOUS
370
50
 62
4
100
AcDbLine
 10
54.830025
 20
3.014642
 30
0.0
 11
53.918072
 21
3.123562
 31
0.0
  0
LINE
  5
47D
330
1F
100
AcDbEntity
  8
1
  6
CONTINUOUS
370
50
 62
4
100
AcDbLine
 10
42.424805
 20
1.938867
 30
0.0
 11
42.237846
 21
1.960897
 31
0.0
  0
LINE
  5
47E
330
1F
100
AcDbEntity
  8
1
  6
CONTINUOUS
370
50
 62
4
100
AcDbLine
 10
59.800316
 20
-3.131315
 30
0.0
 11
59.312599
 21
-3.079113
 31
0.0
  0
LINE
  5
47F
330
1F
100
AcDbEntity
  8
1
  6
CONTINUOUS
370
50
 62
4
100
AcDbLine
 10
65.073494
 20
3.08785
 30
0.0
 11
64.362854
 21
3.15835
 31
0.0
  0
LINE
  5
480
330
1F
100
AcDbEntity
  8
1
  6
CONTINUOUS
370
50
 62
4
100
AcDbLine
 10
67.158936
 20
-0.501088
 30
0.0
 11
67.079987
 21
-0.493453
 31
0.0
  0
LINE
  5
481
330
1F
100
AcDbEntity
  8
1
  6
CONTINUOUS
370
50
 62
4
100
AcDbLine
 10
42.237846
 20
1.960897
 30
0.0
 11
42.056042
 21
1.977422
 31
0.0
  0
LINE
  5
482
330
1F
100
AcDbEntity
  8
1
  6
CONTINUOUS
370
50
 62
4
100
AcDbLine
 10
60.28963899999999
 20
-3.174101
 30
0.0
 11
59.800316
 21
-3.131315
 31
0.0
  0
LINE
  5
483
330
1F
100
AcDbEntity
  8
1
  6
CONTINUOUS
370
50
 62
4
100
AcDbLine
 10
49.673542
 20
-3.189342
 30
0.0
 11
48.81144
 21
-3.114194
 31
0.0
  0
LINE
  5
484
330
1F
100
AcDbEntity
  8
1
  6
CONTINUOUS
370
50
 62
4
100
AcDbLine
 10
53.918072
 20
3.123562
 30
0.0
 11
53.0
 21
3.199746
 31
0.0
  0
LINE
  5
485
330
1F
100
AcDbEntity
  8
1
  6
CONTINUOUS
370
50
 62
4
100
AcDbLine
 10
64.362854
 20
3.15835
 30
0.0
 11
63.652721
 21
3.209291
 31
0.0
  0
LINE
  5
486
330
1F
100
AcDbEntity
  8
1
  6
CONTINUOUS
370
50
 62
4
100
AcDbLine
 10
60.779232
 20
-3.207442
 30
0.0
 11
60.28963899999999
 21
-3.174101
 31
0.0
  0
LINE
  5
487
330
1F
100
AcDbEntity
  8
1
  6
CONTINUOUS
370
50
 62
4
100
AcDbLine
 10
42.056042
 20
1.977422
 30
0.0
 11
41.879578
 21
1.988773
 31
0.0
  0
LINE
  5
488
330
1F
100
AcDbEntity
  8
1
  6
CONTINUOUS
370
50
 62
4
100
AcDbLine
 10
52.999134
 20
3.198884
 30
0.0
 11
52.732353
 21
3.214551
 31
0.0
  0
LINE
  5
489
330
1F
100
AcDbEntity
  8
1
  6
CONTINUOUS
370
50
 62
4
100
AcDbLine
 10
50.537022
 20
-3.234766
 30
0.0
 11
49.673542
 21
-3.189342
 31
0.0
  0
LINE
  5
48A
330
1F
100
AcDbEntity
  8
1
  6
CONTINUOUS
370
50
 62
4
100
AcDbLine
 10
61.26773799999999
 20
-3.231316
 30
0.0
 11
60.779232
 21
-3.207442
 31
0.0
  0
LINE
  5
48B
330
1F
100
AcDbEntity
  8
1
  6
CONTINUOUS
370
50
 62
4
100
AcDbLine
 10
52.732353
 20
3.214551
 30
0.0
 11
52.465279
 21
3.227348
 31
0.0
  0
LINE
  5
48C
330
1F
100
AcDbEntity
  8
1
  6
CONTINUOUS
370
50
 62
4
100
AcDbLine
 10
67.235626
 20
-0.504729
 30
0.0
 11
67.158936
 21
-0.501088
 31
0.0
  0
LINE
  5
48D
330
1F
100
AcDbEntity
  8
1
  6
CONTINUOUS
370
50
 62
4
100
AcDbLine
 10
63.652721
 20
3.209291
 30
0.0
 11
62.944107
 21
3.24015
 31
0.0
  0
LINE
  5
48E
330
1F
100
AcDbEntity
  8
1
  6
CONTINUOUS
370
50
 62
4
100
AcDbLine
 10
41.879578
 20
1.988773
 30
0.0
 11
41.708645
 21
1.995282
 31
0.0
  0
LINE
  5
48F
330
1F
100
AcDbEntity
  8
1
  6
CONTINUOUS
370
50
 62
4
100
AcDbLine
 10
52.465279
 20
3.227348
 30
0.0
 11
52.198269
 21
3.237283
 31
0.0
  0
LINE
  5
490
330
1F
100
AcDbEntity
  8
1
  6
CONTINUOUS
370
50
 62
4
100
AcDbLine
 10
61.753906
 20
-3.245684
 30
0.0
 11
61.26773799999999
 21
-3.231316
 31
0.0
  0
LINE
  5
491
330
1F
100
AcDbEntity
  8
1
  6
CONTINUOUS
370
50
 62
4
100
AcDbLine
 10
52.198269
 20
3.237283
 30
0.0
 11
51.931698
 21
3.24437
 31
0.0
  0
LINE
  5
492
330
1F
100
AcDbEntity
  8
1
  6
CONTINUOUS
370
50
 62
4
100
AcDbLine
 10
51.400105
 20
-3.249996
 30
0.0
 11
50.537022
 21
-3.234766
 31
0.0
  0
LINE
  5
493
330
1F
100
AcDbEntity
  8
1
  6
CONTINUOUS
370
50
 62
4
100
AcDbLine
 10
51.931698
 20
3.24437
 30
0.0
 11
51.665707
 21
3.248611
 31
0.0
  0
LINE
  5
494
330
1F
100
AcDbEntity
  8
1
  6
CONTINUOUS
370
50
 62
4
100
AcDbLine
 10
62.944107
 20
3.24015
 30
0.0
 11
62.237961
 21
3.250457
 31
0.0
  0
LINE
  5
495
330
1F
100
AcDbEntity
  8
1
  6
CONTINUOUS
370
50
 62
4
100
AcDbLine
 10
41.708645
 20
1.995282
 30
0.0
 11
41.543419
 21
1.997284
 31
0.0
  0
LINE
  5
496
330
1F
100
AcDbEntity
  8
1
  6
CONTINUOUS
370
50
 62
4
100
AcDbLine
 10
62.237961
 20
-3.250457
 30
0.0
 11
61.753906
 21
-3.245684
 31
0.0
  0
LINE
  5
497
330
1F
100
AcDbEntity
  8
1
  6
CONTINUOUS
370
50
 62
4
100
AcDbLine
 10
51.665707
 20
3.248611
 30
0.0
 11
51.399899
 21
3.249996
 31
0.0
  0
LINE
  5
498
330
1F
100
AcDbEntity
  8
1
  6
CONTINUOUS
370
50
 62
4
100
AcDbLine
 10
70.0
 20
3.25
 30
0.0
 11
62.237961
 21
3.250457
 31
0.0
  0
LINE
  5
499
330
1F
100
AcDbEntity
  8
1
  6
CONTINUOUS
370
50
 62
4
100
AcDbLine
 10
39.0
 20
-3.25
 30
0.0
 11
51.40398399999999
 21
-3.25
 31
0.0
  0
LINE
  5
49A
330
1F
100
AcDbEntity
  8
1
  6
CONTINUOUS
370
50
 62
4
100
AcDbLine
 10
39.0
 20
3.25
 30
0.0
 11
51.40398399999999
 21
3.25
 31
0.0
  0
LINE
  5
49B
330
1F
100
AcDbEntity
  8
1
  6
CONTINUOUS
370
50
 62
4
100
AcDbLine
 10
62.237961
 20
-3.250457
 30
0.0
 11
70.0
 21
-3.25
 31
0.0
  0
LINE
  5
49C
330
1F
100
AcDbEntity
  8
1
  6
CONTINUOUS
370
50
 62
4
100
AcDbLine
 10
51.400105
 20
-3.249996
 30
0.0
 11
51.665871
 21
-3.24861
 31
0.0
  0
LINE
  5
49D
330
1F
100
AcDbEntity
  8
1
  6
CONTINUOUS
370
50
 62
4
100
AcDbLine
 10
61.699566
 20
3.24455
 30
0.0
 11
62.237961
 21
3.250457
 31
0.0
  0
LINE
  5
49E
330
1F
100
AcDbEntity
  8
1
  6
CONTINUOUS
370
50
 62
4
100
AcDbLine
 10
41.384094
 20
1.995109
 30
0.0
 11
41.543419
 21
1.997284
 31
0.0
  0
LINE
  5
49F
330
1F
100
AcDbEntity
  8
1
  6
CONTINUOUS
370
50
 62
4
100
AcDbLine
 10
67.235626
 20
-0.504729
 30
0.0
 11
67.308899
 21
-0.50372
 31
0.0
  0
LINE
  5
4A0
330
1F
100
AcDbEntity
  8
1
  6
CONTINUOUS
370
50
 62
4
100
AcDbLine
 10
51.665871
 20
-3.24861
 30
0.0
 11
51.93181999999999
 21
-3.244367
 31
0.0
  0
LINE
  5
4A1
330
1F
100
AcDbEntity
  8
1
  6
CONTINUOUS
370
50
 62
4
100
AcDbLine
 10
51.93181999999999
 20
-3.244367
 30
0.0
 11
52.198353
 21
-3.237281
 31
0.0
  0
LINE
  5
4A2
330
1F
100
AcDbEntity
  8
1
  6
CONTINUOUS
370
50
 62
4
100
AcDbLine
 10
61.15843599999999
 20
3.22679
 30
0.0
 11
61.699566
 21
3.24455
 31
0.0
  0
LINE
  5
4A3
330
1F
100
AcDbEntity
  8
1
  6
CONTINUOUS
370
50
 62
4
100
AcDbLine
 10
52.198353
 20
-3.237281
 30
0.0
 11
52.465328
 21
-3.227345
 31
0.0
  0
LINE
  5
4A4
330
1F
100
AcDbEntity
  8
1
  6
CONTINUOUS
370
50
 62
4
100
AcDbLine
 10
41.230846
 20
1.98909
 30
0.0
 11
41.384094
 21
1.995109
 31
0.0
  0
LINE
  5
4A5
330
1F
100
AcDbEntity
  8
1
  6
CONTINUOUS
370
50
 62
4
100
AcDbLine
 10
52.465328
 20
-3.227345
 30
0.0
 11
52.732376
 21
-3.21455
 31
0.0
  0
LINE
  5
4A6
330
1F
100
AcDbEntity
  8
1
  6
CONTINUOUS
370
50
 62
4
100
AcDbLine
 10
60.614723
 20
3.19729
 30
0.0
 11
61.15843599999999
 21
3.22679
 31
0.0
  0
LINE
  5
4A7
330
1F
100
AcDbEntity
  8
1
  6
CONTINUOUS
370
50
 62
4
100
AcDbLine
 10
67.033318
 20
0.7330949999999999
 30
0.0
 11
67.214745
 21
0.743405
 31
0.0
  0
LINE
  5
4A8
330
1F
100
AcDbEntity
  8
1
  6
CONTINUOUS
370
50
 62
4
100
AcDbLine
 10
52.732376
 20
-3.21455
 30
0.0
 11
52.999134
 21
-3.198884
 31
0.0
  0
LINE
  5
4A9
330
1F
100
AcDbEntity
  8
1
  6
CONTINUOUS
370
50
 62
4
100
AcDbLine
 10
67.214745
 20
0.743405
 30
0.0
 11
67.393303
 21
0.754772
 31
0.0
  0
LINE
  5
4AA
330
1F
100
AcDbEntity
  8
1
  6
CONTINUOUS
370
50
 62
4
100
AcDbLine
 10
41.08387
 20
1.979559
 30
0.0
 11
41.230846
 21
1.98909
 31
0.0
  0
LINE
  5
4AB
330
1F
100
AcDbEntity
  8
1
  6
CONTINUOUS
370
50
 62
4
100
AcDbLine
 10
67.393303
 20
0.754772
 30
0.0
 11
67.568665
 21
0.767502
 31
0.0
  0
LINE
  5
4AC
330
1F
100
AcDbEntity
  8
1
  6
CONTINUOUS
370
50
 62
4
100
AcDbLine
 10
60.07023599999999
 20
3.156093
 30
0.0
 11
60.614723
 21
3.19729
 31
0.0
  0
LINE
  5
4AD
330
1F
100
AcDbEntity
  8
1
  6
CONTINUOUS
370
50
 62
4
100
AcDbLine
 10
53.0
 20
-3.199746
 30
0.0
 11
53.63644799999999
 21
-3.15056
 31
0.0
  0
LINE
  5
4AE
330
1F
100
AcDbEntity
  8
1
  6
CONTINUOUS
370
50
 62
4
100
AcDbLine
 10
67.568665
 20
0.767502
 30
0.0
 11
67.740509
 21
0.781598
 31
0.0
  0
LINE
  5
4AF
330
1F
100
AcDbEntity
  8
1
  6
CONTINUOUS
370
50
 62
4
100
AcDbLine
 10
40.942692
 20
1.966736
 30
0.0
 11
41.08387
 21
1.979559
 31
0.0
  0
LINE
  5
4B0
330
1F
100
AcDbEntity
  8
1
  6
CONTINUOUS
370
50
 62
4
100
AcDbLine
 10
67.740509
 20
0.781598
 30
0.0
 11
67.90851599999999
 21
0.7970609999999999
 31
0.0
  0
LINE
  5
4B1
330
1F
100
AcDbEntity
  8
1
  6
CONTINUOUS
370
50
 62
4
100
AcDbLine
 10
67.308899
 20
-0.50372
 30
0.0
 11
67.378273
 21
-0.49731
 31
0.0
  0
LINE
  5
4B2
330
1F
100
AcDbEntity
  8
1
  6
CONTINUOUS
370
50
 62
4
100
AcDbLine
 10
59.526825
 20
3.103228
 30
0.0
 11
60.07023599999999
 21
3.156093
 31
0.0
  0
LINE
  5
4B3
330
1F
100
AcDbEntity
  8
1
  6
CONTINUOUS
370
50
 62
4
100
AcDbLine
 10
67.90851599999999
 20
0.7970609999999999
 30
0.0
 11
68.072357
 21
0.813894
 31
0.0
  0
LINE
  5
4B4
330
1F
100
AcDbEntity
  8
1
  6
CONTINUOUS
370
50
 62
4
100
AcDbLine
 10
53.63644799999999
 20
-3.15056
 30
0.0
 11
54.26844
 21
-3.085553
 31
0.0
  0
LINE
  5
4B5
330
1F
100
AcDbEntity
  8
1
  6
CONTINUOUS
370
50
 62
4
100
AcDbLine
 10
68.072357
 20
0.813894
 30
0.0
 11
68.23170499999999
 21
0.832098
 31
0.0
  0
LINE
  5
4B6
330
1F
100
AcDbEntity
  8
1
  6
CONTINUOUS
370
50
 62
4
100
AcDbLine
 10
40.806263
 20
1.950596
 30
0.0
 11
40.942692
 21
1.966736
 31
0.0
  0
LINE
  5
4B7
330
1F
100
AcDbEntity
  8
1
  6
CONTINUOUS
370
50
 62
4
100
AcDbLine
 10
58.985996
 20
3.038854
 30
0.0
 11
59.526825
 21
3.103228
 31
0.0
  0
LINE
  5
4B8
330
1F
100
AcDbEntity
  8
1
  6
CONTINUOUS
370
50
 62
4
100
AcDbLine
 10
68.23170499999999
 20
0.832098
 30
0.0
 11
68.386253
 21
0.851676
 31
0.0
  0
LINE
  5
4B9
330
1F
100
AcDbEntity
  8
1
  6
CONTINUOUS
370
50
 62
4
100
AcDbLine
 10
54.26844
 20
-3.085553
 30
0.0
 11
54.899403
 21
-3.005049
 31
0.0
  0
LINE
  5
4BA
330
1F
100
AcDbEntity
  8
1
  6
CONTINUOUS
370
50
 62
4
100
AcDbLine
 10
58.446758
 20
2.963349
 30
0.0
 11
58.985996
 21
3.038854
 31
0.0
  0
LINE
  5
4BB
330
1F
100
AcDbEntity
  8
1
  6
CONTINUOUS
370
50
 62
4
100
AcDbLine
 10
68.386253
 20
0.851676
 30
0.0
 11
68.537308
 21
0.87286
 31
0.0
  0
LINE
  5
4BC
330
1F
100
AcDbEntity
  8
1
  6
CONTINUOUS
370
50
 62
4
100
AcDbLine
 10
40.674782
 20
1.931227
 30
0.0
 11
40.806263
 21
1.950596
 31
0.0
  0
LINE
  5
4BD
330
1F
100
AcDbEntity
  8
1
  6
CONTINUOUS
370
50
 62
4
100
AcDbLine
 10
54.899403
 20
-3.005049
 30
0.0
 11
55.532768
 21
-2.909373
 31
0.0
  0
LINE
  5
4BE
330
1F
100
AcDbEntity
  8
1
  6
CONTINUOUS
370
50
 62
4
100
AcDbLine
 10
68.537308
 20
0.87286
 30
0.0
 11
68.691536
 21
0.8968069999999999
 31
0.0
  0
LINE
  5
4BF
330
1F
100
AcDbEntity
  8
1
  6
CONTINUOUS
370
50
 62
4
100
AcDbLine
 10
57.907047
 20
2.876929
 30
0.0
 11
58.446758
 21
2.963349
 31
0.0
  0
LINE
  5
4C0
330
1F
100
AcDbEntity
  8
1
  6
CONTINUOUS
370
50
 62
4
100
AcDbLine
 10
68.691536
 20
0.8968069999999999
 30
0.0
 11
68.848114
 21
0.9238649999999999
 31
0.0
  0
LINE
  5
4C1
330
1F
100
AcDbEntity
  8
1
  6
CONTINUOUS
370
50
 62
4
100
AcDbLine
 10
55.532768
 20
-2.909373
 30
0.0
 11
56.171974
 21
-2.798844
 31
0.0
  0
LINE
  5
4C2
330
1F
100
AcDbEntity
  8
1
  6
CONTINUOUS
370
50
 62
4
100
AcDbLine
 10
40.548496
 20
1.908718
 30
0.0
 11
40.674782
 21
1.931227
 31
0.0
  0
LINE
  5
4C3
330
1F
100
AcDbEntity
  8
1
  6
CONTINUOUS
370
50
 62
4
100
AcDbLine
 10
57.36490999999999
 20
2.7799
 30
0.0
 11
57.907047
 21
2.876929
 31
0.0
  0
LINE
  5
4C4
330
1F
100
AcDbEntity
  8
1
  6
CONTINUOUS
370
50
 62
4
100
AcDbLine
 10
68.848114
 20
0.9238649999999999
 30
0.0
 11
69.005257
 21
0.954255
 31
0.0
  0
LINE
  5
4C5
330
1F
100
AcDbEntity
  8
1
  6
CONTINUOUS
370
50
 62
4
100
AcDbLine
 10
56.171974
 20
-2.798844
 30
0.0
 11
56.819244
 21
-2.673291
 31
0.0
  0
LINE
  5
4C6
330
1F
100
AcDbEntity
  8
1
  6
CONTINUOUS
370
50
 62
4
100
AcDbLine
 10
56.82059899999999
 20
2.672956
 30
0.0
 11
57.36490999999999
 21
2.7799
 31
0.0
  0
LINE
  5
4C7
330
1F
100
AcDbEntity
  8
1
  6
CONTINUOUS
370
50
 62
4
100
AcDbLine
 10
67.378273
 20
-0.49731
 30
0.0
 11
67.443367
 21
-0.484396
 31
0.0
  0
LINE
  5
4C8
330
1F
100
AcDbEntity
  8
1
  6
CONTINUOUS
370
50
 62
4
100
AcDbLine
 10
40.427635
 20
1.88316
 30
0.0
 11
40.548496
 21
1.908718
 31
0.0
  0
LINE
  5
4C9
330
1F
100
AcDbEntity
  8
1
  6
CONTINUOUS
370
50
 62
4
100
AcDbLine
 10
69.005257
 20
0.954255
 30
0.0
 11
69.16115599999999
 21
0.988196
 31
0.0
  0
LINE
  5
4CA
330
1F
100
AcDbEntity
  8
1
  6
CONTINUOUS
370
50
 62
4
100
AcDbLine
 10
69.16115599999999
 20
0.988196
 30
0.0
 11
69.314003
 21
1.02591
 31
0.0
  0
LINE
  5
4CB
330
1F
100
AcDbEntity
  8
1
  6
CONTINUOUS
370
50
 62
4
100
AcDbLine
 10
40.312447
 20
1.854643
 30
0.0
 11
40.427635
 21
1.88316
 31
0.0
  0
LINE
  5
4CC
330
1F
100
AcDbEntity
  8
1
  6
CONTINUOUS
370
50
 62
4
100
AcDbLine
 10
36.200001
 20
-4.0
 30
0.0
 11
39.0
 21
-3.25
 31
0.0
  0
LINE
  5
4CD
330
1F
100
AcDbEntity
  8
1
  6
CONTINUOUS
370
50
 62
4
100
AcDbLine
 10
69.314003
 20
1.02591
 30
0.0
 11
69.462006
 21
1.067615
 31
0.0
  0
LINE
  5
4CE
330
1F
100
AcDbEntity
  8
1
  6
CONTINUOUS
370
50
 62
4
100
AcDbLine
 10
40.203159
 20
1.823258
 30
0.0
 11
40.312447
 21
1.854643
 31
0.0
  0
LINE
  5
4CF
330
1F
100
AcDbEntity
  8
1
  6
CONTINUOUS
370
50
 62
4
100
AcDbLine
 10
69.462006
 20
1.067615
 30
0.0
 11
69.603714
 21
1.113662
 31
0.0
  0
LINE
  5
4D0
330
1F
100
AcDbEntity
  8
1
  6
CONTINUOUS
370
50
 62
4
100
AcDbLine
 10
40.100021
 20
1.789096
 30
0.0
 11
40.203159
 21
1.823258
 31
0.0
  0
LINE
  5
4D1
330
1F
100
AcDbEntity
  8
1
  6
CONTINUOUS
370
50
 62
4
100
AcDbLine
 10
67.443367
 20
-0.484396
 30
0.0
 11
67.502136
 21
-0.463833
 31
0.0
  0
LINE
  5
4D2
330
1F
100
AcDbEntity
  8
1
  6
CONTINUOUS
370
50
 62
4
100
AcDbLine
 10
69.603714
 20
1.113662
 30
0.0
 11
69.74273699999999
 21
1.166557
 31
0.0
  0
LINE
  5
4D3
330
1F
100
AcDbEntity
  8
1
  6
CONTINUOUS
370
50
 62
4
100
AcDbLine
 10
40.003075
 20
1.752166
 30
0.0
 11
40.100021
 21
1.789096
 31
0.0
  0
LINE
  5
4D4
330
1F
100
AcDbEntity
  8
1
  6
CONTINUOUS
370
50
 62
4
100
AcDbLine
 10
39.912373
 20
1.712435
 30
0.0
 11
40.003075
 21
1.752166
 31
0.0
  0
LINE
  5
4D5
330
1F
100
AcDbEntity
  8
1
  6
CONTINUOUS
370
50
 62
4
100
AcDbLine
 10
69.74273699999999
 20
1.166557
 30
0.0
 11
69.876541
 21
1.227589
 31
0.0
  0
LINE
  5
4D6
330
1F
100
AcDbEntity
  8
1
  6
CONTINUOUS
370
50
 62
4
100
AcDbLine
 10
52.999134
 20
3.198884
 30
0.0
 11
52.99927899999999
 21
3.198957
 31
0.0
  0
LINE
  5
4D7
330
1F
100
AcDbEntity
  8
1
  6
CONTINUOUS
370
50
 62
4
100
AcDbLine
 10
52.999565
 20
3.199105
 30
0.0
 11
52.99971
 21
3.199178
 31
0.0
  0
LINE
  5
4D8
330
1F
100
AcDbEntity
  8
1
  6
CONTINUOUS
370
50
 62
4
100
AcDbLine
 10
39.828194
 20
1.669934
 30
0.0
 11
39.912373
 21
1.712435
 31
0.0
  0
LINE
  5
4D9
330
1F
100
AcDbEntity
  8
1
  6
CONTINUOUS
370
50
 62
4
100
AcDbLine
 10
52.99927899999999
 20
3.198957
 30
0.0
 11
52.999424
 21
3.199031
 31
0.0
  0
LINE
  5
4DA
330
1F
100
AcDbEntity
  8
1
  6
CONTINUOUS
370
50
 62
4
100
AcDbLine
 10
52.99971
 20
3.199178
 30
0.0
 11
53.0
 21
3.199326
 31
0.0
  0
LINE
  5
4DB
330
1F
100
AcDbEntity
  8
1
  6
CONTINUOUS
370
50
 62
4
100
AcDbLine
 10
52.999424
 20
3.199031
 30
0.0
 11
52.999565
 21
3.199105
 31
0.0
  0
LINE
  5
4DC
330
1F
100
AcDbEntity
  8
1
  6
CONTINUOUS
370
50
 62
4
100
AcDbLine
 10
69.876541
 20
1.227589
 30
0.0
 11
70.0
 21
1.297274
 31
0.0
  0
LINE
  5
4DD
330
1F
100
AcDbEntity
  8
1
  6
CONTINUOUS
370
50
 62
4
100
AcDbLine
 10
67.502136
 20
-0.463833
 30
0.0
 11
67.552216
 21
-0.434701
 31
0.0
  0
LINE
  5
4DE
330
1F
100
AcDbEntity
  8
1
  6
CONTINUOUS
370
50
 62
4
100
AcDbLine
 10
39.750816
 20
1.624695
 30
0.0
 11
39.828194
 21
1.669934
 31
0.0
  0
LINE
  5
4DF
330
1F
100
AcDbEntity
  8
1
  6
CONTINUOUS
370
50
 62
4
100
AcDbLine
 10
39.680511
 20
1.57675
 30
0.0
 11
39.750816
 21
1.624695
 31
0.0
  0
LINE
  5
4E0
330
1F
100
AcDbEntity
  8
1
  6
CONTINUOUS
370
50
 62
4
100
AcDbLine
 10
39.615959
 20
1.52471
 30
0.0
 11
39.680511
 21
1.57675
 31
0.0
  0
LINE
  5
4E1
330
1F
100
AcDbEntity
  8
1
  6
CONTINUOUS
370
50
 62
4
100
AcDbLine
 10
67.552216
 20
-0.434701
 30
0.0
 11
67.591393
 21
-0.396577
 31
0.0
  0
LINE
  5
4E2
330
1F
100
AcDbEntity
  8
1
  6
CONTINUOUS
370
50
 62
4
100
AcDbLine
 10
39.556992
 20
1.467157
 30
0.0
 11
39.615959
 21
1.52471
 31
0.0
  0
LINE
  5
4E3
330
1F
100
AcDbEntity
  8
1
  6
CONTINUOUS
370
50
 62
4
100
AcDbLine
 10
39.50538299999999
 20
1.403898
 30
0.0
 11
39.556992
 21
1.467157
 31
0.0
  0
LINE
  5
4E4
330
1F
100
AcDbEntity
  8
1
  6
CONTINUOUS
370
50
 62
4
100
AcDbLine
 10
39.4631
 20
1.335098
 30
0.0
 11
39.50538299999999
 21
1.403898
 31
0.0
  0
LINE
  5
4E5
330
1F
100
AcDbEntity
  8
1
  6
CONTINUOUS
370
50
 62
4
100
AcDbLine
 10
67.591393
 20
-0.396577
 30
0.0
 11
67.618324
 21
-0.349083
 31
0.0
  0
LINE
  5
4E6
330
1F
100
AcDbEntity
  8
1
  6
CONTINUOUS
370
50
 62
4
100
AcDbLine
 10
39.432022
 20
1.261329
 30
0.0
 11
39.4631
 21
1.335098
 31
0.0
  0
LINE
  5
4E7
330
1F
100
AcDbEntity
  8
1
  6
CONTINUOUS
370
50
 62
4
100
AcDbLine
 10
67.618324
 20
-0.349083
 30
0.0
 11
67.631744
 21
-0.294336
 31
0.0
  0
LINE
  5
4E8
330
1F
100
AcDbEntity
  8
1
  6
CONTINUOUS
370
50
 62
4
100
AcDbLine
 10
39.413467
 20
1.182803
 30
0.0
 11
39.432022
 21
1.261329
 31
0.0
  0
LINE
  5
4E9
330
1F
100
AcDbEntity
  8
1
  6
CONTINUOUS
370
50
 62
4
100
AcDbLine
 10
39.408497
 20
1.102491
 30
0.0
 11
39.413467
 21
1.182803
 31
0.0
  0
LINE
  5
4EA
330
1F
100
AcDbEntity
  8
1
  6
CONTINUOUS
370
50
 62
4
100
AcDbLine
 10
67.631744
 20
-0.294336
 30
0.0
 11
67.63253
 21
-0.233568
 31
0.0
  0
LINE
  5
4EB
330
1F
100
AcDbEntity
  8
1
  6
CONTINUOUS
370
50
 62
4
100
AcDbLine
 10
36.200001
 20
-4.0
 30
0.0
 11
36.200001
 21
4.0
 31
0.0
  0
LINE
  5
4EC
330
1F
100
AcDbEntity
  8
1
  6
CONTINUOUS
370
50
 62
4
100
AcDbLine
 10
39.0
 20
-3.25
 30
0.0
 11
39.0
 21
3.25
 31
0.0
  0
LINE
  5
4ED
330
1F
100
AcDbEntity
  8
1
  6
CONTINUOUS
370
50
 62
4
100
AcDbLine
 10
44.48497
 20
-2.321224
 30
0.0
 11
44.48497
 21
-0.710347
 31
0.0
  0
LINE
  5
4EE
330
1F
100
AcDbEntity
  8
1
  6
CONTINUOUS
370
50
 62
4
100
AcDbLine
 10
44.48696899999999
 20
-0.7137319999999999
 30
0.0
 11
44.48696899999999
 21
1.346183
 31
0.0
  0
LINE
  5
4EF
330
1F
100
AcDbEntity
  8
1
  6
CONTINUOUS
370
50
 62
4
100
AcDbLine
 10
52.999134
 20
-1.664359
 30
0.0
 11
52.999134
 21
3.198884
 31
0.0
  0
LINE
  5
4F0
330
1F
100
AcDbEntity
  8
1
  6
CONTINUOUS
370
50
 62
4
100
AcDbLine
 10
53.0
 20
-3.199746
 30
0.0
 11
53.0
 21
3.199746
 31
0.0
  0
LINE
  5
4F1
330
1F
100
AcDbEntity
  8
1
  6
CONTINUOUS
370
50
 62
4
100
AcDbLine
 10
70.0
 20
-3.25
 30
0.0
 11
70.0
 21
3.25
 31
0.0
  0
ELLIPSE
  5
4F2
330
1F
100
AcDbEntity
  8
1
  6
CONTINUOUS
370
50
 62
4
100
AcDbEllipse
 10
69.999276
 20
0.000276
 30
0.0
 11
-6.275895994006416
 21
2.661740014131772
 31
0.0
210
0.0
220
0.0
230
0.9999999999999999
 40
0.2971436900561422
 41
1.032439595197037
 42
1.696274828651007
  0
LINE
  5
4F3
330
1F
100
AcDbEntity
  8
CUT
  6
CONTINUOUS
370
25
 62
1
100
AcDbLine
 10
53.0
 20
0.0
 30
0.0
 11
70.0
 21
0.0
 31
0.0
  0
LINE
  5
4F4
330
1F
100
AcDbEntity
  8
CUT
  6
CONTINUOUS
370
25
 62
1
100
AcDbLine
 10
70.0
 20
0.0
 30
0.0
 11
70.0
 21
3.25
 31
0.0
  0
LINE
  5
4F5
330
1F
100
AcDbEntity
  8
CUT
  6
CONTINUOUS
370
25
 62
1
100
AcDbLine
 10
70.0
 20
3.25
 30
0.0
 11
53.0
 21
3.25
 31
0.0
  0
LINE
  5
4F6
330
1F
100
AcDbEntity
  8
CUT
  6
CONTINUOUS
370
25
 62
1
100
AcDbLine
 10
53.0
 20
3.25
 30
0.0
 11
53.0
 21
0.0
 31
0.0
  0
LINE
  5
4F7
330
1F
100
AcDbEntity
  8
NOCUT
  6
CONTINUOUS
370
25
 62
7
100
AcDbLine
 10
36.2
 20
0.0
 30
0.0
 11
53.0
 21
0.0
 31
0.0
  0
LINE
  5
4F8
330
1F
100
AcDbEntity
  8
NOCUT
  6
CONTINUOUS
370
25
 62
7
100
AcDbLine
 10
53.0
 20
0.0
 30
0.0
 11
53.0
 21
3.2505
 31
0.0
  0
LINE
  5
4F9
330
1F
100
AcDbEntity
  8
NOCUT
  6
CONTINUOUS
370
25
 62
7
100
AcDbLine
 10
53.0
 20
3.2505
 30
0.0
 11
52.99913397459622
 21
3.25
 31
0.0
  0
LINE
  5
4FA
330
1F
100
AcDbEntity
  8
NOCUT
  6
CONTINUOUS
370
25
 62
7
100
AcDbLine
 10
52.99913397459622
 20
3.25
 30
0.0
 11
39.0
 21
3.25
 31
0.0
  0
LINE
  5
4FB
330
1F
100
AcDbEntity
  8
NOCUT
  6
CONTINUOUS
370
25
 62
7
100
AcDbLine
 10
39.0
 20
3.25
 30
0.0
 11
36.2
 21
4.0
 31
0.0
  0
LINE
  5
4FC
330
1F
100
AcDbEntity
  8
NOCUT
  6
CONTINUOUS
370
25
 62
7
100
AcDbLine
 10
36.2
 20
4.0
 30
0.0
 11
36.2
 21
0.0
 31
0.0
  0
LINE
  5
4FD
330
1F
100
AcDbEntity
  8
NOCUT
  6
CONTINUOUS
370
25
 62
7
100
AcDbLine
 10
53.0
 20
3.25
 30
0.0
 11
53.0
 21
0.0
 31
0.0
  0
LINE
  5
4FE
330
1F
100
AcDbEntity
  8
NOCUT
  6
CONTINUOUS
370
25
 62
7
100
AcDbLine
 10
53.0
 20
3.25
 30
0.0
 11
53.0
 21
0.0
 31
0.0
  0
LINE
  5
4FF
330
1F
100
AcDbEntity
  8
SK1
  6
CONTINUOUS
370
50
 62
4
100
AcDbLine
 10
36.2
 20
4.0
 30
0.0
 11
0.3999999999999986
 21
4.0
 31
0.0
  0
LINE
  5
500
330
1F
100
AcDbEntity
  8
SK1
  6
CONTINUOUS
370
50
 62
4
100
AcDbLine
 10
0.3999999999999986
 20
4.0
 30
0.0
 11
0.0
 21
3.6
 31
0.0
  0
LINE
  5
501
330
1F
100
AcDbEntity
  8
SK1
  6
CONTINUOUS
370
50
 62
4
100
AcDbLine
 10
0.0
 20
3.6
 30
0.0
 11
0.0
 21
-3.6
 31
0.0
  0
LINE
  5
502
330
1F
100
AcDbEntity
  8
SK1
  6
CONTINUOUS
370
50
 62
4
100
AcDbLine
 10
0.0
 20
-3.6
 30
0.0
 11
0.3999999999999986
 21
-4.0
 31
0.0
  0
LINE
  5
503
330
1F
100
AcDbEntity
  8
SK1
  6
CONTINUOUS
370
50
 62
4
100
AcDbLine
 10
0.3999999999999986
 20
-4.0
 30
0.0
 11
36.2
 21
-4.0
 31
0.0
  0
LINE
  5
504
330
1F
100
AcDbEntity
  8
SK1
  6
CONTINUOUS
370
50
 62
4
100
AcDbLine
 10
0.3999999999999986
 20
4.0
 30
0.0
 11
0.3999999999999986
 21
-4.0
 31
0.0
  0
LINE
  5
505
330
1F
100
AcDbEntity
  8
SK2
  6
CONTINUOUS
370
25
 62
7
100
AcDbLine
 10
-12.0000002
 20
-4.000001
 30
0.0
 11
-13.00000000000008
 21
-4.000001
 31
0.0
  0
LINE
  5
506
330
1F
100
AcDbEntity
  8
SK2
  6
CONTINUOUS
370
25
 62
7
100
AcDbLine
 10
0.0
 20
-4.000001
 30
0.0
 11
-11.9999998
 21
-4.000001
 31
0.0
  0
LINE
  5
507
330
1F
100
AcDbEntity
  8
SK2
  6
CONTINUOUS
370
25
 62
7
100
AcDbLine
 10
-13.0
 20
4.0
 30
0.0
 11
0.0
 21
4.0
 31
0.0
  0
LINE
  5
508
330
1F
100
AcDbEntity
  8
SK2
  6
CONTINUOUS
370
25
 62
7
100
AcDbLine
 10
-12.0
 20
-11.0
 30
0.0
 11
-12.0
 21
11.0
 31
0.0
  0
LINE
  5
509
330
1F
100
AcDbEntity
  8
SK2
  6
CONTINUOUS
370
25
 62
7
100
AcDbLine
 10
-12.0
 20
-4.0
 30
0.0
 11
-11.0
 21
-9.0
 31
0.0
  0
LINE
  5
50A
330
1F
100
AcDbEntity
  8
SK2
  6
CONTINUOUS
370
25
 62
7
100
AcDbLine
 10
-11.0
 20
-9.0
 30
0.0
 11
-13.0
 21
-9.0
 31
0.0
  0
LINE
  5
50B
330
1F
100
AcDbEntity
  8
SK2
  6
CONTINUOUS
370
25
 62
7
100
AcDbLine
 10
-13.0
 20
-9.0
 30
0.0
 11
-12.0
 21
-4.0
 31
0.0
  0
LINE
  5
50C
330
1F
100
AcDbEntity
  8
SK2
  6
CONTINUOUS
370
25
 62
7
100
AcDbLine
 10
-11.40803025278544
 20
-9.0
 30
0.0
 11
-11.06800504213091
 21
-8.659974789345462
 31
0.0
  0
LINE
  5
50D
330
1F
100
AcDbEntity
  8
SK2
  6
CONTINUOUS
370
25
 62
7
100
AcDbLine
 10
-11.83229432149736
 20
-9.0
 30
0.0
 11
-11.13871572024956
 21
-8.306421398752185
 31
0.0
  0
LINE
  5
50E
330
1F
100
AcDbEntity
  8
SK2
  6
CONTINUOUS
370
25
 62
7
100
AcDbLine
 10
-12.2565583902093
 20
-9.0
 30
0.0
 11
-11.20942639836822
 21
-7.952868008158909
 31
0.0
  0
LINE
  5
50F
330
1F
100
AcDbEntity
  8
SK2
  6
CONTINUOUS
370
25
 62
7
100
AcDbLine
 10
-12.68082245892123
 20
-9.0
 30
0.0
 11
-11.28013707648687
 21
-7.599314617565646
 31
0.0
  0
LINE
  5
510
330
1F
100
AcDbEntity
  8
SK2
  6
CONTINUOUS
370
25
 62
7
100
AcDbLine
 10
-12.97372836809171
 20
-8.868641840458544
 30
0.0
 11
-11.35084775460553
 21
-7.24576122697237
 31
0.0
  0
LINE
  5
511
330
1F
100
AcDbEntity
  8
SK2
  6
CONTINUOUS
370
25
 62
7
100
AcDbLine
 10
-12.86766235091373
 20
-8.338311754568636
 30
0.0
 11
-11.42155843272418
 21
-6.892207836379093
 31
0.0
  0
LINE
  5
512
330
1F
100
AcDbEntity
  8
SK2
  6
CONTINUOUS
370
25
 62
7
100
AcDbLine
 10
-12.76159633373575
 20
-7.807981668678721
 30
0.0
 11
-11.49226911084283
 21
-6.538654445785809
 31
0.0
  0
LINE
  5
513
330
1F
100
AcDbEntity
  8
SK2
  6
CONTINUOUS
370
25
 62
7
100
AcDbLine
 10
-12.65553031655776
 20
-7.277651582788806
 30
0.0
 11
-11.56297978896149
 21
-6.18510105519254
 31
0.0
  0
LINE
  5
514
330
1F
100
AcDbEntity
  8
SK2
  6
CONTINUOUS
370
25
 62
7
100
AcDbLine
 10
-12.54946429937978
 20
-6.747321496898891
 30
0.0
 11
-11.63369046708014
 21
-5.831547664599249
 31
0.0
  0
LINE
  5
515
330
1F
100
AcDbEntity
  8
SK2
  6
CONTINUOUS
370
25
 62
7
100
AcDbLine
 10
-12.4433982822018
 20
-6.216991411008983
 30
0.0
 11
-11.7044011451988
 21
-5.477994274005979
 31
0.0
  0
LINE
  5
516
330
1F
100
AcDbEntity
  8
SK2
  6
CONTINUOUS
370
25
 62
7
100
AcDbLine
 10
-12.33733226502382
 20
-5.686661325119069
 30
0.0
 11
-11.77511182331745
 21
-5.124440883412696
 31
0.0
  0
LINE
  5
517
330
1F
100
AcDbEntity
  8
SK2
  6
CONTINUOUS
370
25
 62
7
100
AcDbLine
 10
-12.23126624784583
 20
-5.156331239229154
 30
0.0
 11
-11.8458225014361
 21
-4.770887492819426
 31
0.0
  0
LINE
  5
518
330
1F
100
AcDbEntity
  8
SK2
  6
CONTINUOUS
370
25
 62
7
100
AcDbLine
 10
-12.12520023066785
 20
-4.626001153339239
 30
0.0
 11
-11.91653317955477
 21
-4.417334102226157
 31
0.0
  0
LINE
  5
519
330
1F
100
AcDbEntity
  8
SK2
  6
CONTINUOUS
370
25
 62
7
100
AcDbLine
 10
-12.01913421348986
 20
-4.095671067449324
 30
0.0
 11
-11.98724385767342
 21
-4.06378071163288
 31
0.0
  0
LINE
  5
51A
330
1F
100
AcDbEntity
  8
SK2
  6
CONTINUOUS
370
25
 62
7
100
AcDbLine
 10
-12.95935346205112
 20
-8.796767310255603
 30
0.0
 11
-12.75612077230672
 21
-9.0
 31
0.0
  0
LINE
  5
51B
330
1F
100
AcDbEntity
  8
SK2
  6
CONTINUOUS
370
25
 62
7
100
AcDbLine
 10
-12.88864278393247
 20
-8.443213919662327
 30
0.0
 11
-12.3318567035948
 21
-9.0
 31
0.0
  0
LINE
  5
51C
330
1F
100
AcDbEntity
  8
SK2
  6
CONTINUOUS
370
25
 62
7
100
AcDbLine
 10
-12.81793210581381
 20
-8.08966052906905
 30
0.0
 11
-11.90759263488286
 21
-9.0
 31
0.0
  0
LINE
  5
51D
330
1F
100
AcDbEntity
  8
SK2
  6
CONTINUOUS
370
25
 62
7
100
AcDbLine
 10
-12.74722142769515
 20
-7.736107138475781
 30
0.0
 11
-11.48332856617093
 21
-9.0
 31
0.0
  0
LINE
  5
51E
330
1F
100
AcDbEntity
  8
SK2
  6
CONTINUOUS
370
25
 62
7
100
AcDbLine
 10
-12.67651074957649
 20
-7.382553747882504
 30
0.0
 11
-11.059064497459
 21
-9.0
 31
0.0
  0
LINE
  5
51F
330
1F
100
AcDbEntity
  8
SK2
  6
CONTINUOUS
370
25
 62
7
100
AcDbLine
 10
-12.60580007145784
 20
-7.02900035728922
 30
0.0
 11
-11.09129989281323
 21
-8.54350053593383
 31
0.0
  0
LINE
  5
520
330
1F
100
AcDbEntity
  8
SK2
  6
CONTINUOUS
370
25
 62
7
100
AcDbLine
 10
-12.53508939333919
 20
-6.675446966695951
 30
0.0
 11
-11.19736590999121
 21
-8.01317045004393
 31
0.0
  0
LINE
  5
521
330
1F
100
AcDbEntity
  8
SK2
  6
CONTINUOUS
370
25
 62
7
100
AcDbLine
 10
-12.46437871522053
 20
-6.321893576102674
 30
0.0
 11
-11.30343192716919
 21
-7.482840364154015
 31
0.0
  0
LINE
  5
522
330
1F
100
AcDbEntity
  8
SK2
  6
CONTINUOUS
370
25
 62
7
100
AcDbLine
 10
-12.39366803710188
 20
-5.968340185509398
 30
0.0
 11
-11.40949794434717
 21
-6.952510278264107
 31
0.0
  0
LINE
  5
523
330
1F
100
AcDbEntity
  8
SK2
  6
CONTINUOUS
370
25
 62
7
100
AcDbLine
 10
-12.32295735898322
 20
-5.614786794916121
 30
0.0
 11
-11.51556396152516
 21
-6.422180192374185
 31
0.0
  0
LINE
  5
524
330
1F
100
AcDbEntity
  8
SK2
  6
CONTINUOUS
370
25
 62
7
100
AcDbLine
 10
-12.25224668086457
 20
-5.261233404322851
 30
0.0
 11
-11.62162997870315
 21
-5.89185010648427
 31
0.0
  0
LINE
  5
525
330
1F
100
AcDbEntity
  8
SK2
  6
CONTINUOUS
370
25
 62
7
100
AcDbLine
 10
-12.18153600274591
 20
-4.907680013729575
 30
0.0
 11
-11.72769599588113
 21
-5.361520020594355
 31
0.0
  0
LINE
  5
526
330
1F
100
AcDbEntity
  8
SK2
  6
CONTINUOUS
370
25
 62
7
100
AcDbLine
 10
-12.11082532462725
 20
-4.554126623136298
 30
0.0
 11
-11.83376201305911
 21
-4.831189934704433
 31
0.0
  0
LINE
  5
527
330
1F
100
AcDbEntity
  8
SK2
  6
CONTINUOUS
370
25
 62
7
100
AcDbLine
 10
-12.0401146465086
 20
-4.200573232543022
 30
0.0
 11
-11.93982803023709
 21
-4.300859848814525
 31
0.0
  0
LINE
  5
528
330
1F
100
AcDbEntity
  8
SK2
  6
CONTINUOUS
370
25
 62
7
100
AcDbLine
 10
-12.0
 20
4.0
 30
0.0
 11
-13.0
 21
9.0
 31
0.0
  0
LINE
  5
529
330
1F
100
AcDbEntity
  8
SK2
  6
CONTINUOUS
370
25
 62
7
100
AcDbLine
 10
-13.0
 20
9.0
 30
0.0
 11
-11.0
 21
9.0
 31
0.0
  0
LINE
  5
52A
330
1F
100
AcDbEntity
  8
SK2
  6
CONTINUOUS
370
25
 62
7
100
AcDbLine
 10
-11.0
 20
9.0
 30
0.0
 11
-12.0
 21
4.0
 31
0.0
  0
LINE
  5
52B
330
1F
100
AcDbEntity
  8
SK2
  6
CONTINUOUS
370
25
 62
7
100
AcDbLine
 10
-12.06812408671318
 20
4.340620433565938
 30
0.0
 11
-11.89781386993022
 21
4.510930650348904
 31
0.0
  0
LINE
  5
52C
330
1F
100
AcDbEntity
  8
SK2
  6
CONTINUOUS
370
25
 62
7
100
AcDbLine
 10
-12.13883476483183
 20
4.694173824159222
 30
0.0
 11
-11.79174785275224
 21
5.041260736238819
 31
0.0
  0
LINE
  5
52D
330
1F
100
AcDbEntity
  8
SK2
  6
CONTINUOUS
370
25
 62
7
100
AcDbLine
 10
-12.20954544295049
 20
5.047727214752491
 30
0.0
 11
-11.68568183557426
 21
5.571590822128726
 31
0.0
  0
LINE
  5
52E
330
1F
100
AcDbEntity
  8
SK2
  6
CONTINUOUS
370
25
 62
7
100
AcDbLine
 10
-12.28025612106914
 20
5.401280605345775
 30
0.0
 11
-11.57961581839627
 21
6.101920908018649
 31
0.0
  0
LINE
  5
52F
330
1F
100
AcDbEntity
  8
SK2
  6
CONTINUOUS
370
25
 62
7
100
AcDbLine
 10
-12.35096679918781
 20
5.754833995939038
 30
0.0
 11
-11.47354980121829
 21
6.632250993908556
 31
0.0
  0
LINE
  5
530
330
1F
100
AcDbEntity
  8
SK2
  6
CONTINUOUS
370
25
 62
7
100
AcDbLine
 10
-12.42167747730647
 20
6.108387386532314
 30
0.0
 11
-11.3674837840403
 21
7.162581079798478
 31
0.0
  0
LINE
  5
531
330
1F
100
AcDbEntity
  8
SK2
  6
CONTINUOUS
370
25
 62
7
100
AcDbLine
 10
-12.49238815542512
 20
6.461940777125591
 30
0.0
 11
-11.26141776686232
 21
7.692911165688393
 31
0.0
  0
LINE
  5
532
330
1F
100
AcDbEntity
  8
SK2
  6
CONTINUOUS
370
25
 62
7
100
AcDbLine
 10
-12.56309883354378
 20
6.815494167718867
 30
0.0
 11
-11.15535174968434
 21
8.223241251578308
 31
0.0
  0
LINE
  5
533
330
1F
100
AcDbEntity
  8
SK2
  6
CONTINUOUS
370
25
 62
7
100
AcDbLine
 10
-12.63380951166243
 20
7.169047558312151
 30
0.0
 11
-11.04928573250636
 21
8.753571337468223
 31
0.0
  0
LINE
  5
534
330
1F
100
AcDbEntity
  8
SK2
  6
CONTINUOUS
370
25
 62
7
100
AcDbLine
 10
-12.70452018978108
 20
7.522600948905421
 30
0.0
 11
-11.2271211386865
 21
9.0
 31
0.0
  0
LINE
  5
535
330
1F
100
AcDbEntity
  8
SK2
  6
CONTINUOUS
370
25
 62
7
100
AcDbLine
 10
-12.77523086789974
 20
7.876154339498697
 30
0.0
 11
-11.65138520739843
 21
9.0
 31
0.0
  0
LINE
  5
536
330
1F
100
AcDbEntity
  8
SK2
  6
CONTINUOUS
370
25
 62
7
100
AcDbLine
 10
-12.84594154601839
 20
8.229707730091967
 30
0.0
 11
-12.07564927611036
 21
9.0
 31
0.0
  0
LINE
  5
537
330
1F
100
AcDbEntity
  8
SK2
  6
CONTINUOUS
370
25
 62
7
100
AcDbLine
 10
-12.91665222413705
 20
8.583261120685243
 30
0.0
 11
-12.4999133448223
 21
9.0
 31
0.0
  0
LINE
  5
538
330
1F
100
AcDbEntity
  8
SK2
  6
CONTINUOUS
370
25
 62
7
100
AcDbLine
 10
-12.9873629022557
 20
8.93681451127852
 30
0.0
 11
-12.92417741353422
 21
9.0
 31
0.0
  0
LINE
  5
539
330
1F
100
AcDbEntity
  8
SK2
  6
CONTINUOUS
370
25
 62
7
100
AcDbLine
 10
-12.09112132593982
 20
4.455606629699119
 30
0.0
 11
-11.93925244937346
 21
4.303737753132758
 31
0.0
  0
LINE
  5
53A
330
1F
100
AcDbEntity
  8
SK2
  6
CONTINUOUS
370
25
 62
7
100
AcDbLine
 10
-12.1971873431178
 20
4.985936715589041
 30
0.0
 11
-11.86854177125479
 21
4.657291143726027
 31
0.0
  0
LINE
  5
53B
330
1F
100
AcDbEntity
  8
SK2
  6
CONTINUOUS
370
25
 62
7
100
AcDbLine
 10
-12.30325336029578
 20
5.516266801478956
 30
0.0
 11
-11.79783109313614
 21
5.010844534319311
 31
0.0
  0
LINE
  5
53C
330
1F
100
AcDbEntity
  8
SK2
  6
CONTINUOUS
370
25
 62
7
100
AcDbLine
 10
-12.40931937747376
 20
6.046596887368857
 30
0.0
 11
-11.72712041501748
 21
5.364397924912574
 31
0.0
  0
LINE
  5
53D
330
1F
100
AcDbEntity
  8
SK2
  6
CONTINUOUS
370
25
 62
7
100
AcDbLine
 10
-12.51538539465175
 20
6.576926973258779
 30
0.0
 11
-11.65640973689882
 21
5.71795131550585
 31
0.0
  0
LINE
  5
53E
330
1F
100
AcDbEntity
  8
SK2
  6
CONTINUOUS
370
25
 62
7
100
AcDbLine
 10
-12.62145141182973
 20
7.107257059148687
 30
0.0
 11
-11.58569905878016
 21
6.07150470609912
 31
0.0
  0
LINE
  5
53F
330
1F
100
AcDbEntity
  8
SK2
  6
CONTINUOUS
370
25
 62
7
100
AcDbLine
 10
-12.72751742900772
 20
7.637587145038609
 30
0.0
 11
-11.51498838066151
 21
6.42505809669241
 31
0.0
  0
LINE
  5
540
330
1F
100
AcDbEntity
  8
SK2
  6
CONTINUOUS
370
25
 62
7
100
AcDbLine
 10
-12.8335834461857
 20
8.167917230928516
 30
0.0
 11
-11.44427770254286
 21
6.778611487285687
 31
0.0
  0
LINE
  5
541
330
1F
100
AcDbEntity
  8
SK2
  6
CONTINUOUS
370
25
 62
7
100
AcDbLine
 10
-12.93964946336368
 20
8.698247316818424
 30
0.0
 11
-11.3735670244242
 21
7.132164877878957
 31
0.0
  0
LINE
  5
542
330
1F
100
AcDbEntity
  8
SK2
  6
CONTINUOUS
370
25
 62
7
100
AcDbLine
 10
-12.81713807783332
 20
9.0
 30
0.0
 11
-11.30285634630555
 21
7.485718268472233
 31
0.0
  0
LINE
  5
543
330
1F
100
AcDbEntity
  8
SK2
  6
CONTINUOUS
370
25
 62
7
100
AcDbLine
 10
-12.39287400912139
 20
9.0
 30
0.0
 11
-11.23214566818689
 21
7.83927165906551
 31
0.0
  0
LINE
  5
544
330
1F
100
AcDbEntity
  8
SK2
  6
CONTINUOUS
370
25
 62
7
100
AcDbLine
 10
-11.96860994040945
 20
9.0
 30
0.0
 11
-11.16143499006824
 21
8.192825049658794
 31
0.0
  0
LINE
  5
545
330
1F
100
AcDbEntity
  8
SK2
  6
CONTINUOUS
370
25
 62
7
100
AcDbLine
 10
-11.54434587169752
 20
9.0
 30
0.0
 11
-11.09072431194959
 21
8.54637844025207
 31
0.0
  0
LINE
  5
546
330
1F
100
AcDbEntity
  8
SK2
  6
CONTINUOUS
370
25
 62
7
100
AcDbLine
 10
-11.12008180298559
 20
9.0
 30
0.0
 11
-11.02001363383093
 21
8.899931830845347
 31
0.0
  0
TEXT
  5
547
330
1F
100
AcDbEntity
  8
SK2
  6
CONTINUOUS
370
25
 62
7
100
AcDbText
 10
-13.5
 20
1.108333333333333
 30
0.0
 40
3.5
  1
8
 50
90.0
 72
     1
 11
-13.5
 21
2.275
 31
0.0
100
AcDbText
  0
CIRCLE
  5
548
330
1F
100
AcDbEntity
  8
SK2
  6
CONTINUOUS
370
25
 62
7
100
AcDbCircle
 10
-15.25
 20
-1.05
 30
0.0
 40
1.4
  0
LINE
  5
549
330
1F
100
AcDbEntity
  8
SK2
  6
CONTINUOUS
370
25
 62
7
100
AcDbLine
 10
-13.85
 20
-2.45
 30
0.0
 11
-16.65
 21
0.3500000000000005
 31
0.0
  0
LINE
  5
54A
330
1F
100
AcDbEntity
  8
SK2
  6
CONTINUOUS
370
25
 62
7
100
AcDbLine
 10
0.0
 20
4.0
 30
0.0
 11
0.0
 21
17.00001
 31
0.0
  0
LINE
  5
54B
330
1F
100
AcDbEntity
  8
SK2
  6
CONTINUOUS
370
25
 62
7
100
AcDbLine
 10
36.2
 20
17.00001
 30
0.0
 11
36.2
 21
4.0
 31
0.0
  0
LINE
  5
54C
330
1F
100
AcDbEntity
  8
SK2
  6
CONTINUOUS
370
25
 62
7
100
AcDbLine
 10
0.0
 20
16.00001
 30
0.0
 11
36.2
 21
16.00001
 31
0.0
  0
LINE
  5
54D
330
1F
100
AcDbEntity
  8
SK2
  6
CONTINUOUS
370
25
 62
7
100
AcDbLine
 10
0.0
 20
16.00001
 30
0.0
 11
5.0
 21
17.00001
 31
0.0
  0
LINE
  5
54E
330
1F
100
AcDbEntity
  8
SK2
  6
CONTINUOUS
370
25
 62
7
100
AcDbLine
 10
5.0
 20
17.00001
 30
0.0
 11
5.0
 21
15.00001
 31
0.0
  0
LINE
  5
54F
330
1F
100
AcDbEntity
  8
SK2
  6
CONTINUOUS
370
25
 62
7
100
AcDbLine
 10
5.0
 20
15.00001
 30
0.0
 11
0.0
 21
16.00001
 31
0.0
  0
LINE
  5
550
330
1F
100
AcDbEntity
  8
SK2
  6
CONTINUOUS
370
25
 62
7
100
AcDbLine
 10
4.962688758666509
 20
15.00747224826669
 30
0.0
 11
5.0
 21
15.04478348960019
 31
0.0
  0
LINE
  5
551
330
1F
100
AcDbEntity
  8
SK2
  6
CONTINUOUS
370
25
 62
7
100
AcDbLine
 10
4.609135368073247
 20
15.07818292638536
 30
0.0
 11
5.0
 21
15.46904755831211
 31
0.0
  0
LINE
  5
552
330
1F
100
AcDbEntity
  8
SK2
  6
CONTINUOUS
370
25
 62
7
100
AcDbLine
 10
4.255581977479967
 20
15.148893604504
 30
0.0
 11
5.0
 21
15.89331162702403
 31
0.0
  0
LINE
  5
553
330
1F
100
AcDbEntity
  8
SK2
  6
CONTINUOUS
370
25
 62
7
100
AcDbLine
 10
3.902028586886686
 20
15.21960428262265
 30
0.0
 11
5.0
 21
16.31757569573596
 31
0.0
  0
LINE
  5
554
330
1F
100
AcDbEntity
  8
SK2
  6
CONTINUOUS
370
25
 62
7
100
AcDbLine
 10
3.54847519629341
 20
15.29031496074131
 30
0.0
 11
5.0
 21
16.7418397644479
 31
0.0
  0
LINE
  5
555
330
1F
100
AcDbEntity
  8
SK2
  6
CONTINUOUS
370
25
 62
7
100
AcDbLine
 10
3.194921805700147
 20
15.36102563885998
 30
0.0
 11
4.792382708550218
 21
16.95848654171004
 31
0.0
  0
LINE
  5
556
330
1F
100
AcDbEntity
  8
SK2
  6
CONTINUOUS
370
25
 62
7
100
AcDbLine
 10
2.841368415106864
 20
15.43173631697862
 30
0.0
 11
4.262052622660306
 21
16.85242052453206
 31
0.0
  0
LINE
  5
557
330
1F
100
AcDbEntity
  8
SK2
  6
CONTINUOUS
370
25
 62
7
100
AcDbLine
 10
2.487815024513594
 20
15.50244699509728
 30
0.0
 11
3.731722536770405
 21
16.74635450735408
 31
0.0
  0
LINE
  5
558
330
1F
100
AcDbEntity
  8
SK2
  6
CONTINUOUS
370
25
 62
7
100
AcDbLine
 10
2.134261633920318
 20
15.57315767321593
 30
0.0
 11
3.201392450880491
 21
16.6402884901761
 31
0.0
  0
LINE
  5
559
330
1F
100
AcDbEntity
  8
SK2
  6
CONTINUOUS
370
25
 62
7
100
AcDbLine
 10
1.780708243327041
 20
15.64386835133459
 30
0.0
 11
2.671062364990568
 21
16.53422247299812
 31
0.0
  0
LINE
  5
55A
330
1F
100
AcDbEntity
  8
SK2
  6
CONTINUOUS
370
25
 62
7
100
AcDbLine
 10
1.427154852733771
 20
15.71457902945325
 30
0.0
 11
2.140732279100661
 21
16.42815645582013
 31
0.0
  0
LINE
  5
55B
330
1F
100
AcDbEntity
  8
SK2
  6
CONTINUOUS
370
25
 62
7
100
AcDbLine
 10
1.073601462140488
 20
15.7852897075719
 30
0.0
 11
1.610402193210746
 21
16.32209043864215
 31
0.0
  0
LINE
  5
55C
330
1F
100
AcDbEntity
  8
SK2
  6
CONTINUOUS
370
25
 62
7
100
AcDbLine
 10
0.7200480715472111
 20
15.85600038569055
 30
0.0
 11
1.080072107320824
 21
16.21602442146416
 31
0.0
  0
LINE
  5
55D
330
1F
100
AcDbEntity
  8
SK2
  6
CONTINUOUS
370
25
 62
7
100
AcDbLine
 10
0.3664946809539416
 20
15.92671106380921
 30
0.0
 11
0.5497420214309088
 21
16.10995840428618
 31
0.0
  0
LINE
  5
55E
330
1F
100
AcDbEntity
  8
SK2
  6
CONTINUOUS
370
25
 62
7
100
AcDbLine
 10
0.0129412903606578
 20
15.99742174192786
 30
0.0
 11
0.019411935541001
 21
16.0038923871082
 31
0.0
  0
LINE
  5
55F
330
1F
100
AcDbEntity
  8
SK2
  6
CONTINUOUS
370
25
 62
7
100
AcDbLine
 10
0.1512028226494309
 20
16.03025056452989
 30
0.0
 11
0.2268042339741569
 21
15.95464915320516
 31
0.0
  0
LINE
  5
560
330
1F
100
AcDbEntity
  8
SK2
  6
CONTINUOUS
370
25
 62
7
100
AcDbLine
 10
0.5047562132427075
 20
16.10096124264854
 30
0.0
 11
0.7571343198640719
 21
15.84858313602718
 31
0.0
  0
LINE
  5
561
330
1F
100
AcDbEntity
  8
SK2
  6
CONTINUOUS
370
25
 62
7
100
AcDbLine
 10
0.8583096038359841
 20
16.1716719207672
 30
0.0
 11
1.287464405753987
 21
15.7425171188492
 31
0.0
  0
LINE
  5
562
330
1F
100
AcDbEntity
  8
SK2
  6
CONTINUOUS
370
25
 62
7
100
AcDbLine
 10
1.211862994429254
 20
16.24238259888586
 30
0.0
 11
1.817794491643888
 21
15.63645110167122
 31
0.0
  0
LINE
  5
563
330
1F
100
AcDbEntity
  8
SK2
  6
CONTINUOUS
370
25
 62
7
100
AcDbLine
 10
1.56541638502253
 20
16.31309327700451
 30
0.0
 11
2.348124577533802
 21
15.53038508449324
 31
0.0
  0
LINE
  5
564
330
1F
100
AcDbEntity
  8
SK2
  6
CONTINUOUS
370
25
 62
7
100
AcDbLine
 10
1.918969775615807
 20
16.38380395512317
 30
0.0
 11
2.878454663423717
 21
15.42431906731525
 31
0.0
  0
LINE
  5
565
330
1F
100
AcDbEntity
  8
SK2
  6
CONTINUOUS
370
25
 62
7
100
AcDbLine
 10
2.272523166209083
 20
16.45451463324181
 30
0.0
 11
3.408784749313618
 21
15.31825305013727
 31
0.0
  0
LINE
  5
566
330
1F
100
AcDbEntity
  8
SK2
  6
CONTINUOUS
370
25
 62
7
100
AcDbLine
 10
2.626076556802353
 20
16.52522531136048
 30
0.0
 11
3.939114835203533
 21
15.21218703295929
 31
0.0
  0
LINE
  5
567
330
1F
100
AcDbEntity
  8
SK2
  6
CONTINUOUS
370
25
 62
7
100
AcDbLine
 10
2.97962994739563
 20
16.59593598947913
 30
0.0
 11
4.469444921093444
 21
15.10612101578131
 31
0.0
  0
LINE
  5
568
330
1F
100
AcDbEntity
  8
SK2
  6
CONTINUOUS
370
25
 62
7
100
AcDbLine
 10
3.333183337988906
 20
16.66664666759778
 30
0.0
 11
4.999775006983356
 21
15.00005499860332
 31
0.0
  0
LINE
  5
569
330
1F
100
AcDbEntity
  8
SK2
  6
CONTINUOUS
370
25
 62
7
100
AcDbLine
 10
3.686736728582176
 20
16.73735734571644
 30
0.0
 11
5.0
 21
15.42409407429861
 31
0.0
  0
LINE
  5
56A
330
1F
100
AcDbEntity
  8
SK2
  6
CONTINUOUS
370
25
 62
7
100
AcDbLine
 10
4.040290119175445
 20
16.80806802383509
 30
0.0
 11
5.0
 21
15.84835814301054
 31
0.0
  0
LINE
  5
56B
330
1F
100
AcDbEntity
  8
SK2
  6
CONTINUOUS
370
25
 62
7
100
AcDbLine
 10
4.393843509768725
 20
16.87877870195375
 30
0.0
 11
5.0
 21
16.27262221172247
 31
0.0
  0
LINE
  5
56C
330
1F
100
AcDbEntity
  8
SK2
  6
CONTINUOUS
370
25
 62
7
100
AcDbLine
 10
4.747396900361998
 20
16.9494893800724
 30
0.0
 11
5.0
 21
16.6968862804344
 31
0.0
  0
LINE
  5
56D
330
1F
100
AcDbEntity
  8
SK2
  6
CONTINUOUS
370
25
 62
7
100
AcDbLine
 10
36.2
 20
16.00001
 30
0.0
 11
31.2
 21
15.00001
 31
0.0
  0
LINE
  5
56E
330
1F
100
AcDbEntity
  8
SK2
  6
CONTINUOUS
370
25
 62
7
100
AcDbLine
 10
31.2
 20
15.00001
 30
0.0
 11
31.2
 21
17.00001
 31
0.0
  0
LINE
  5
56F
330
1F
100
AcDbEntity
  8
SK2
  6
CONTINUOUS
370
25
 62
7
100
AcDbLine
 10
31.2
 20
17.00001
 30
0.0
 11
36.2
 21
16.00001
 31
0.0
  0
LINE
  5
570
330
1F
100
AcDbEntity
  8
SK2
  6
CONTINUOUS
370
25
 62
7
100
AcDbLine
 10
36.0474692361834
 20
15.96950384723668
 30
0.0
 11
36.09831282412227
 21
16.02034743517554
 31
0.0
  0
LINE
  5
571
330
1F
100
AcDbEntity
  8
SK2
  6
CONTINUOUS
370
25
 62
7
100
AcDbLine
 10
35.5171391502935
 20
15.8634378300587
 30
0.0
 11
35.744759433529
 21
16.0910581132942
 31
0.0
  0
LINE
  5
572
330
1F
100
AcDbEntity
  8
SK2
  6
CONTINUOUS
370
25
 62
7
100
AcDbLine
 10
34.98680906440358
 20
15.75737181288072
 30
0.0
 11
35.39120604293572
 21
16.16176879141285
 31
0.0
  0
LINE
  5
573
330
1F
100
AcDbEntity
  8
SK2
  6
CONTINUOUS
370
25
 62
7
100
AcDbLine
 10
34.45647897851367
 20
15.65130579570273
 30
0.0
 11
35.03765265234245
 21
16.23247946953151
 31
0.0
  0
LINE
  5
574
330
1F
100
AcDbEntity
  8
SK2
  6
CONTINUOUS
370
25
 62
7
100
AcDbLine
 10
33.92614889262376
 20
15.54523977852475
 30
0.0
 11
34.68409926174918
 21
16.30319014765016
 31
0.0
  0
LINE
  5
575
330
1F
100
AcDbEntity
  8
SK2
  6
CONTINUOUS
370
25
 62
7
100
AcDbLine
 10
33.39581880673385
 20
15.43917376134677
 30
0.0
 11
34.3305458711559
 21
16.37390082576882
 31
0.0
  0
LINE
  5
576
330
1F
100
AcDbEntity
  8
SK2
  6
CONTINUOUS
370
25
 62
7
100
AcDbLine
 10
32.86548872084394
 20
15.33310774416879
 30
0.0
 11
33.97699248056263
 21
16.44461150388748
 31
0.0
  0
LINE
  5
577
330
1F
100
AcDbEntity
  8
SK2
  6
CONTINUOUS
370
25
 62
7
100
AcDbLine
 10
32.33515863495403
 20
15.22704172699081
 30
0.0
 11
33.62343908996935
 21
16.51532218200613
 31
0.0
  0
LINE
  5
578
330
1F
100
AcDbEntity
  8
SK2
  6
CONTINUOUS
370
25
 62
7
100
AcDbLine
 10
31.80482854906413
 20
15.12097570981283
 30
0.0
 11
33.26988569937608
 21
16.58603286012479
 31
0.0
  0
LINE
  5
579
330
1F
100
AcDbEntity
  8
SK2
  6
CONTINUOUS
370
25
 62
7
100
AcDbLine
 10
31.27449846317421
 20
15.01490969263484
 30
0.0
 11
32.91633230878281
 21
16.65674353824344
 31
0.0
  0
LINE
  5
57A
330
1F
100
AcDbEntity
  8
SK2
  6
CONTINUOUS
370
25
 62
7
100
AcDbLine
 10
31.2
 20
15.36467529817256
 30
0.0
 11
32.56277891818954
 21
16.72745421636209
 31
0.0
  0
LINE
  5
57B
330
1F
100
AcDbEntity
  8
SK2
  6
CONTINUOUS
370
25
 62
7
100
AcDbLine
 10
31.2
 20
15.78893936688448
 30
0.0
 11
32.20922552759627
 21
16.79816489448075
 31
0.0
  0
LINE
  5
57C
330
1F
100
AcDbEntity
  8
SK2
  6
CONTINUOUS
370
25
 62
7
100
AcDbLine
 10
31.2
 20
16.21320343559641
 30
0.0
 11
31.85567213700299
 21
16.8688755725994
 31
0.0
  0
LINE
  5
57D
330
1F
100
AcDbEntity
  8
SK2
  6
CONTINUOUS
370
25
 62
7
100
AcDbLine
 10
31.2
 20
16.63746750430834
 30
0.0
 11
31.50211874640972
 21
16.93958625071806
 31
0.0
  0
LINE
  5
57E
330
1F
100
AcDbEntity
  8
SK2
  6
CONTINUOUS
370
25
 62
7
100
AcDbLine
 10
31.2
 20
15.18233764908626
 30
0.0
 11
31.35193970757188
 21
15.03039794151438
 31
0.0
  0
LINE
  5
57F
330
1F
100
AcDbEntity
  8
SK2
  6
CONTINUOUS
370
25
 62
7
100
AcDbLine
 10
31.2
 20
15.60660171779818
 30
0.0
 11
31.70549309816516
 21
15.10110861963303
 31
0.0
  0
LINE
  5
580
330
1F
100
AcDbEntity
  8
SK2
  6
CONTINUOUS
370
25
 62
7
100
AcDbLine
 10
31.2
 20
16.03086578651011
 30
0.0
 11
32.05904648875843
 21
15.17181929775169
 31
0.0
  0
LINE
  5
581
330
1F
100
AcDbEntity
  8
SK2
  6
CONTINUOUS
370
25
 62
7
100
AcDbLine
 10
31.2
 20
16.45512985522204
 30
0.0
 11
32.4125998793517
 21
15.24252997587034
 31
0.0
  0
LINE
  5
582
330
1F
100
AcDbEntity
  8
SK2
  6
CONTINUOUS
370
25
 62
7
100
AcDbLine
 10
31.2
 20
16.87939392393397
 30
0.0
 11
32.76615326994498
 21
15.31324065398899
 31
0.0
  0
LINE
  5
583
330
1F
100
AcDbEntity
  8
SK2
  6
CONTINUOUS
370
25
 62
7
100
AcDbLine
 10
31.57955999080737
 20
16.92409800183853
 30
0.0
 11
33.11970666053825
 21
15.38395133210765
 31
0.0
  0
LINE
  5
584
330
1F
100
AcDbEntity
  8
SK2
  6
CONTINUOUS
370
25
 62
7
100
AcDbLine
 10
32.10989007669728
 20
16.81803198466054
 30
0.0
 11
33.47326005113153
 21
15.4546620102263
 31
0.0
  0
LINE
  5
585
330
1F
100
AcDbEntity
  8
SK2
  6
CONTINUOUS
370
25
 62
7
100
AcDbLine
 10
32.64022016258719
 20
16.71196596748256
 30
0.0
 11
33.82681344172479
 21
15.52537268834496
 31
0.0
  0
LINE
  5
586
330
1F
100
AcDbEntity
  8
SK2
  6
CONTINUOUS
370
25
 62
7
100
AcDbLine
 10
33.1705502484771
 20
16.60589995030458
 30
0.0
 11
34.18036683231807
 21
15.59608336646361
 31
0.0
  0
LINE
  5
587
330
1F
100
AcDbEntity
  8
SK2
  6
CONTINUOUS
370
25
 62
7
100
AcDbLine
 10
33.70088033436701
 20
16.4998339331266
 30
0.0
 11
34.53392022291134
 21
15.66679404458227
 31
0.0
  0
LINE
  5
588
330
1F
100
AcDbEntity
  8
SK2
  6
CONTINUOUS
370
25
 62
7
100
AcDbLine
 10
34.23121042025693
 20
16.39376791594862
 30
0.0
 11
34.88747361350462
 21
15.73750472270092
 31
0.0
  0
LINE
  5
589
330
1F
100
AcDbEntity
  8
SK2
  6
CONTINUOUS
370
25
 62
7
100
AcDbLine
 10
34.76154050614684
 20
16.28770189877063
 30
0.0
 11
35.24102700409789
 21
15.80821540081958
 31
0.0
  0
LINE
  5
58A
330
1F
100
AcDbEntity
  8
SK2
  6
CONTINUOUS
370
25
 62
7
100
AcDbLine
 10
35.29187059203674
 20
16.18163588159265
 30
0.0
 11
35.59458039469116
 21
15.87892607893823
 31
0.0
  0
LINE
  5
58B
330
1F
100
AcDbEntity
  8
SK2
  6
CONTINUOUS
370
25
 62
7
100
AcDbLine
 10
35.82220067792666
 20
16.07556986441467
 30
0.0
 11
35.94813378528444
 21
15.94963675705689
 31
0.0
  0
TEXT
  5
58C
330
1F
100
AcDbEntity
  8
SK2
  6
CONTINUOUS
370
25
 62
7
100
AcDbText
 10
12.85
 20
17.50001
 30
0.0
 40
3.5
  1
36.2
 72
     1
 11
18.1
 21
17.50001
 31
0.0
100
AcDbText
  0
LINE
  5
58D
330
1F
100
AcDbEntity
  8
2
  6
CONTINUOUS
370
25
 62
7
100
AcDbLine
 10
70.0
 20
-3.25
 30
0.0
 11
103.0
 21
-3.250000000000004
 31
0.0
  0
LINE
  5
58E
330
1F
100
AcDbEntity
  8
2
  6
CONTINUOUS
370
25
 62
7
100
AcDbLine
 10
103.0
 20
3.249999999999996
 30
0.0
 11
70.0
 21
3.25
 31
0.0
  0
LINE
  5
58F
330
1F
100
AcDbEntity
  8
2
  6
CONTINUOUS
370
25
 62
7
100
AcDbLine
 10
102.0
 20
-10.25
 30
0.0
 11
102.0
 21
22.67499999999999
 31
0.0
  0
LINE
  5
590
330
1F
100
AcDbEntity
  8
2
  6
CONTINUOUS
370
25
 62
7
100
AcDbLine
 10
102.0
 20
-3.250000000000004
 30
0.0
 11
103.0
 21
-8.250000000000004
 31
0.0
  0
LINE
  5
591
330
1F
100
AcDbEntity
  8
2
  6
CONTINUOUS
370
25
 62
7
100
AcDbLine
 10
103.0
 20
-8.250000000000004
 30
0.0
 11
101.0
 21
-8.250000000000004
 31
0.0
  0
LINE
  5
592
330
1F
100
AcDbEntity
  8
2
  6
CONTINUOUS
370
25
 62
7
100
AcDbLine
 10
101.0
 20
-8.250000000000004
 30
0.0
 11
102.0
 21
-3.250000000000004
 31
0.0
  0
LINE
  5
593
330
1F
100
AcDbEntity
  8
2
  6
CONTINUOUS
370
25
 62
7
100
AcDbLine
 10
102.6355580238293
 20
-8.25
 30
0.0
 11
102.9392596706382
 21
-7.946298353191096
 31
0.0
  0
LINE
  5
594
330
1F
100
AcDbEntity
  8
2
  6
CONTINUOUS
370
25
 62
7
100
AcDbLine
 10
102.2112939551174
 20
-8.25
 30
0.0
 11
102.8685489925196
 21
-7.59274496259782
 31
0.0
  0
LINE
  5
595
330
1F
100
AcDbEntity
  8
2
  6
CONTINUOUS
370
25
 62
7
100
AcDbLine
 10
101.7870298864055
 20
-8.25
 30
0.0
 11
102.7978383144009
 21
-7.239191572004557
 31
0.0
  0
LINE
  5
596
330
1F
100
AcDbEntity
  8
2
  6
CONTINUOUS
370
25
 62
7
100
AcDbLine
 10
101.3627658176935
 20
-8.25
 30
0.0
 11
102.7271276362823
 21
-6.885638181411267
 31
0.0
  0
LINE
  5
597
330
1F
100
AcDbEntity
  8
2
  6
CONTINUOUS
370
25
 62
7
100
AcDbLine
 10
101.0153745627546
 20
-8.173127186226992
 30
0.0
 11
102.6564169581636
 21
-6.532084790818004
 31
0.0
  0
LINE
  5
598
330
1F
100
AcDbEntity
  8
2
  6
CONTINUOUS
370
25
 62
7
100
AcDbLine
 10
101.1214405799326
 20
-7.642797100337091
 30
0.0
 11
102.585706280045
 21
-6.178531400224728
 31
0.0
  0
LINE
  5
599
330
1F
100
AcDbEntity
  8
2
  6
CONTINUOUS
370
25
 62
7
100
AcDbLine
 10
101.2275065971106
 20
-7.112467014447176
 30
0.0
 11
102.5149956019263
 21
-5.824978009631465
 31
0.0
  0
LINE
  5
59A
330
1F
100
AcDbEntity
  8
2
  6
CONTINUOUS
370
25
 62
7
100
AcDbLine
 10
101.3335726142886
 20
-6.582136928557247
 30
0.0
 11
102.4442849238076
 21
-5.471424619038174
 31
0.0
  0
LINE
  5
59B
330
1F
100
AcDbEntity
  8
2
  6
CONTINUOUS
370
25
 62
7
100
AcDbLine
 10
101.4396386314665
 20
-6.051806842667361
 30
0.0
 11
102.373574245689
 21
-5.117871228444912
 31
0.0
  0
LINE
  5
59C
330
1F
100
AcDbEntity
  8
2
  6
CONTINUOUS
370
25
 62
7
100
AcDbLine
 10
101.5457046486445
 20
-5.521476756777432
 30
0.0
 11
102.3028635675703
 21
-4.764317837851635
 31
0.0
  0
LINE
  5
59D
330
1F
100
AcDbEntity
  8
2
  6
CONTINUOUS
370
25
 62
7
100
AcDbLine
 10
101.6517706658225
 20
-4.991146670887545
 30
0.0
 11
102.2321528894517
 21
-4.410764447258359
 31
0.0
  0
LINE
  5
59E
330
1F
100
AcDbEntity
  8
2
  6
CONTINUOUS
370
25
 62
7
100
AcDbLine
 10
101.7578366830005
 20
-4.46081658499763
 30
0.0
 11
102.161442211333
 21
-4.057211056665111
 31
0.0
  0
LINE
  5
59F
330
1F
100
AcDbEntity
  8
2
  6
CONTINUOUS
370
25
 62
7
100
AcDbLine
 10
101.8639027001785
 20
-3.930486499107715
 30
0.0
 11
102.0907315332144
 21
-3.703657666071834
 31
0.0
  0
LINE
  5
5A0
330
1F
100
AcDbEntity
  8
2
  6
CONTINUOUS
370
25
 62
7
100
AcDbLine
 10
101.9699687173565
 20
-3.400156413217815
 30
0.0
 11
102.0200208550957
 21
-3.350104275478557
 31
0.0
  0
LINE
  5
5A1
330
1F
100
AcDbEntity
  8
2
  6
CONTINUOUS
370
25
 62
7
100
AcDbLine
 10
101.0502308678997
 20
-7.998845660501324
 30
0.0
 11
101.3013852073984
 21
-8.250000000000007
 31
0.0
  0
LINE
  5
5A2
330
1F
100
AcDbEntity
  8
2
  6
CONTINUOUS
370
25
 62
7
100
AcDbLine
 10
101.1209415460184
 20
-7.645292269908062
 30
0.0
 11
101.7256492761103
 21
-8.250000000000007
 31
0.0
  0
LINE
  5
5A3
330
1F
100
AcDbEntity
  8
2
  6
CONTINUOUS
370
25
 62
7
100
AcDbLine
 10
101.191652224137
 20
-7.291738879314771
 30
0.0
 11
102.1499133448223
 21
-8.250000000000007
 31
0.0
  0
LINE
  5
5A4
330
1F
100
AcDbEntity
  8
2
  6
CONTINUOUS
370
25
 62
7
100
AcDbLine
 10
101.2623629022557
 20
-6.938185488721494
 30
0.0
 11
102.5741774135342
 21
-8.250000000000007
 31
0.0
  0
LINE
  5
5A5
330
1F
100
AcDbEntity
  8
2
  6
CONTINUOUS
370
25
 62
7
100
AcDbLine
 10
101.3330735803744
 20
-6.584632098128232
 30
0.0
 11
102.9984414822461
 21
-8.250000000000007
 31
0.0
  0
LINE
  5
5A6
330
1F
100
AcDbEntity
  8
2
  6
CONTINUOUS
370
25
 62
7
100
AcDbLine
 10
101.403784258493
 20
-6.231078707534955
 30
0.0
 11
102.8943236122605
 21
-7.721618061302443
 31
0.0
  0
LINE
  5
5A7
330
1F
100
AcDbEntity
  8
2
  6
CONTINUOUS
370
25
 62
7
100
AcDbLine
 10
101.4744949366117
 20
-5.877525316941686
 30
0.0
 11
102.7882575950825
 21
-7.191287975412536
 31
0.0
  0
LINE
  5
5A8
330
1F
100
AcDbEntity
  8
2
  6
CONTINUOUS
370
25
 62
7
100
AcDbLine
 10
101.5452056147303
 20
-5.523971926348409
 30
0.0
 11
102.6821915779045
 21
-6.660957889522621
 31
0.0
  0
LINE
  5
5A9
330
1F
100
AcDbEntity
  8
2
  6
CONTINUOUS
370
25
 62
7
100
AcDbLine
 10
101.615916292849
 20
-5.170418535755125
 30
0.0
 11
102.5761255607266
 21
-6.130627803632713
 31
0.0
  0
LINE
  5
5AA
330
1F
100
AcDbEntity
  8
2
  6
CONTINUOUS
370
25
 62
7
100
AcDbLine
 10
101.6866269709676
 20
-4.816865145161863
 30
0.0
 11
102.4700595435486
 21
-5.600297717742784
 31
0.0
  0
LINE
  5
5AB
330
1F
100
AcDbEntity
  8
2
  6
CONTINUOUS
370
25
 62
7
100
AcDbLine
 10
101.7573376490863
 20
-4.463311754568586
 30
0.0
 11
102.3639935263706
 21
-5.069967631852869
 31
0.0
  0
LINE
  5
5AC
330
1F
100
AcDbEntity
  8
2
  6
CONTINUOUS
370
25
 62
7
100
AcDbLine
 10
101.8280483272049
 20
-4.109758363975303
 30
0.0
 11
102.2579275091926
 21
-4.539637545962961
 31
0.0
  0
LINE
  5
5AD
330
1F
100
AcDbEntity
  8
2
  6
CONTINUOUS
370
25
 62
7
100
AcDbLine
 10
101.8987590053236
 20
-3.756204973382026
 30
0.0
 11
102.1518614920146
 21
-4.009307460073046
 31
0.0
  0
LINE
  5
5AE
330
1F
100
AcDbEntity
  8
2
  6
CONTINUOUS
370
25
 62
7
100
AcDbLine
 10
101.9694696834423
 20
-3.402651582788771
 30
0.0
 11
102.0457954748366
 21
-3.478977374183138
 31
0.0
  0
LINE
  5
5AF
330
1F
100
AcDbEntity
  8
2
  6
CONTINUOUS
370
25
 62
7
100
AcDbLine
 10
102.0
 20
3.249999999999996
 30
0.0
 11
101.0
 21
8.249999999999996
 31
0.0
  0
LINE
  5
5B0
330
1F
100
AcDbEntity
  8
2
  6
CONTINUOUS
370
25
 62
7
100
AcDbLine
 10
101.0
 20
8.249999999999996
 30
0.0
 11
103.0
 21
8.249999999999996
 31
0.0
  0
LINE
  5
5B1
330
1F
100
AcDbEntity
  8
2
  6
CONTINUOUS
370
25
 62
7
100
AcDbLine
 10
103.0
 20
8.249999999999996
 30
0.0
 11
102.0
 21
3.249999999999996
 31
0.0
  0
LINE
  5
5B2
330
1F
100
AcDbEntity
  8
2
  6
CONTINUOUS
370
25
 62
7
100
AcDbLine
 10
101.9570266236046
 20
3.464866881977059
 30
0.0
 11
102.0644600645931
 21
3.572300322965617
 31
0.0
  0
LINE
  5
5B3
330
1F
100
AcDbEntity
  8
2
  6
CONTINUOUS
370
25
 62
7
100
AcDbLine
 10
101.8863159454859
 20
3.818420272570343
 30
0.0
 11
102.1705260817711
 21
4.102630408855525
 31
0.0
  0
LINE
  5
5B4
330
1F
100
AcDbEntity
  8
2
  6
CONTINUOUS
370
25
 62
7
100
AcDbLine
 10
101.8156052673673
 20
4.17197366316362
 30
0.0
 11
102.2765920989491
 21
4.63296049474544
 31
0.0
  0
LINE
  5
5B5
330
1F
100
AcDbEntity
  8
2
  6
CONTINUOUS
370
25
 62
7
100
AcDbLine
 10
101.7448945892486
 20
4.525527053756882
 30
0.0
 11
102.3826581161271
 21
5.163290580635341
 31
0.0
  0
LINE
  5
5B6
330
1F
100
AcDbEntity
  8
2
  6
CONTINUOUS
370
25
 62
7
100
AcDbLine
 10
101.67418391113
 20
4.879080444350173
 30
0.0
 11
102.4887241333051
 21
5.693620666525241
 31
0.0
  0
LINE
  5
5B7
330
1F
100
AcDbEntity
  8
2
  6
CONTINUOUS
370
25
 62
7
100
AcDbLine
 10
101.6034732330113
 20
5.232633834943435
 30
0.0
 11
102.594790150483
 21
6.223950752415156
 31
0.0
  0
LINE
  5
5B8
330
1F
100
AcDbEntity
  8
2
  6
CONTINUOUS
370
25
 62
7
100
AcDbLine
 10
101.5327625548927
 20
5.586187225536712
 30
0.0
 11
102.700856167661
 21
6.754280838305057
 31
0.0
  0
LINE
  5
5B9
330
1F
100
AcDbEntity
  8
2
  6
CONTINUOUS
370
25
 62
7
100
AcDbLine
 10
101.462051876774
 20
5.939740616129988
 30
0.0
 11
102.806922184839
 21
7.284610924194958
 31
0.0
  0
LINE
  5
5BA
330
1F
100
AcDbEntity
  8
2
  6
CONTINUOUS
370
25
 62
7
100
AcDbLine
 10
101.3913411986554
 20
6.293294006723258
 30
0.0
 11
102.912988202017
 21
7.814941010084851
 31
0.0
  0
LINE
  5
5BB
330
1F
100
AcDbEntity
  8
2
  6
CONTINUOUS
370
25
 62
7
100
AcDbLine
 10
101.3206305205367
 20
6.646847397316535
 30
0.0
 11
102.9237831232202
 21
8.25
 31
0.0
  0
LINE
  5
5BC
330
1F
100
AcDbEntity
  8
2
  6
CONTINUOUS
370
25
 62
7
100
AcDbLine
 10
101.249919842418
 20
7.00040078790979
 30
0.0
 11
102.4995190545083
 21
8.249999999999993
 31
0.0
  0
LINE
  5
5BD
330
1F
100
AcDbEntity
  8
2
  6
CONTINUOUS
370
25
 62
7
100
AcDbLine
 10
101.1792091642994
 20
7.353954178503081
 30
0.0
 11
102.0752549857963
 21
8.249999999999993
 31
0.0
  0
LINE
  5
5BE
330
1F
100
AcDbEntity
  8
2
  6
CONTINUOUS
370
25
 62
7
100
AcDbLine
 10
101.1084984861807
 20
7.707507569096336
 30
0.0
 11
101.6509909170844
 21
8.25
 31
0.0
  0
LINE
  5
5BF
330
1F
100
AcDbEntity
  8
2
  6
CONTINUOUS
370
25
 62
7
100
AcDbLine
 10
101.0377878080621
 20
8.061060959689613
 30
0.0
 11
101.2267268483725
 21
8.25
 31
0.0
  0
LINE
  5
5C0
330
1F
100
AcDbEntity
  8
2
  6
CONTINUOUS
370
25
 62
7
100
AcDbLine
 10
101.9737391999889
 20
3.38130400005538
 30
0.0
 11
102.0175072000074
 21
3.337536000036891
 31
0.0
  0
LINE
  5
5C1
330
1F
100
AcDbEntity
  8
2
  6
CONTINUOUS
370
25
 62
7
100
AcDbLine
 10
101.8676731828109
 20
3.911634085945295
 30
0.0
 11
102.088217878126
 21
3.691089390630182
 31
0.0
  0
LINE
  5
5C2
330
1F
100
AcDbEntity
  8
2
  6
CONTINUOUS
370
25
 62
7
100
AcDbLine
 10
101.761607165633
 20
4.441964171835181
 30
0.0
 11
102.1589285562447
 21
4.044642781223459
 31
0.0
  0
LINE
  5
5C3
330
1F
100
AcDbEntity
  8
2
  6
CONTINUOUS
370
25
 62
7
100
AcDbLine
 10
101.655541148455
 20
4.97229425772511
 30
0.0
 11
102.2296392343634
 21
4.398196171816721
 31
0.0
  0
LINE
  5
5C4
330
1F
100
AcDbEntity
  8
2
  6
CONTINUOUS
370
25
 62
7
100
AcDbLine
 10
101.549475131277
 20
5.502624343614997
 30
0.0
 11
102.300349912482
 21
4.751749562410012
 31
0.0
  0
LINE
  5
5C5
330
1F
100
AcDbEntity
  8
2
  6
CONTINUOUS
370
25
 62
7
100
AcDbLine
 10
101.443409114099
 20
6.032954429504912
 30
0.0
 11
102.3710605906007
 21
5.105302953003275
 31
0.0
  0
LINE
  5
5C6
330
1F
100
AcDbEntity
  8
2
  6
CONTINUOUS
370
25
 62
7
100
AcDbLine
 10
101.337343096921
 20
6.563284515394841
 30
0.0
 11
102.4417712687193
 21
5.458856343596565
 31
0.0
  0
LINE
  5
5C7
330
1F
100
AcDbEntity
  8
2
  6
CONTINUOUS
370
25
 62
7
100
AcDbLine
 10
101.231277079743
 20
7.09361460128477
 30
0.0
 11
102.512481946838
 21
5.812409734189828
 31
0.0
  0
LINE
  5
5C8
330
1F
100
AcDbEntity
  8
2
  6
CONTINUOUS
370
25
 62
7
100
AcDbLine
 10
101.1252110625651
 20
7.623944687174657
 30
0.0
 11
102.5831926249566
 21
6.16596312478309
 31
0.0
  0
LINE
  5
5C9
330
1F
100
AcDbEntity
  8
2
  6
CONTINUOUS
370
25
 62
7
100
AcDbLine
 10
101.0191450453871
 20
8.154274773064571
 30
0.0
 11
102.6539033030753
 21
6.519516515376381
 31
0.0
  0
LINE
  5
5CA
330
1F
100
AcDbEntity
  8
2
  6
CONTINUOUS
370
25
 62
7
100
AcDbLine
 10
101.3476838871636
 20
8.25
 30
0.0
 11
102.7246139811939
 21
6.873069905969643
 31
0.0
  0
LINE
  5
5CB
330
1F
100
AcDbEntity
  8
2
  6
CONTINUOUS
370
25
 62
7
100
AcDbLine
 10
101.7719479558755
 20
8.25
 30
0.0
 11
102.7953246593126
 21
7.226623296562934
 31
0.0
  0
LINE
  5
5CC
330
1F
100
AcDbEntity
  8
2
  6
CONTINUOUS
370
25
 62
7
100
AcDbLine
 10
102.1962120245874
 20
8.25
 30
0.0
 11
102.8660353374312
 21
7.580176687156197
 31
0.0
  0
LINE
  5
5CD
330
1F
100
AcDbEntity
  8
2
  6
CONTINUOUS
370
25
 62
7
100
AcDbLine
 10
102.6204760932994
 20
8.25
 30
0.0
 11
102.9367460155499
 21
7.933730077749473
 31
0.0
  0
TEXT
  5
5CE
330
1F
100
AcDbEntity
  8
2
  6
CONTINUOUS
370
25
 62
7
100
AcDbText
 10
100.5
 20
14.23749999999999
 30
0.0
 40
3.5
  1
6.5
 50
89.99999999999997
 72
     1
 11
100.5
 21
17.73749999999999
 31
0.0
100
AcDbText
  0
CIRCLE
  5
5CF
330
1F
100
AcDbEntity
  8
2
  6
CONTINUOUS
370
25
 62
7
100
AcDbCircle
 10
98.75
 20
11.26249999999999
 30
0.0
 40
1.4
  0
LINE
  5
5D0
330
1F
100
AcDbEntity
  8
2
  6
CONTINUOUS
370
25
 62
7
100
AcDbLine
 10
100.15
 20
9.862499999999994
 30
0.0
 11
97.35
 21
12.66249999999999
 31
0.0
  0
LINE
  5
5D1
330
1F
100
AcDbEntity
  8
2
  6
CONTINUOUS
370
25
 62
7
100
AcDbLine
 10
36.2
 20
4.0
 30
0.0
 11
36.2
 21
27.0
 31
0.0
  0
LINE
  5
5D2
330
1F
100
AcDbEntity
  8
2
  6
CONTINUOUS
370
25
 62
7
100
AcDbLine
 10
70.0
 20
27.0
 30
0.0
 11
70.0
 21
0.0
 31
0.0
  0
LINE
  5
5D3
330
1F
100
AcDbEntity
  8
2
  6
CONTINUOUS
370
25
 62
7
100
AcDbLine
 10
36.2
 20
26.0
 30
0.0
 11
70.0
 21
26.0
 31
0.0
  0
LINE
  5
5D4
330
1F
100
AcDbEntity
  8
2
  6
CONTINUOUS
370
25
 62
7
100
AcDbLine
 10
36.2
 20
26.0
 30
0.0
 11
41.2
 21
27.0
 31
0.0
  0
LINE
  5
5D5
330
1F
100
AcDbEntity
  8
2
  6
CONTINUOUS
370
25
 62
7
100
AcDbLine
 10
41.2
 20
27.0
 30
0.0
 11
41.2
 21
25.0
 31
0.0
  0
LINE
  5
5D6
330
1F
100
AcDbEntity
  8
2
  6
CONTINUOUS
370
25
 62
7
100
AcDbLine
 10
41.2
 20
25.0
 30
0.0
 11
36.2
 21
26.0
 31
0.0
  0
LINE
  5
5D7
330
1F
100
AcDbEntity
  8
2
  6
CONTINUOUS
370
25
 62
7
100
AcDbLine
 10
40.89610391818956
 20
25.06077921636209
 30
0.0
 11
41.2
 21
25.36467529817253
 31
0.0
  0
LINE
  5
5D8
330
1F
100
AcDbEntity
  8
2
  6
CONTINUOUS
370
25
 62
7
100
AcDbLine
 10
40.54255052759629
 20
25.13148989448074
 30
0.0
 11
41.2
 21
25.78893936688446
 31
0.0
  0
LINE
  5
5D9
330
1F
100
AcDbEntity
  8
2
  6
CONTINUOUS
370
25
 62
7
100
AcDbLine
 10
40.18899713700301
 20
25.2022005725994
 30
0.0
 11
41.2
 21
26.21320343559638
 31
0.0
  0
LINE
  5
5DA
330
1F
100
AcDbEntity
  8
2
  6
CONTINUOUS
370
25
 62
7
100
AcDbLine
 10
39.83544374640974
 20
25.27291125071805
 30
0.0
 11
41.2
 21
26.63746750430831
 31
0.0
  0
LINE
  5
5DB
330
1F
100
AcDbEntity
  8
2
  6
CONTINUOUS
370
25
 62
7
100
AcDbLine
 10
39.48189035581647
 20
25.34362192883671
 30
0.0
 11
41.1228355337247
 21
26.98456710674494
 31
0.0
  0
LINE
  5
5DC
330
1F
100
AcDbEntity
  8
2
  6
CONTINUOUS
370
25
 62
7
100
AcDbLine
 10
39.1283369652232
 20
25.41433260695536
 30
0.0
 11
40.5925054478348
 21
26.87850108956696
 31
0.0
  0
LINE
  5
5DD
330
1F
100
AcDbEntity
  8
2
  6
CONTINUOUS
370
25
 62
7
100
AcDbLine
 10
38.77478357462992
 20
25.48504328507402
 30
0.0
 11
40.06217536194488
 21
26.77243507238898
 31
0.0
  0
LINE
  5
5DE
330
1F
100
AcDbEntity
  8
2
  6
CONTINUOUS
370
25
 62
7
100
AcDbLine
 10
38.42123018403665
 20
25.55575396319267
 30
0.0
 11
39.53184527605497
 21
26.66636905521099
 31
0.0
  0
LINE
  5
5DF
330
1F
100
AcDbEntity
  8
2
  6
CONTINUOUS
370
25
 62
7
100
AcDbLine
 10
38.06767679344338
 20
25.62646464131133
 30
0.0
 11
39.00151519016507
 21
26.56030303803301
 31
0.0
  0
LINE
  5
5E0
330
1F
100
AcDbEntity
  8
2
  6
CONTINUOUS
370
25
 62
7
100
AcDbLine
 10
37.71412340285011
 20
25.69717531942998
 30
0.0
 11
38.47118510427515
 21
26.45423702085503
 31
0.0
  0
LINE
  5
5E1
330
1F
100
AcDbEntity
  8
2
  6
CONTINUOUS
370
25
 62
7
100
AcDbLine
 10
37.36057001225683
 20
25.76788599754864
 30
0.0
 11
37.94085501838524
 21
26.34817100367705
 31
0.0
  0
LINE
  5
5E2
330
1F
100
AcDbEntity
  8
2
  6
CONTINUOUS
370
25
 62
7
100
AcDbLine
 10
37.00701662166355
 20
25.83859667566729
 30
0.0
 11
37.41052493249533
 21
26.24210498649906
 31
0.0
  0
LINE
  5
5E3
330
1F
100
AcDbEntity
  8
2
  6
CONTINUOUS
370
25
 62
7
100
AcDbLine
 10
36.65346323107028
 20
25.90930735378594
 30
0.0
 11
36.88019484660542
 21
26.13603896932108
 31
0.0
  0
LINE
  5
5E4
330
1F
100
AcDbEntity
  8
2
  6
CONTINUOUS
370
25
 62
7
100
AcDbLine
 10
36.29990984047701
 20
25.9800180319046
 30
0.0
 11
36.34986476071551
 21
26.0299729521431
 31
0.0
  0
LINE
  5
5E5
330
1F
100
AcDbEntity
  8
2
  6
CONTINUOUS
370
25
 62
7
100
AcDbLine
 10
36.45364355011628
 20
26.05072871002325
 30
0.0
 11
36.58046532517442
 21
25.92390693496512
 31
0.0
  0
LINE
  5
5E6
330
1F
100
AcDbEntity
  8
2
  6
CONTINUOUS
370
25
 62
7
100
AcDbLine
 10
36.80719694070955
 20
26.12143938814191
 30
0.0
 11
37.11079541106432
 21
25.81784091778713
 31
0.0
  0
LINE
  5
5E7
330
1F
100
AcDbEntity
  8
2
  6
CONTINUOUS
370
25
 62
7
100
AcDbLine
 10
37.16075033130282
 20
26.19215006626056
 30
0.0
 11
37.64112549695424
 21
25.71177490060915
 31
0.0
  0
LINE
  5
5E8
330
1F
100
AcDbEntity
  8
2
  6
CONTINUOUS
370
25
 62
7
100
AcDbLine
 10
37.5143037218961
 20
26.26286074437922
 30
0.0
 11
38.17145558284415
 21
25.60570888343117
 31
0.0
  0
LINE
  5
5E9
330
1F
100
AcDbEntity
  8
2
  6
CONTINUOUS
370
25
 62
7
100
AcDbLine
 10
37.86785711248938
 20
26.33357142249787
 30
0.0
 11
38.70178566873406
 21
25.49964286625319
 31
0.0
  0
LINE
  5
5EA
330
1F
100
AcDbEntity
  8
2
  6
CONTINUOUS
370
25
 62
7
100
AcDbLine
 10
38.22141050308264
 20
26.40428210061653
 30
0.0
 11
39.23211575462397
 21
25.39357684907521
 31
0.0
  0
LINE
  5
5EB
330
1F
100
AcDbEntity
  8
2
  6
CONTINUOUS
370
25
 62
7
100
AcDbLine
 10
38.57496389367592
 20
26.47499277873519
 30
0.0
 11
39.76244584051388
 21
25.28751083189723
 31
0.0
  0
LINE
  5
5EC
330
1F
100
AcDbEntity
  8
2
  6
CONTINUOUS
370
25
 62
7
100
AcDbLine
 10
38.92851728426919
 20
26.54570345685384
 30
0.0
 11
40.29277592640379
 21
25.18144481471924
 31
0.0
  0
LINE
  5
5ED
330
1F
100
AcDbEntity
  8
2
  6
CONTINUOUS
370
25
 62
7
100
AcDbLine
 10
39.28207067486247
 20
26.61641413497249
 30
0.0
 11
40.8231060122937
 21
25.07537879754126
 31
0.0
  0
LINE
  5
5EE
330
1F
100
AcDbEntity
  8
2
  6
CONTINUOUS
370
25
 62
7
100
AcDbLine
 10
39.63562406545574
 20
26.68712481309115
 30
0.0
 11
41.2
 21
25.12274887854689
 31
0.0
  0
LINE
  5
5EF
330
1F
100
AcDbEntity
  8
2
  6
CONTINUOUS
370
25
 62
7
100
AcDbLine
 10
39.98917745604901
 20
26.7578354912098
 30
0.0
 11
41.2
 21
25.54701294725881
 31
0.0
  0
LINE
  5
5F0
330
1F
100
AcDbEntity
  8
2
  6
CONTINUOUS
370
25
 62
7
100
AcDbLine
 10
40.34273084664228
 20
26.82854616932846
 30
0.0
 11
41.2
 21
25.97127701597074
 31
0.0
  0
LINE
  5
5F1
330
1F
100
AcDbEntity
  8
2
  6
CONTINUOUS
370
25
 62
7
100
AcDbLine
 10
40.69628423723556
 20
26.89925684744711
 30
0.0
 11
41.2
 21
26.39554108468267
 31
0.0
  0
LINE
  5
5F2
330
1F
100
AcDbEntity
  8
2
  6
CONTINUOUS
370
25
 62
7
100
AcDbLine
 10
41.04983762782883
 20
26.96996752556577
 30
0.0
 11
41.2
 21
26.8198051533946
 31
0.0
  0
LINE
  5
5F3
330
1F
100
AcDbEntity
  8
2
  6
CONTINUOUS
370
25
 62
7
100
AcDbLine
 10
70.0
 20
26.0
 30
0.0
 11
65.0
 21
25.0
 31
0.0
  0
LINE
  5
5F4
330
1F
100
AcDbEntity
  8
2
  6
CONTINUOUS
370
25
 62
7
100
AcDbLine
 10
65.0
 20
25.0
 30
0.0
 11
65.0
 21
27.0
 31
0.0
  0
LINE
  5
5F5
330
1F
100
AcDbEntity
  8
2
  6
CONTINUOUS
370
25
 62
7
100
AcDbLine
 10
65.0
 20
27.0
 30
0.0
 11
70.0
 21
26.0
 31
0.0
  0
LINE
  5
5F6
330
1F
100
AcDbEntity
  8
2
  6
CONTINUOUS
370
25
 62
7
100
AcDbLine
 10
69.65278075683315
 20
25.93055615136663
 30
0.0
 11
69.76852050455543
 21
26.04629589908891
 31
0.0
  0
LINE
  5
5F7
330
1F
100
AcDbEntity
  8
2
  6
CONTINUOUS
370
25
 62
7
100
AcDbLine
 10
69.12245067094324
 20
25.82449013418864
 30
0.0
 11
69.41496711396216
 21
26.11700657720757
 31
0.0
  0
LINE
  5
5F8
330
1F
100
AcDbEntity
  8
2
  6
CONTINUOUS
370
25
 62
7
100
AcDbLine
 10
68.59212058505332
 20
25.71842411701066
 30
0.0
 11
69.06141372336889
 21
26.18771725532622
 31
0.0
  0
LINE
  5
5F9
330
1F
100
AcDbEntity
  8
2
  6
CONTINUOUS
370
25
 62
7
100
AcDbLine
 10
68.06179049916342
 20
25.61235809983268
 30
0.0
 11
68.70786033277562
 21
26.25842793344488
 31
0.0
  0
LINE
  5
5FA
330
1F
100
AcDbEntity
  8
2
  6
CONTINUOUS
370
25
 62
7
100
AcDbLine
 10
67.5314604132735
 20
25.5062920826547
 30
0.0
 11
68.35430694218233
 21
26.32913861156353
 31
0.0
  0
LINE
  5
5FB
330
1F
100
AcDbEntity
  8
2
  6
CONTINUOUS
370
25
 62
7
100
AcDbLine
 10
67.00113032738359
 20
25.40022606547672
 30
0.0
 11
68.00075355158907
 21
26.39984928968219
 31
0.0
  0
LINE
  5
5FC
330
1F
100
AcDbEntity
  8
2
  6
CONTINUOUS
370
25
 62
7
100
AcDbLine
 10
66.47080024149369
 20
25.29416004829874
 30
0.0
 11
67.6472001609958
 21
26.47055996780084
 31
0.0
  0
LINE
  5
5FD
330
1F
100
AcDbEntity
  8
2
  6
CONTINUOUS
370
25
 62
7
100
AcDbLine
 10
65.94047015560378
 20
25.18809403112076
 30
0.0
 11
67.29364677040252
 21
26.5412706459195
 31
0.0
  0
LINE
  5
5FE
330
1F
100
AcDbEntity
  8
2
  6
CONTINUOUS
370
25
 62
7
100
AcDbLine
 10
65.41014006971388
 20
25.08202801394278
 30
0.0
 11
66.94009337980924
 21
26.61198132403815
 31
0.0
  0
LINE
  5
5FF
330
1F
100
AcDbEntity
  8
2
  6
CONTINUOUS
370
25
 62
7
100
AcDbLine
 10
65.0
 20
25.09615201294083
 30
0.0
 11
66.58653998921596
 21
26.68269200215681
 31
0.0
  0
LINE
  5
600
330
1F
100
AcDbEntity
  8
2
  6
CONTINUOUS
370
25
 62
7
100
AcDbLine
 10
65.0
 20
25.52041608165276
 30
0.0
 11
66.23298659862269
 21
26.75340268027546
 31
0.0
  0
LINE
  5
601
330
1F
100
AcDbEntity
  8
2
  6
CONTINUOUS
370
25
 62
7
100
AcDbLine
 10
65.0
 20
25.94468015036469
 30
0.0
 11
65.87943320802941
 21
26.82411335839411
 31
0.0
  0
LINE
  5
602
330
1F
100
AcDbEntity
  8
2
  6
CONTINUOUS
370
25
 62
7
100
AcDbLine
 10
65.0
 20
26.36894421907662
 30
0.0
 11
65.52587981743615
 21
26.89482403651277
 31
0.0
  0
LINE
  5
603
330
1F
100
AcDbEntity
  8
2
  6
CONTINUOUS
370
25
 62
7
100
AcDbLine
 10
65.0
 20
26.79320828778855
 30
0.0
 11
65.17232642684287
 21
26.96553471463143
 31
0.0
  0
LINE
  5
604
330
1F
100
AcDbEntity
  8
2
  6
CONTINUOUS
370
25
 62
7
100
AcDbLine
 10
65.0
 20
25.08153672641494
 30
0.0
 11
65.06794727201245
 21
25.01358945440249
 31
0.0
  0
LINE
  5
605
330
1F
100
AcDbEntity
  8
2
  6
CONTINUOUS
370
25
 62
7
100
AcDbLine
 10
65.0
 20
25.50580079512687
 30
0.0
 11
65.42150066260572
 21
25.08430013252115
 31
0.0
  0
LINE
  5
606
330
1F
100
AcDbEntity
  8
2
  6
CONTINUOUS
370
25
 62
7
100
AcDbLine
 10
65.0
 20
25.9300648638388
 30
0.0
 11
65.775054053199
 21
25.1550108106398
 31
0.0
  0
LINE
  5
607
330
1F
100
AcDbEntity
  8
2
  6
CONTINUOUS
370
25
 62
7
100
AcDbLine
 10
65.0
 20
26.35432893255073
 30
0.0
 11
66.12860744379228
 21
25.22572148875846
 31
0.0
  0
LINE
  5
608
330
1F
100
AcDbEntity
  8
2
  6
CONTINUOUS
370
25
 62
7
100
AcDbLine
 10
65.0
 20
26.77859300126265
 30
0.0
 11
66.48216083438554
 21
25.29643216687711
 31
0.0
  0
LINE
  5
609
330
1F
100
AcDbEntity
  8
2
  6
CONTINUOUS
370
25
 62
7
100
AcDbLine
 10
65.25357133746823
 20
26.94928573250635
 30
0.0
 11
66.83571422497883
 21
25.36714284499577
 31
0.0
  0
LINE
  5
60A
330
1F
100
AcDbEntity
  8
2
  6
CONTINUOUS
370
25
 62
7
100
AcDbLine
 10
65.78390142335815
 20
26.84321971532837
 30
0.0
 11
67.1892676155721
 21
25.43785352311442
 31
0.0
  0
LINE
  5
60B
330
1F
100
AcDbEntity
  8
2
  6
CONTINUOUS
370
25
 62
7
100
AcDbLine
 10
66.31423150924805
 20
26.73715369815039
 30
0.0
 11
67.54282100616537
 21
25.50856420123307
 31
0.0
  0
LINE
  5
60C
330
1F
100
AcDbEntity
  8
2
  6
CONTINUOUS
370
25
 62
7
100
AcDbLine
 10
66.84456159513798
 20
26.6310876809724
 30
0.0
 11
67.89637439675865
 21
25.57927487935173
 31
0.0
  0
LINE
  5
60D
330
1F
100
AcDbEntity
  8
2
  6
CONTINUOUS
370
25
 62
7
100
AcDbLine
 10
67.37489168102789
 20
26.52502166379442
 30
0.0
 11
68.24992778735192
 21
25.64998555747039
 31
0.0
  0
LINE
  5
60E
330
1F
100
AcDbEntity
  8
2
  6
CONTINUOUS
370
25
 62
7
100
AcDbLine
 10
67.90522176691779
 20
26.41895564661644
 30
0.0
 11
68.6034811779452
 21
25.72069623558904
 31
0.0
  0
LINE
  5
60F
330
1F
100
AcDbEntity
  8
2
  6
CONTINUOUS
370
25
 62
7
100
AcDbLine
 10
68.4355518528077
 20
26.31288962943846
 30
0.0
 11
68.95703456853846
 21
25.7914069137077
 31
0.0
  0
LINE
  5
610
330
1F
100
AcDbEntity
  8
2
  6
CONTINUOUS
370
25
 62
7
100
AcDbLine
 10
68.96588193869763
 20
26.20682361226047
 30
0.0
 11
69.31058795913175
 21
25.86211759182635
 31
0.0
  0
LINE
  5
611
330
1F
100
AcDbEntity
  8
2
  6
CONTINUOUS
370
25
 62
7
100
AcDbLine
 10
69.49621202458754
 20
26.10075759508249
 30
0.0
 11
69.66414134972503
 21
25.932828269945
 31
0.0
  0
TEXT
  5
612
330
1F
100
AcDbEntity
  8
2
  6
CONTINUOUS
370
25
 62
7
100
AcDbText
 10
47.85
 20
27.5
 30
0.0
 40
3.5
  1
33.8
 72
     1
 11
53.1
 21
27.5
 31
0.0
100
AcDbText
  0
LINE
  5
613
330
1F
100
AcDbEntity
  8
2
  6
CONTINUOUS
370
25
 62
7
100
AcDbLine
 10
53.0
 20
-3.25
 30
0.0
 11
53.0
 21
-27.0
 31
0.0
  0
LINE
  5
614
330
1F
100
AcDbEntity
  8
2
  6
CONTINUOUS
370
25
 62
7
100
AcDbLine
 10
70.0
 20
-27.0
 30
0.0
 11
70.0
 21
0.0
 31
0.0
  0
LINE
  5
615
330
1F
100
AcDbEntity
  8
2
  6
CONTINUOUS
370
25
 62
7
100
AcDbLine
 10
53.0
 20
-26.0
 30
0.0
 11
70.0
 21
-26.0
 31
0.0
  0
LINE
  5
616
330
1F
100
AcDbEntity
  8
2
  6
CONTINUOUS
370
25
 62
7
100
AcDbLine
 10
53.0
 20
-26.0
 30
0.0
 11
58.0
 21
-25.0
 31
0.0
  0
LINE
  5
617
330
1F
100
AcDbEntity
  8
2
  6
CONTINUOUS
370
25
 62
7
100
AcDbLine
 10
58.0
 20
-25.0
 30
0.0
 11
58.0
 21
-27.0
 31
0.0
  0
LINE
  5
618
330
1F
100
AcDbEntity
  8
2
  6
CONTINUOUS
370
25
 62
7
100
AcDbLine
 10
58.0
 20
-27.0
 30
0.0
 11
53.0
 21
-26.0
 31
0.0
  0
LINE
  5
619
330
1F
100
AcDbEntity
  8
2
  6
CONTINUOUS
370
25
 62
7
100
AcDbLine
 10
57.74160856997428
 20
-26.94832171399486
 30
0.0
 11
58.0
 21
-26.68993028396914
 31
0.0
  0
LINE
  5
61A
330
1F
100
AcDbEntity
  8
2
  6
CONTINUOUS
370
25
 62
7
100
AcDbLine
 10
57.388055179381
 20
-26.8776110358762
 30
0.0
 11
58.0
 21
-26.2656662152572
 31
0.0
  0
LINE
  5
61B
330
1F
100
AcDbEntity
  8
2
  6
CONTINUOUS
370
25
 62
7
100
AcDbLine
 10
57.03450178878774
 20
-26.80690035775755
 30
0.0
 11
58.0
 21
-25.84140214654528
 31
0.0
  0
LINE
  5
61C
330
1F
100
AcDbEntity
  8
2
  6
CONTINUOUS
370
25
 62
7
100
AcDbLine
 10
56.68094839819446
 20
-26.73618967963889
 30
0.0
 11
58.0
 21
-25.41713807783335
 31
0.0
  0
LINE
  5
61D
330
1F
100
AcDbEntity
  8
2
  6
CONTINUOUS
370
25
 62
7
100
AcDbLine
 10
56.32739500760118
 20
-26.66547900152024
 30
0.0
 11
57.99109251140179
 21
-25.00178149771964
 31
0.0
  0
LINE
  5
61E
330
1F
100
AcDbEntity
  8
2
  6
CONTINUOUS
370
25
 62
7
100
AcDbLine
 10
55.97384161700791
 20
-26.59476832340158
 30
0.0
 11
57.46076242551187
 21
-25.10784751489762
 31
0.0
  0
LINE
  5
61F
330
1F
100
AcDbEntity
  8
2
  6
CONTINUOUS
370
25
 62
7
100
AcDbLine
 10
55.62028822641464
 20
-26.52405764528293
 30
0.0
 11
56.93043233962197
 21
-25.21391353207561
 31
0.0
  0
LINE
  5
620
330
1F
100
AcDbEntity
  8
2
  6
CONTINUOUS
370
25
 62
7
100
AcDbLine
 10
55.26673483582137
 20
-26.45334696716428
 30
0.0
 11
56.40010225373206
 21
-25.31997954925358
 31
0.0
  0
LINE
  5
621
330
1F
100
AcDbEntity
  8
2
  6
CONTINUOUS
370
25
 62
7
100
AcDbLine
 10
54.91318144522809
 20
-26.38263628904562
 30
0.0
 11
55.86977216784214
 21
-25.42604556643157
 31
0.0
  0
LINE
  5
622
330
1F
100
AcDbEntity
  8
2
  6
CONTINUOUS
370
25
 62
7
100
AcDbLine
 10
54.55962805463481
 20
-26.31192561092697
 30
0.0
 11
55.33944208195224
 21
-25.53211158360955
 31
0.0
  0
LINE
  5
623
330
1F
100
AcDbEntity
  8
2
  6
CONTINUOUS
370
25
 62
7
100
AcDbLine
 10
54.20607466404154
 20
-26.24121493280831
 30
0.0
 11
54.80911199606233
 21
-25.63817760078753
 31
0.0
  0
LINE
  5
624
330
1F
100
AcDbEntity
  8
2
  6
CONTINUOUS
370
25
 62
7
100
AcDbLine
 10
53.85252127344827
 20
-26.17050425468966
 30
0.0
 11
54.27878191017242
 21
-25.74424361796552
 31
0.0
  0
LINE
  5
625
330
1F
100
AcDbEntity
  8
2
  6
CONTINUOUS
370
25
 62
7
100
AcDbLine
 10
53.498967882855
 20
-26.099793576571
 30
0.0
 11
53.7484518242825
 21
-25.8503096351435
 31
0.0
  0
LINE
  5
626
330
1F
100
AcDbEntity
  8
2
  6
CONTINUOUS
370
25
 62
7
100
AcDbLine
 10
53.14541449226173
 20
-26.02908289845235
 30
0.0
 11
53.2181217383926
 21
-25.95637565232148
 31
0.0
  0
LINE
  5
627
330
1F
100
AcDbEntity
  8
2
  6
CONTINUOUS
370
25
 62
7
100
AcDbLine
 10
53.12547300055761
 20
-25.97490539988848
 30
0.0
 11
53.18820950083641
 21
-26.03764190016728
 31
0.0
  0
LINE
  5
628
330
1F
100
AcDbEntity
  8
2
  6
CONTINUOUS
370
25
 62
7
100
AcDbLine
 10
53.47902639115088
 20
-25.90419472176982
 30
0.0
 11
53.71853958672632
 21
-26.14370791734527
 31
0.0
  0
LINE
  5
629
330
1F
100
AcDbEntity
  8
2
  6
CONTINUOUS
370
25
 62
7
100
AcDbLine
 10
53.83257978174416
 20
-25.83348404365117
 30
0.0
 11
54.24886967261624
 21
-26.24977393452325
 31
0.0
  0
LINE
  5
62A
330
1F
100
AcDbEntity
  8
2
  6
CONTINUOUS
370
25
 62
7
100
AcDbLine
 10
54.18613317233743
 20
-25.76277336553252
 30
0.0
 11
54.77919975850615
 21
-26.35583995170123
 31
0.0
  0
LINE
  5
62B
330
1F
100
AcDbEntity
  8
2
  6
CONTINUOUS
370
25
 62
7
100
AcDbLine
 10
54.5396865629307
 20
-25.69206268741386
 30
0.0
 11
55.30952984439605
 21
-26.46190596887921
 31
0.0
  0
LINE
  5
62C
330
1F
100
AcDbEntity
  8
2
  6
CONTINUOUS
370
25
 62
7
100
AcDbLine
 10
54.89323995352397
 20
-25.6213520092952
 30
0.0
 11
55.83985993028597
 21
-26.56797198605719
 31
0.0
  0
LINE
  5
62D
330
1F
100
AcDbEntity
  8
2
  6
CONTINUOUS
370
25
 62
7
100
AcDbLine
 10
55.24679334411725
 20
-25.55064133117655
 30
0.0
 11
56.37019001617588
 21
-26.67403800323518
 31
0.0
  0
LINE
  5
62E
330
1F
100
AcDbEntity
  8
2
  6
CONTINUOUS
370
25
 62
7
100
AcDbLine
 10
55.60034673471053
 20
-25.4799306530579
 30
0.0
 11
56.90052010206579
 21
-26.78010402041316
 31
0.0
  0
LINE
  5
62F
330
1F
100
AcDbEntity
  8
2
  6
CONTINUOUS
370
25
 62
7
100
AcDbLine
 10
55.9539001253038
 20
-25.40921997493924
 30
0.0
 11
57.4308501879557
 21
-26.88617003759114
 31
0.0
  0
LINE
  5
630
330
1F
100
AcDbEntity
  8
2
  6
CONTINUOUS
370
25
 62
7
100
AcDbLine
 10
56.30745351589707
 20
-25.33850929682059
 30
0.0
 11
57.96118027384561
 21
-26.99223605476912
 31
0.0
  0
LINE
  5
631
330
1F
100
AcDbEntity
  8
2
  6
CONTINUOUS
370
25
 62
7
100
AcDbLine
 10
56.66100690649034
 20
-25.26779861870193
 30
0.0
 11
58.0
 21
-26.60679171221159
 31
0.0
  0
LINE
  5
632
330
1F
100
AcDbEntity
  8
2
  6
CONTINUOUS
370
25
 62
7
100
AcDbLine
 10
57.01456029708362
 20
-25.19708794058328
 30
0.0
 11
58.0
 21
-26.18252764349966
 31
0.0
  0
LINE
  5
633
330
1F
100
AcDbEntity
  8
2
  6
CONTINUOUS
370
25
 62
7
100
AcDbLine
 10
57.3681136876769
 20
-25.12637726246462
 30
0.0
 11
58.0
 21
-25.75826357478773
 31
0.0
  0
LINE
  5
634
330
1F
100
AcDbEntity
  8
2
  6
CONTINUOUS
370
25
 62
7
100
AcDbLine
 10
57.72166707827017
 20
-25.05566658434597
 30
0.0
 11
58.0
 21
-25.33399950607581
 31
0.0
  0
LINE
  5
635
330
1F
100
AcDbEntity
  8
2
  6
CONTINUOUS
370
25
 62
7
100
AcDbLine
 10
70.0
 20
-26.0
 30
0.0
 11
65.0
 21
-27.0
 31
0.0
  0
LINE
  5
636
330
1F
100
AcDbEntity
  8
2
  6
CONTINUOUS
370
25
 62
7
100
AcDbLine
 10
65.0
 20
-27.0
 30
0.0
 11
65.0
 21
-25.0
 31
0.0
  0
LINE
  5
637
330
1F
100
AcDbEntity
  8
2
  6
CONTINUOUS
370
25
 62
7
100
AcDbLine
 10
65.0
 20
-25.0
 30
0.0
 11
70.0
 21
-26.0
 31
0.0
  0
LINE
  5
638
330
1F
100
AcDbEntity
  8
2
  6
CONTINUOUS
370
25
 62
7
100
AcDbLine
 10
69.95251027826404
 20
-26.00949794434719
 30
0.0
 11
69.96834018550936
 21
-25.99366803710188
 31
0.0
  0
LINE
  5
639
330
1F
100
AcDbEntity
  8
2
  6
CONTINUOUS
370
25
 62
7
100
AcDbLine
 10
69.42218019237416
 20
-26.11556396152517
 30
0.0
 11
69.6147867949161
 21
-25.92295735898322
 31
0.0
  0
LINE
  5
63A
330
1F
100
AcDbEntity
  8
2
  6
CONTINUOUS
370
25
 62
7
100
AcDbLine
 10
68.89185010648423
 20
-26.22162997870316
 30
0.0
 11
69.26123340432281
 21
-25.85224668086457
 31
0.0
  0
LINE
  5
63B
330
1F
100
AcDbEntity
  8
2
  6
CONTINUOUS
370
25
 62
7
100
AcDbLine
 10
68.36152002059431
 20
-26.32769599588114
 30
0.0
 11
68.90768001372953
 21
-25.78153600274591
 31
0.0
  0
LINE
  5
63C
330
1F
100
AcDbEntity
  8
2
  6
CONTINUOUS
370
25
 62
7
100
AcDbLine
 10
67.8311899347044
 20
-26.43376201305912
 30
0.0
 11
68.55412662313627
 21
-25.71082532462725
 31
0.0
  0
LINE
  5
63D
330
1F
100
AcDbEntity
  8
2
  6
CONTINUOUS
370
25
 62
7
100
AcDbLine
 10
67.3008598488145
 20
-26.5398280302371
 30
0.0
 11
68.200573232543
 21
-25.6401146465086
 31
0.0
  0
LINE
  5
63E
330
1F
100
AcDbEntity
  8
2
  6
CONTINUOUS
370
25
 62
7
100
AcDbLine
 10
66.77052976292458
 20
-26.64589404741508
 30
0.0
 11
67.84701984194973
 21
-25.56940396838994
 31
0.0
  0
LINE
  5
63F
330
1F
100
AcDbEntity
  8
2
  6
CONTINUOUS
370
25
 62
7
100
AcDbLine
 10
66.24019967703467
 20
-26.75196006459307
 30
0.0
 11
67.49346645135644
 21
-25.49869329027129
 31
0.0
  0
LINE
  5
640
330
1F
100
AcDbEntity
  8
2
  6
CONTINUOUS
370
25
 62
7
100
AcDbLine
 10
65.70986959114477
 20
-26.85802608177105
 30
0.0
 11
67.13991306076318
 21
-25.42798261215263
 31
0.0
  0
LINE
  5
641
330
1F
100
AcDbEntity
  8
2
  6
CONTINUOUS
370
25
 62
7
100
AcDbLine
 10
65.17953950525485
 20
-26.96409209894903
 30
0.0
 11
66.7863596701699
 21
-25.35727193403398
 31
0.0
  0
LINE
  5
642
330
1F
100
AcDbEntity
  8
2
  6
CONTINUOUS
370
25
 62
7
100
AcDbLine
 10
65.0
 20
-26.71936753549195
 30
0.0
 11
66.43280627957662
 21
-25.28656125591532
 31
0.0
  0
LINE
  5
643
330
1F
100
AcDbEntity
  8
2
  6
CONTINUOUS
370
25
 62
7
100
AcDbLine
 10
65.0
 20
-26.29510346678003
 30
0.0
 11
66.07925288898335
 21
-25.21585057779667
 31
0.0
  0
LINE
  5
644
330
1F
100
AcDbEntity
  8
2
  6
CONTINUOUS
370
25
 62
7
100
AcDbLine
 10
65.0
 20
-25.8708393980681
 30
0.0
 11
65.72569949839007
 21
-25.14513989967802
 31
0.0
  0
LINE
  5
645
330
1F
100
AcDbEntity
  8
2
  6
CONTINUOUS
370
25
 62
7
100
AcDbLine
 10
65.0
 20
-25.44657532935617
 30
0.0
 11
65.37214610779681
 21
-25.07442922155936
 31
0.0
  0
LINE
  5
646
330
1F
100
AcDbEntity
  8
2
  6
CONTINUOUS
370
25
 62
7
100
AcDbLine
 10
65.0
 20
-25.02231126064424
 30
0.0
 11
65.01859271720353
 21
-25.00371854344071
 31
0.0
  0
LINE
  5
647
330
1F
100
AcDbEntity
  8
2
  6
CONTINUOUS
370
25
 62
7
100
AcDbLine
 10
65.0
 20
-26.6786796564402
 30
0.0
 11
65.2677669529665
 21
-26.9464466094067
 31
0.0
  0
LINE
  5
648
330
1F
100
AcDbEntity
  8
2
  6
CONTINUOUS
370
25
 62
7
100
AcDbLine
 10
65.0
 20
-26.25441558772827
 30
0.0
 11
65.62132034355977
 21
-26.87573593128804
 31
0.0
  0
LINE
  5
649
330
1F
100
AcDbEntity
  8
2
  6
CONTINUOUS
370
25
 62
7
100
AcDbLine
 10
65.0
 20
-25.83015151901634
 30
0.0
 11
65.97487373415305
 21
-26.80502525316938
 31
0.0
  0
LINE
  5
64A
330
1F
100
AcDbEntity
  8
2
  6
CONTINUOUS
370
25
 62
7
100
AcDbLine
 10
65.0
 20
-25.40588745030442
 30
0.0
 11
66.32842712474633
 21
-26.73431457505074
 31
0.0
  0
LINE
  5
64B
330
1F
100
AcDbEntity
  8
2
  6
CONTINUOUS
370
25
 62
7
100
AcDbLine
 10
65.02297077300939
 20
-25.00459415460188
 30
0.0
 11
66.6819805153396
 21
-26.66360389693208
 31
0.0
  0
LINE
  5
64C
330
1F
100
AcDbEntity
  8
2
  6
CONTINUOUS
370
25
 62
7
100
AcDbLine
 10
65.5533008588993
 20
-25.11066017177987
 30
0.0
 11
67.03553390593288
 21
-26.59289321881342
 31
0.0
  0
LINE
  5
64D
330
1F
100
AcDbEntity
  8
2
  6
CONTINUOUS
370
25
 62
7
100
AcDbLine
 10
66.08363094478922
 20
-25.21672618895784
 30
0.0
 11
67.38908729652616
 21
-26.52218254069477
 31
0.0
  0
LINE
  5
64E
330
1F
100
AcDbEntity
  8
2
  6
CONTINUOUS
370
25
 62
7
100
AcDbLine
 10
66.61396103067914
 20
-25.32279220613583
 30
0.0
 11
67.74264068711943
 21
-26.45147186257612
 31
0.0
  0
LINE
  5
64F
330
1F
100
AcDbEntity
  8
2
  6
CONTINUOUS
370
25
 62
7
100
AcDbLine
 10
67.14429111656905
 20
-25.42885822331381
 30
0.0
 11
68.0961940777127
 21
-26.38076118445746
 31
0.0
  0
LINE
  5
650
330
1F
100
AcDbEntity
  8
2
  6
CONTINUOUS
370
25
 62
7
100
AcDbLine
 10
67.67462120245897
 20
-25.53492424049179
 30
0.0
 11
68.44974746830597
 21
-26.3100505063388
 31
0.0
  0
LINE
  5
651
330
1F
100
AcDbEntity
  8
2
  6
CONTINUOUS
370
25
 62
7
100
AcDbLine
 10
68.20495128834887
 20
-25.64099025766977
 30
0.0
 11
68.80330085889926
 21
-26.23933982822015
 31
0.0
  0
LINE
  5
652
330
1F
100
AcDbEntity
  8
2
  6
CONTINUOUS
370
25
 62
7
100
AcDbLine
 10
68.73528137423878
 20
-25.74705627484775
 30
0.0
 11
69.15685424949253
 21
-26.16862915010149
 31
0.0
  0
LINE
  5
653
330
1F
100
AcDbEntity
  8
2
  6
CONTINUOUS
370
25
 62
7
100
AcDbLine
 10
69.26561146012871
 20
-25.85312229202574
 30
0.0
 11
69.5104076400858
 21
-26.09791847198284
 31
0.0
  0
LINE
  5
654
330
1F
100
AcDbEntity
  8
2
  6
CONTINUOUS
370
25
 62
7
100
AcDbLine
 10
69.79594154601862
 20
-25.95918830920372
 30
0.0
 11
69.86396103067908
 21
-26.02720779386418
 31
0.0
  0
TEXT
  5
655
330
1F
100
AcDbEntity
  8
2
  6
CONTINUOUS
370
25
 62
7
100
AcDbText
 10
59.16666666666666
 20
-24.5
 30
0.0
 40
3.5
  1
17
 72
     1
 11
61.5
 21
-24.5
 31
0.0
100
AcDbText
  0
LINE
  5
656
330
1F
100
AcDbEntity
  8
SK2
  6
CONTINUOUS
370
25
 62
7
100
AcDbLine
 10
0.0
 20
8.0
 30
0.0
 11
0.0
 21
37.0
 31
0.0
  0
LINE
  5
657
330
1F
100
AcDbEntity
  8
SK2
  6
CONTINUOUS
370
25
 62
7
100
AcDbLine
 10
70.0
 20
37.0
 30
0.0
 11
70.0
 21
0.0
 31
0.0
  0
LINE
  5
658
330
1F
100
AcDbEntity
  8
SK2
  6
CONTINUOUS
370
25
 62
7
100
AcDbLine
 10
0.0
 20
36.0
 30
0.0
 11
70.0
 21
36.0
 31
0.0
  0
LINE
  5
659
330
1F
100
AcDbEntity
  8
SK2
  6
CONTINUOUS
370
25
 62
7
100
AcDbLine
 10
0.0
 20
36.0
 30
0.0
 11
5.0
 21
37.0
 31
0.0
  0
LINE
  5
65A
330
1F
100
AcDbEntity
  8
SK2
  6
CONTINUOUS
370
25
 62
7
100
AcDbLine
 10
5.0
 20
37.0
 30
0.0
 11
5.0
 21
35.0
 31
0.0
  0
LINE
  5
65B
330
1F
100
AcDbEntity
  8
SK2
  6
CONTINUOUS
370
25
 62
7
100
AcDbLine
 10
5.0
 20
35.0
 30
0.0
 11
0.0
 21
36.0
 31
0.0
  0
LINE
  5
65C
330
1F
100
AcDbEntity
  8
SK2
  6
CONTINUOUS
370
25
 62
7
100
AcDbLine
 10
4.658784343522676
 20
35.06824313129546
 30
0.0
 11
5.0
 21
35.40945878777279
 31
0.0
  0
LINE
  5
65D
330
1F
100
AcDbEntity
  8
SK2
  6
CONTINUOUS
370
25
 62
7
100
AcDbLine
 10
4.30523095292941
 20
35.13895380941412
 30
0.0
 11
5.0
 21
35.83372285648471
 31
0.0
  0
LINE
  5
65E
330
1F
100
AcDbEntity
  8
SK2
  6
CONTINUOUS
370
25
 62
7
100
AcDbLine
 10
3.95167756233613
 20
35.20966448753278
 30
0.0
 11
5.0
 21
36.25798692519665
 31
0.0
  0
LINE
  5
65F
330
1F
100
AcDbEntity
  8
SK2
  6
CONTINUOUS
370
25
 62
7
100
AcDbLine
 10
3.598124171742853
 20
35.28037516565144
 30
0.0
 11
5.0
 21
36.68225099390858
 31
0.0
  0
LINE
  5
660
330
1F
100
AcDbEntity
  8
SK2
  6
CONTINUOUS
370
25
 62
7
100
AcDbLine
 10
3.244570781149584
 20
35.35108584377009
 30
0.0
 11
4.866856171724375
 21
36.97337123434487
 31
0.0
  0
LINE
  5
661
330
1F
100
AcDbEntity
  8
SK2
  6
CONTINUOUS
370
25
 62
7
100
AcDbLine
 10
2.891017390556307
 20
35.42179652188874
 30
0.0
 11
4.336526085834457
 21
36.86730521716689
 31
0.0
  0
LINE
  5
662
330
1F
100
AcDbEntity
  8
SK2
  6
CONTINUOUS
370
25
 62
7
100
AcDbLine
 10
2.537463999963023
 20
35.4925072000074
 30
0.0
 11
3.806195999944535
 21
36.76123919998891
 31
0.0
  0
LINE
  5
663
330
1F
100
AcDbEntity
  8
SK2
  6
CONTINUOUS
370
25
 62
7
100
AcDbLine
 10
2.183910609369747
 20
35.56321787812605
 30
0.0
 11
3.27586591405462
 21
36.65517318281093
 31
0.0
  0
LINE
  5
664
330
1F
100
AcDbEntity
  8
SK2
  6
CONTINUOUS
370
25
 62
7
100
AcDbLine
 10
1.83035721877647
 20
35.63392855624471
 30
0.0
 11
2.745535828164698
 21
36.54910716563294
 31
0.0
  0
LINE
  5
665
330
1F
100
AcDbEntity
  8
SK2
  6
CONTINUOUS
370
25
 62
7
100
AcDbLine
 10
1.476803828183201
 20
35.70463923436336
 30
0.0
 11
2.215205742274797
 21
36.44304114845496
 31
0.0
  0
LINE
  5
666
330
1F
100
AcDbEntity
  8
SK2
  6
CONTINUOUS
370
25
 62
7
100
AcDbLine
 10
1.123250437589924
 20
35.77534991248202
 30
0.0
 11
1.684875656384882
 21
36.33697513127698
 31
0.0
  0
LINE
  5
667
330
1F
100
AcDbEntity
  8
SK2
  6
CONTINUOUS
370
25
 62
7
100
AcDbLine
 10
0.7696970469966402
 20
35.84606059060067
 30
0.0
 11
1.15454557049496
 21
36.23090911409899
 31
0.0
  0
LINE
  5
668
330
1F
100
AcDbEntity
  8
SK2
  6
CONTINUOUS
370
25
 62
7
100
AcDbLine
 10
0.4161436564033636
 20
35.91677126871933
 30
0.0
 11
0.6242154846050525
 21
36.12484309692102
 31
0.0
  0
LINE
  5
669
330
1F
100
AcDbEntity
  8
SK2
  6
CONTINUOUS
370
25
 62
7
100
AcDbLine
 10
0.0625902658100941
 20
35.98748194683798
 30
0.0
 11
0.0938853987151447
 21
36.01877707974303
 31
0.0
  0
LINE
  5
66A
330
1F
100
AcDbEntity
  8
SK2
  6
CONTINUOUS
370
25
 62
7
100
AcDbLine
 10
0.2008517980989737
 20
36.0401703596198
 30
0.0
 11
0.3012776971484712
 21
35.9397444605703
 31
0.0
  0
LINE
  5
66B
330
1F
100
AcDbEntity
  8
SK2
  6
CONTINUOUS
370
25
 62
7
100
AcDbLine
 10
0.5544051886922503
 20
36.11088103773845
 30
0.0
 11
0.8316077830383861
 21
35.83367844339232
 31
0.0
  0
LINE
  5
66C
330
1F
100
AcDbEntity
  8
SK2
  6
CONTINUOUS
370
25
 62
7
100
AcDbLine
 10
0.907958579285534
 20
36.1815917158571
 30
0.0
 11
1.361937868928301
 21
35.72761242621434
 31
0.0
  0
LINE
  5
66D
330
1F
100
AcDbEntity
  8
SK2
  6
CONTINUOUS
370
25
 62
7
100
AcDbLine
 10
1.261511969878804
 20
36.25230239397577
 30
0.0
 11
1.892267954818209
 21
35.62154640903636
 31
0.0
  0
LINE
  5
66E
330
1F
100
AcDbEntity
  8
SK2
  6
CONTINUOUS
370
25
 62
7
100
AcDbLine
 10
1.61506536047208
 20
36.32301307209443
 30
0.0
 11
2.422598040708124
 21
35.51548039185838
 31
0.0
  0
LINE
  5
66F
330
1F
100
AcDbEntity
  8
SK2
  6
CONTINUOUS
370
25
 62
7
100
AcDbLine
 10
1.968618751065357
 20
36.39372375021307
 30
0.0
 11
2.952928126598032
 21
35.40941437468039
 31
0.0
  0
LINE
  5
670
330
1F
100
AcDbEntity
  8
SK2
  6
CONTINUOUS
370
25
 62
7
100
AcDbLine
 10
2.322172141658633
 20
36.46443442833173
 30
0.0
 11
3.483258212487947
 21
35.30334835750241
 31
0.0
  0
LINE
  5
671
330
1F
100
AcDbEntity
  8
SK2
  6
CONTINUOUS
370
25
 62
7
100
AcDbLine
 10
2.675725532251903
 20
36.53514510645039
 30
0.0
 11
4.013588298377847
 21
35.19728234032443
 31
0.0
  0
LINE
  5
672
330
1F
100
AcDbEntity
  8
SK2
  6
CONTINUOUS
370
25
 62
7
100
AcDbLine
 10
3.02927892284518
 20
36.60585578456904
 30
0.0
 11
4.543918384267762
 21
35.09121632314644
 31
0.0
  0
LINE
  5
673
330
1F
100
AcDbEntity
  8
SK2
  6
CONTINUOUS
370
25
 62
7
100
AcDbLine
 10
3.382832313438456
 20
36.6765664626877
 30
0.0
 11
5.0
 21
35.05939877612614
 31
0.0
  0
LINE
  5
674
330
1F
100
AcDbEntity
  8
SK2
  6
CONTINUOUS
370
25
 62
7
100
AcDbLine
 10
3.736385704031733
 20
36.74727714080635
 30
0.0
 11
5.0
 21
35.48366284483807
 31
0.0
  0
LINE
  5
675
330
1F
100
AcDbEntity
  8
SK2
  6
CONTINUOUS
370
25
 62
7
100
AcDbLine
 10
4.089939094625009
 20
36.817987818925
 30
0.0
 11
5.0
 21
35.90792691355
 31
0.0
  0
LINE
  5
676
330
1F
100
AcDbEntity
  8
SK2
  6
CONTINUOUS
370
25
 62
7
100
AcDbLine
 10
4.443492485218286
 20
36.88869849704366
 30
0.0
 11
5.0
 21
36.33219098226193
 31
0.0
  0
LINE
  5
677
330
1F
100
AcDbEntity
  8
SK2
  6
CONTINUOUS
370
25
 62
7
100
AcDbLine
 10
4.797045875811563
 20
36.95940917516231
 30
0.0
 11
5.0
 21
36.75645505097387
 31
0.0
  0
LINE
  5
678
330
1F
100
AcDbEntity
  8
SK2
  6
CONTINUOUS
370
25
 62
7
100
AcDbLine
 10
70.0
 20
36.0
 30
0.0
 11
65.0
 21
35.0
 31
0.0
  0
LINE
  5
679
330
1F
100
AcDbEntity
  8
SK2
  6
CONTINUOUS
370
25
 62
7
100
AcDbLine
 10
65.0
 20
35.0
 30
0.0
 11
65.0
 21
37.0
 31
0.0
  0
LINE
  5
67A
330
1F
100
AcDbEntity
  8
SK2
  6
CONTINUOUS
370
25
 62
7
100
AcDbLine
 10
65.0
 20
37.0
 30
0.0
 11
70.0
 21
36.0
 31
0.0
  0
LINE
  5
67B
330
1F
100
AcDbEntity
  8
SK2
  6
CONTINUOUS
370
25
 62
7
100
AcDbLine
 10
69.56801948466051
 20
35.9136038969321
 30
0.0
 11
69.71201298977368
 21
36.05759740204527
 31
0.0
  0
LINE
  5
67C
330
1F
100
AcDbEntity
  8
SK2
  6
CONTINUOUS
370
25
 62
7
100
AcDbLine
 10
69.0376893987706
 20
35.80753787975412
 30
0.0
 11
69.35845959918039
 21
36.12830808016392
 31
0.0
  0
LINE
  5
67D
330
1F
100
AcDbEntity
  8
SK2
  6
CONTINUOUS
370
25
 62
7
100
AcDbLine
 10
68.50735931288068
 20
35.70147186257613
 30
0.0
 11
69.00490620858713
 21
36.19901875828258
 31
0.0
  0
LINE
  5
67E
330
1F
100
AcDbEntity
  8
SK2
  6
CONTINUOUS
370
25
 62
7
100
AcDbLine
 10
67.97702922699078
 20
35.59540584539816
 30
0.0
 11
68.65135281799385
 21
36.26972943640122
 31
0.0
  0
LINE
  5
67F
330
1F
100
AcDbEntity
  8
SK2
  6
CONTINUOUS
370
25
 62
7
100
AcDbLine
 10
67.44669914110086
 20
35.48933982822017
 30
0.0
 11
68.29779942740058
 21
36.34044011451988
 31
0.0
  0
LINE
  5
680
330
1F
100
AcDbEntity
  8
SK2
  6
CONTINUOUS
370
25
 62
7
100
AcDbLine
 10
66.91636905521095
 20
35.38327381104219
 30
0.0
 11
67.9442460368073
 21
36.41115079263854
 31
0.0
  0
LINE
  5
681
330
1F
100
AcDbEntity
  8
SK2
  6
CONTINUOUS
370
25
 62
7
100
AcDbLine
 10
66.38603896932105
 20
35.27720779386421
 30
0.0
 11
67.59069264621402
 21
36.4818614707572
 31
0.0
  0
LINE
  5
682
330
1F
100
AcDbEntity
  8
SK2
  6
CONTINUOUS
370
25
 62
7
100
AcDbLine
 10
65.85570888343113
 20
35.17114177668623
 30
0.0
 11
67.23713925562075
 21
36.55257214887585
 31
0.0
  0
LINE
  5
683
330
1F
100
AcDbEntity
  8
SK2
  6
CONTINUOUS
370
25
 62
7
100
AcDbLine
 10
65.32537879754123
 20
35.06507575950825
 30
0.0
 11
66.88358586502747
 21
36.6232828269945
 31
0.0
  0
LINE
  5
684
330
1F
100
AcDbEntity
  8
SK2
  6
CONTINUOUS
370
25
 62
7
100
AcDbLine
 10
65.0
 20
35.16396103067895
 30
0.0
 11
66.5300324744342
 21
36.69399350511316
 31
0.0
  0
LINE
  5
685
330
1F
100
AcDbEntity
  8
SK2
  6
CONTINUOUS
370
25
 62
7
100
AcDbLine
 10
65.0
 20
35.58822509939088
 30
0.0
 11
66.17647908384092
 21
36.76470418323181
 31
0.0
  0
LINE
  5
686
330
1F
100
AcDbEntity
  8
SK2
  6
CONTINUOUS
370
25
 62
7
100
AcDbLine
 10
65.0
 20
36.01248916810282
 30
0.0
 11
65.82292569324764
 21
36.83541486135047
 31
0.0
  0
LINE
  5
687
330
1F
100
AcDbEntity
  8
SK2
  6
CONTINUOUS
370
25
 62
7
100
AcDbLine
 10
65.0
 20
36.43675323681475
 30
0.0
 11
65.46937230265436
 21
36.90612553946912
 31
0.0
  0
LINE
  5
688
330
1F
100
AcDbEntity
  8
SK2
  6
CONTINUOUS
370
25
 62
7
100
AcDbLine
 10
65.0
 20
36.86101730552669
 30
0.0
 11
65.11581891206109
 21
36.97683621758778
 31
0.0
  0
LINE
  5
689
330
1F
100
AcDbEntity
  8
SK2
  6
CONTINUOUS
370
25
 62
7
100
AcDbLine
 10
65.0
 20
35.2638743755012
 30
0.0
 11
65.21989531291767
 21
35.04397906258353
 31
0.0
  0
LINE
  5
68A
330
1F
100
AcDbEntity
  8
SK2
  6
CONTINUOUS
370
25
 62
7
100
AcDbLine
 10
65.0
 20
35.68813844421312
 30
0.0
 11
65.57344870351093
 21
35.11468974070219
 31
0.0
  0
LINE
  5
68B
330
1F
100
AcDbEntity
  8
SK2
  6
CONTINUOUS
370
25
 62
7
100
AcDbLine
 10
65.0
 20
36.11240251292506
 30
0.0
 11
65.92700209410421
 21
35.18540041882085
 31
0.0
  0
LINE
  5
68C
330
1F
100
AcDbEntity
  8
SK2
  6
CONTINUOUS
370
25
 62
7
100
AcDbLine
 10
65.0
 20
36.53666658163699
 30
0.0
 11
66.2805554846975
 21
35.2561110969395
 31
0.0
  0
LINE
  5
68D
330
1F
100
AcDbEntity
  8
SK2
  6
CONTINUOUS
370
25
 62
7
100
AcDbLine
 10
65.0
 20
36.96093065034891
 30
0.0
 11
66.63410887529076
 21
35.32682177505815
 31
0.0
  0
LINE
  5
68E
330
1F
100
AcDbEntity
  8
SK2
  6
CONTINUOUS
370
25
 62
7
100
AcDbLine
 10
65.48149339882606
 20
36.90370132023479
 30
0.0
 11
66.98766226588404
 21
35.39753245317681
 31
0.0
  0
LINE
  5
68F
330
1F
100
AcDbEntity
  8
SK2
  6
CONTINUOUS
370
25
 62
7
100
AcDbLine
 10
66.01182348471599
 20
36.7976353030568
 30
0.0
 11
67.34121565647732
 21
35.46824313129547
 31
0.0
  0
LINE
  5
690
330
1F
100
AcDbEntity
  8
SK2
  6
CONTINUOUS
370
25
 62
7
100
AcDbLine
 10
66.5421535706059
 20
36.69156928587881
 30
0.0
 11
67.69476904707061
 21
35.53895380941412
 31
0.0
  0
LINE
  5
691
330
1F
100
AcDbEntity
  8
SK2
  6
CONTINUOUS
370
25
 62
7
100
AcDbLine
 10
67.07248365649582
 20
36.58550326870083
 30
0.0
 11
68.04832243766388
 21
35.60966448753278
 31
0.0
  0
LINE
  5
692
330
1F
100
AcDbEntity
  8
SK2
  6
CONTINUOUS
370
25
 62
7
100
AcDbLine
 10
67.60281374238572
 20
36.47943725152285
 30
0.0
 11
68.40187582825715
 21
35.68037516565143
 31
0.0
  0
LINE
  5
693
330
1F
100
AcDbEntity
  8
SK2
  6
CONTINUOUS
370
25
 62
7
100
AcDbLine
 10
68.13314382827565
 20
36.37337123434487
 30
0.0
 11
68.75542921885042
 21
35.75108584377008
 31
0.0
  0
LINE
  5
694
330
1F
100
AcDbEntity
  8
SK2
  6
CONTINUOUS
370
25
 62
7
100
AcDbLine
 10
68.66347391416556
 20
36.26730521716689
 30
0.0
 11
69.1089826094437
 21
35.82179652188874
 31
0.0
  0
LINE
  5
695
330
1F
100
AcDbEntity
  8
SK2
  6
CONTINUOUS
370
25
 62
7
100
AcDbLine
 10
69.19380400005548
 20
36.1612391999889
 30
0.0
 11
69.46253600003699
 21
35.89250720000739
 31
0.0
  0
LINE
  5
696
330
1F
100
AcDbEntity
  8
SK2
  6
CONTINUOUS
370
25
 62
7
100
AcDbLine
 10
69.7241340859454
 20
36.05517318281092
 30
0.0
 11
69.81608939063025
 21
35.96321787812606
 31
0.0
  0
TEXT
  5
697
330
1F
100
AcDbEntity
  8
SK2
  6
CONTINUOUS
370
25
 62
7
100
AcDbText
 10
32.375
 20
37.5
 30
0.0
 40
3.5
  1
70
 72
     1
 11
35.0
 21
37.5
 31
0.0
100
AcDbText
  0
LINE
  5
698
330
1F
100
AcDbEntity
  8
2
  6
CONTINUOUS
370
25
 62
7
100
AcDbLine
 10
39.0
 20
-3.25
 30
0.0
 11
39.0
 21
-37.0
 31
0.0
  0
LINE
  5
699
330
1F
100
AcDbEntity
  8
2
  6
CONTINUOUS
370
25
 62
7
100
AcDbLine
 10
70.0
 20
-37.0
 30
0.0
 11
70.0
 21
0.0
 31
0.0
  0
LINE
  5
69A
330
1F
100
AcDbEntity
  8
2
  6
CONTINUOUS
370
25
 62
7
100
AcDbLine
 10
39.0
 20
-36.0
 30
0.0
 11
70.0
 21
-36.0
 31
0.0
  0
LINE
  5
69B
330
1F
100
AcDbEntity
  8
2
  6
CONTINUOUS
370
25
 62
7
100
AcDbLine
 10
39.0
 20
-36.0
 30
0.0
 11
44.0
 21
-35.0
 31
0.0
  0
LINE
  5
69C
330
1F
100
AcDbEntity
  8
2
  6
CONTINUOUS
370
25
 62
7
100
AcDbLine
 10
44.0
 20
-35.0
 30
0.0
 11
44.0
 21
-37.0
 31
0.0
  0
LINE
  5
69D
330
1F
100
AcDbEntity
  8
2
  6
CONTINUOUS
370
25
 62
7
100
AcDbLine
 10
44.0
 20
-37.0
 30
0.0
 11
39.0
 21
-36.0
 31
0.0
  0
LINE
  5
69E
330
1F
100
AcDbEntity
  8
2
  6
CONTINUOUS
370
25
 62
7
100
AcDbLine
 10
43.94380914257368
 20
-36.98876182851473
 30
0.0
 11
44.0
 21
-36.93257097108842
 31
0.0
  0
LINE
  5
69F
330
1F
100
AcDbEntity
  8
2
  6
CONTINUOUS
370
25
 62
7
100
AcDbLine
 10
43.59025575198041
 20
-36.91805115039608
 30
0.0
 11
44.0
 21
-36.50830690237649
 31
0.0
  0
LINE
  5
6A0
330
1F
100
AcDbEntity
  8
2
  6
CONTINUOUS
370
25
 62
7
100
AcDbLine
 10
43.23670236138713
 20
-36.84734047227742
 30
0.0
 11
44.0
 21
-36.08404283366456
 31
0.0
  0
LINE
  5
6A1
330
1F
100
AcDbEntity
  8
2
  6
CONTINUOUS
370
25
 62
7
100
AcDbLine
 10
42.88314897079385
 20
-36.77662979415877
 30
0.0
 11
44.0
 21
-35.65977876495263
 31
0.0
  0
LINE
  5
6A2
330
1F
100
AcDbEntity
  8
2
  6
CONTINUOUS
370
25
 62
7
100
AcDbLine
 10
42.52959558020058
 20
-36.70591911604011
 30
0.0
 11
44.0
 21
-35.2355146962407
 31
0.0
  0
LINE
  5
6A3
330
1F
100
AcDbEntity
  8
2
  6
CONTINUOUS
370
25
 62
7
100
AcDbLine
 10
42.1760421896073
 20
-36.63520843792146
 30
0.0
 11
43.76406328441095
 21
-35.04718734311781
 31
0.0
  0
LINE
  5
6A4
330
1F
100
AcDbEntity
  8
2
  6
CONTINUOUS
370
25
 62
7
100
AcDbLine
 10
41.82248879901403
 20
-36.5644977598028
 30
0.0
 11
43.23373319852104
 21
-35.15325336029579
 31
0.0
  0
LINE
  5
6A5
330
1F
100
AcDbEntity
  8
2
  6
CONTINUOUS
370
25
 62
7
100
AcDbLine
 10
41.46893540842076
 20
-36.49378708168415
 30
0.0
 11
42.70340311263113
 21
-35.25931937747378
 31
0.0
  0
LINE
  5
6A6
330
1F
100
AcDbEntity
  8
2
  6
CONTINUOUS
370
25
 62
7
100
AcDbLine
 10
41.11538201782748
 20
-36.42307640356549
 30
0.0
 11
42.17307302674121
 21
-35.36538539465176
 31
0.0
  0
LINE
  5
6A7
330
1F
100
AcDbEntity
  8
2
  6
CONTINUOUS
370
25
 62
7
100
AcDbLine
 10
40.7618286272342
 20
-36.35236572544684
 30
0.0
 11
41.64274294085131
 21
-35.47145141182974
 31
0.0
  0
LINE
  5
6A8
330
1F
100
AcDbEntity
  8
2
  6
CONTINUOUS
370
25
 62
7
100
AcDbLine
 10
40.40827523664093
 20
-36.28165504732819
 30
0.0
 11
41.11241285496138
 21
-35.57751742900773
 31
0.0
  0
LINE
  5
6A9
330
1F
100
AcDbEntity
  8
2
  6
CONTINUOUS
370
25
 62
7
100
AcDbLine
 10
40.05472184604766
 20
-36.21094436920953
 30
0.0
 11
40.58208276907148
 21
-35.68358344618571
 31
0.0
  0
LINE
  5
6AA
330
1F
100
AcDbEntity
  8
2
  6
CONTINUOUS
370
25
 62
7
100
AcDbLine
 10
39.70116845545438
 20
-36.14023369109087
 30
0.0
 11
40.05175268318157
 21
-35.78964946336369
 31
0.0
  0
LINE
  5
6AB
330
1F
100
AcDbEntity
  8
2
  6
CONTINUOUS
370
25
 62
7
100
AcDbLine
 10
39.3476150648611
 20
-36.06952301297222
 30
0.0
 11
39.52142259729165
 21
-35.89571548054167
 31
0.0
  0
LINE
  5
6AC
330
1F
100
AcDbEntity
  8
2
  6
CONTINUOUS
370
25
 62
7
100
AcDbLine
 10
39.27801626437428
 20
-35.94439674712515
 30
0.0
 11
39.41702439656142
 21
-36.08340487931228
 31
0.0
  0
LINE
  5
6AD
330
1F
100
AcDbEntity
  8
2
  6
CONTINUOUS
370
25
 62
7
100
AcDbLine
 10
39.63156965496756
 20
-35.87368606900649
 30
0.0
 11
39.94735448245134
 21
-36.18947089649026
 31
0.0
  0
LINE
  5
6AE
330
1F
100
AcDbEntity
  8
2
  6
CONTINUOUS
370
25
 62
7
100
AcDbLine
 10
39.98512304556083
 20
-35.80297539088784
 30
0.0
 11
40.47768456834125
 21
-36.29553691366824
 31
0.0
  0
LINE
  5
6AF
330
1F
100
AcDbEntity
  8
2
  6
CONTINUOUS
370
25
 62
7
100
AcDbLine
 10
40.33867643615411
 20
-35.73226471276918
 30
0.0
 11
41.00801465423116
 21
-36.40160293084623
 31
0.0
  0
LINE
  5
6B0
330
1F
100
AcDbEntity
  8
2
  6
CONTINUOUS
370
25
 62
7
100
AcDbLine
 10
40.69222982674739
 20
-35.66155403465053
 30
0.0
 11
41.53834474012108
 21
-36.50766894802421
 31
0.0
  0
LINE
  5
6B1
330
1F
100
AcDbEntity
  8
2
  6
CONTINUOUS
370
25
 62
7
100
AcDbLine
 10
41.04578321734066
 20
-35.59084335653187
 30
0.0
 11
42.06867482601098
 21
-36.61373496520219
 31
0.0
  0
LINE
  5
6B2
330
1F
100
AcDbEntity
  8
2
  6
CONTINUOUS
370
25
 62
7
100
AcDbLine
 10
41.39933660793393
 20
-35.52013267841322
 30
0.0
 11
42.5990049119009
 21
-36.71980098238018
 31
0.0
  0
LINE
  5
6B3
330
1F
100
AcDbEntity
  8
2
  6
CONTINUOUS
370
25
 62
7
100
AcDbLine
 10
41.75288999852721
 20
-35.44942200029456
 30
0.0
 11
43.12933499779081
 21
-36.82586699955816
 31
0.0
  0
LINE
  5
6B4
330
1F
100
AcDbEntity
  8
2
  6
CONTINUOUS
370
25
 62
7
100
AcDbLine
 10
42.10644338912049
 20
-35.3787113221759
 30
0.0
 11
43.65966508368072
 21
-36.93193301673614
 31
0.0
  0
LINE
  5
6B5
330
1F
100
AcDbEntity
  8
2
  6
CONTINUOUS
370
25
 62
7
100
AcDbLine
 10
42.45999677971376
 20
-35.30800064405725
 30
0.0
 11
44.0
 21
-36.84800386434348
 31
0.0
  0
LINE
  5
6B6
330
1F
100
AcDbEntity
  8
2
  6
CONTINUOUS
370
25
 62
7
100
AcDbLine
 10
42.81355017030704
 20
-35.23728996593859
 30
0.0
 11
44.0
 21
-36.42373979563155
 31
0.0
  0
LINE
  5
6B7
330
1F
100
AcDbEntity
  8
2
  6
CONTINUOUS
370
25
 62
7
100
AcDbLine
 10
43.16710356090031
 20
-35.16657928781994
 30
0.0
 11
44.0
 21
-35.99947572691963
 31
0.0
  0
LINE
  5
6B8
330
1F
100
AcDbEntity
  8
2
  6
CONTINUOUS
370
25
 62
7
100
AcDbLine
 10
43.52065695149359
 20
-35.09586860970128
 30
0.0
 11
44.0
 21
-35.5752116582077
 31
0.0
  0
LINE
  5
6B9
330
1F
100
AcDbEntity
  8
2
  6
CONTINUOUS
370
25
 62
7
100
AcDbLine
 10
43.87421034208686
 20
-35.02515793158263
 30
0.0
 11
44.0
 21
-35.15094758949577
 31
0.0
  0
LINE
  5
6BA
330
1F
100
AcDbEntity
  8
2
  6
CONTINUOUS
370
25
 62
7
100
AcDbLine
 10
70.0
 20
-36.0
 30
0.0
 11
65.0
 21
-37.0
 31
0.0
  0
LINE
  5
6BB
330
1F
100
AcDbEntity
  8
2
  6
CONTINUOUS
370
25
 62
7
100
AcDbLine
 10
65.0
 20
-37.0
 30
0.0
 11
65.0
 21
-35.0
 31
0.0
  0
LINE
  5
6BC
330
1F
100
AcDbEntity
  8
2
  6
CONTINUOUS
370
25
 62
7
100
AcDbLine
 10
65.0
 20
-35.0
 30
0.0
 11
70.0
 21
-36.0
 31
0.0
  0
LINE
  5
6BD
330
1F
100
AcDbEntity
  8
2
  6
CONTINUOUS
370
25
 62
7
100
AcDbLine
 10
69.72458821690618
 20
-36.05508235661877
 30
0.0
 11
69.81639214460412
 21
-35.96327842892082
 31
0.0
  0
LINE
  5
6BE
330
1F
100
AcDbEntity
  8
2
  6
CONTINUOUS
370
25
 62
7
100
AcDbLine
 10
69.19425813101627
 20
-36.16114837379675
 30
0.0
 11
69.46283875401085
 21
-35.89256775080217
 31
0.0
  0
LINE
  5
6BF
330
1F
100
AcDbEntity
  8
2
  6
CONTINUOUS
370
25
 62
7
100
AcDbLine
 10
68.66392804512635
 20
-36.26721439097473
 30
0.0
 11
69.10928536341757
 21
-35.82185707268351
 31
0.0
  0
LINE
  5
6C0
330
1F
100
AcDbEntity
  8
2
  6
CONTINUOUS
370
25
 62
7
100
AcDbLine
 10
68.13359795923644
 20
-36.37328040815271
 30
0.0
 11
68.7557319728243
 21
-35.75114639456486
 31
0.0
  0
LINE
  5
6C1
330
1F
100
AcDbEntity
  8
2
  6
CONTINUOUS
370
25
 62
7
100
AcDbLine
 10
67.60326787334652
 20
-36.4793464253307
 30
0.0
 11
68.40217858223102
 21
-35.6804357164462
 31
0.0
  0
LINE
  5
6C2
330
1F
100
AcDbEntity
  8
2
  6
CONTINUOUS
370
25
 62
7
100
AcDbLine
 10
67.07293778745662
 20
-36.58541244250868
 30
0.0
 11
68.04862519163774
 21
-35.60972503832755
 31
0.0
  0
LINE
  5
6C3
330
1F
100
AcDbEntity
  8
2
  6
CONTINUOUS
370
25
 62
7
100
AcDbLine
 10
66.54260770156671
 20
-36.69147845968666
 30
0.0
 11
67.69507180104446
 21
-35.5390143602089
 31
0.0
  0
LINE
  5
6C4
330
1F
100
AcDbEntity
  8
2
  6
CONTINUOUS
370
25
 62
7
100
AcDbLine
 10
66.0122776156768
 20
-36.79754447686464
 30
0.0
 11
67.34151841045119
 21
-35.46830368209024
 31
0.0
  0
LINE
  5
6C5
330
1F
100
AcDbEntity
  8
2
  6
CONTINUOUS
370
25
 62
7
100
AcDbLine
 10
65.48194752978688
 20
-36.90361049404262
 30
0.0
 11
66.98796501985791
 21
-35.39759300397158
 31
0.0
  0
LINE
  5
6C6
330
1F
100
AcDbEntity
  8
2
  6
CONTINUOUS
370
25
 62
7
100
AcDbLine
 10
65.0
 20
-36.96129395511757
 30
0.0
 11
66.63441162926463
 21
-35.32688232585292
 31
0.0
  0
LINE
  5
6C7
330
1F
100
AcDbEntity
  8
2
  6
CONTINUOUS
370
25
 62
7
100
AcDbLine
 10
65.0
 20
-36.53702988640565
 30
0.0
 11
66.28085823867137
 21
-35.25617164773428
 31
0.0
  0
LINE
  5
6C8
330
1F
100
AcDbEntity
  8
2
  6
CONTINUOUS
370
25
 62
7
100
AcDbLine
 10
65.0
 20
-36.11276581769371
 30
0.0
 11
65.92730484807808
 21
-35.18546096961562
 31
0.0
  0
LINE
  5
6C9
330
1F
100
AcDbEntity
  8
2
  6
CONTINUOUS
370
25
 62
7
100
AcDbLine
 10
65.0
 20
-35.68850174898178
 30
0.0
 11
65.5737514574848
 21
-35.11475029149696
 31
0.0
  0
LINE
  5
6CA
330
1F
100
AcDbEntity
  8
2
  6
CONTINUOUS
370
25
 62
7
100
AcDbLine
 10
65.0
 20
-35.26423768026984
 30
0.0
 11
65.22019806689153
 21
-35.04403961337831
 31
0.0
  0
LINE
  5
6CB
330
1F
100
AcDbEntity
  8
2
  6
CONTINUOUS
370
25
 62
7
100
AcDbLine
 10
65.0
 20
-36.8192808803144
 30
0.0
 11
65.15059926640467
 21
-36.96988014671906
 31
0.0
  0
LINE
  5
6CC
330
1F
100
AcDbEntity
  8
2
  6
CONTINUOUS
370
25
 62
7
100
AcDbLine
 10
65.0
 20
-36.39501681160247
 30
0.0
 11
65.50415265699795
 21
-36.89916946860041
 31
0.0
  0
LINE
  5
6CD
330
1F
100
AcDbEntity
  8
2
  6
CONTINUOUS
370
25
 62
7
100
AcDbLine
 10
65.0
 20
-35.97075274289054
 30
0.0
 11
65.85770604759122
 21
-36.82845879048175
 31
0.0
  0
LINE
  5
6CE
330
1F
100
AcDbEntity
  8
2
  6
CONTINUOUS
370
25
 62
7
100
AcDbLine
 10
65.0
 20
-35.5464886741786
 30
0.0
 11
66.2112594381845
 21
-36.7577481123631
 31
0.0
  0
LINE
  5
6CF
330
1F
100
AcDbEntity
  8
2
  6
CONTINUOUS
370
25
 62
7
100
AcDbLine
 10
65.0
 20
-35.12222460546668
 30
0.0
 11
66.56481282877778
 21
-36.68703743424444
 31
0.0
  0
LINE
  5
6D0
330
1F
100
AcDbEntity
  8
2
  6
CONTINUOUS
370
25
 62
7
100
AcDbLine
 10
65.37754932905656
 20
-35.07550986581131
 30
0.0
 11
66.91836621937105
 21
-36.61632675612579
 31
0.0
  0
LINE
  5
6D1
330
1F
100
AcDbEntity
  8
2
  6
CONTINUOUS
370
25
 62
7
100
AcDbLine
 10
65.90787941494648
 20
-35.18157588298929
 30
0.0
 11
67.27191960996433
 21
-36.54561607800714
 31
0.0
  0
LINE
  5
6D2
330
1F
100
AcDbEntity
  8
2
  6
CONTINUOUS
370
25
 62
7
100
AcDbLine
 10
66.43820950083641
 20
-35.28764190016729
 30
0.0
 11
67.6254730005576
 21
-36.47490539988847
 31
0.0
  0
LINE
  5
6D3
330
1F
100
AcDbEntity
  8
2
  6
CONTINUOUS
370
25
 62
7
100
AcDbLine
 10
66.96853958672631
 20
-35.39370791734527
 30
0.0
 11
67.97902639115088
 21
-36.40419472176983
 31
0.0
  0
LINE
  5
6D4
330
1F
100
AcDbEntity
  8
2
  6
CONTINUOUS
370
25
 62
7
100
AcDbLine
 10
67.49886967261624
 20
-35.49977393452325
 30
0.0
 11
68.33257978174416
 21
-36.33348404365116
 31
0.0
  0
LINE
  5
6D5
330
1F
100
AcDbEntity
  8
2
  6
CONTINUOUS
370
25
 62
7
100
AcDbLine
 10
68.02919975850615
 20
-35.60583995170123
 30
0.0
 11
68.68613317233743
 21
-36.26277336553251
 31
0.0
  0
LINE
  5
6D6
330
1F
100
AcDbEntity
  8
2
  6
CONTINUOUS
370
25
 62
7
100
AcDbLine
 10
68.55952984439608
 20
-35.71190596887922
 30
0.0
 11
69.03968656293071
 21
-36.19206268741385
 31
0.0
  0
LINE
  5
6D7
330
1F
100
AcDbEntity
  8
2
  6
CONTINUOUS
370
25
 62
7
100
AcDbLine
 10
69.089859930286
 20
-35.8179719860572
 30
0.0
 11
69.39323995352399
 21
-36.1213520092952
 31
0.0
  0
LINE
  5
6D8
330
1F
100
AcDbEntity
  8
2
  6
CONTINUOUS
370
25
 62
7
100
AcDbLine
 10
69.62019001617591
 20
-35.92403800323518
 30
0.0
 11
69.74679334411726
 21
-36.05064133117655
 31
0.0
  0
TEXT
  5
6D9
330
1F
100
AcDbEntity
  8
2
  6
CONTINUOUS
370
25
 62
7
100
AcDbText
 10
52.16666666666666
 20
-34.5
 30
0.0
 40
3.5
  1
31
 72
     1
 11
54.5
 21
-34.5
 31
0.0
100
AcDbText
  0
LINE
  5
6DA
330
1F
100
AcDbEntity
  8
4
  6
LONGDASH_DASH
370
25
 62
2
100
AcDbLine
 10
36.2
 20
0.0
 30
0.0
 11
70.0
 21
0.0
 31
0.0
  0
LINE
  5
6DB
330
1F
100
AcDbEntity
  8
SK4
  6
LONGDASH_DASH
370
25
 62
2
100
AcDbLine
 10
-6.0
 20
0.0
 30
0.0
 11
76.0
 21
0.0
 31
0.0
  0
LINE
  5
6DC
330
1F
100
AcDbEntity
  8
2
  6
CONTINUOUS
370
25
 62
7
100
AcDbLine
 10
70.0
 20
0.0
 30
0.0
 11
70.0
 21
21.0
 31
0.0
  0
LINE
  5
6DD
330
1F
100
AcDbEntity
  8
2
  6
CONTINUOUS
370
25
 62
7
100
AcDbLine
 10
70.0
 20
0.0
 30
0.0
 11
70.0
 21
-21.0
 31
0.0
  0
ARC
  5
6DE
330
1F
100
AcDbEntity
  8
2
  6
CONTINUOUS
370
25
 62
7
100
AcDbCircle
 10
70.0
 20
0.0
 30
0.0
 40
20.0
100
AcDbArc
 50
270.0
 51
90.0
  0
LINE
  5
6DF
330
1F
100
AcDbEntity
  8
2
  6
CONTINUOUS
370
25
 62
7
100
AcDbLine
 10
70.0
 20
20.0
 30
0.0
 11
75.08578370824611
 21
20.36715674164922
 31
0.0
  0
LINE
  5
6E0
330
1F
100
AcDbEntity
  8
2
  6
CONTINUOUS
370
25
 62
7
100
AcDbLine
 10
75.08578370824611
 20
20.36715674164922
 30
0.0
 11
74.83578370824611
 21
18.38284325835078
 31
0.0
  0
LINE
  5
6E1
330
1F
100
AcDbEntity
  8
2
  6
CONTINUOUS
370
25
 62
7
100
AcDbLine
 10
74.83578370824611
 20
18.38284325835078
 30
0.0
 11
70.0
 21
20.0
 31
0.0
  0
LINE
  5
6E2
330
1F
100
AcDbEntity
  8
2
  6
CONTINUOUS
370
25
 62
7
100
AcDbLine
 10
74.602984815697
 20
18.46069461011663
 30
0.0
 11
74.88056371014694
 21
18.73827350456656
 31
0.0
  0
LINE
  5
6E3
330
1F
100
AcDbEntity
  8
2
  6
CONTINUOUS
370
25
 62
7
100
AcDbLine
 10
74.28504460109227
 20
18.56701846422381
 30
0.0
 11
74.94172106041805
 21
19.22369492354959
 31
0.0
  0
LINE
  5
6E4
330
1F
100
AcDbEntity
  8
2
  6
CONTINUOUS
370
25
 62
7
100
AcDbLine
 10
73.9671043864875
 20
18.673342318331
 30
0.0
 11
75.00287841068915
 21
19.70911634253263
 31
0.0
  0
LINE
  5
6E5
330
1F
100
AcDbEntity
  8
2
  6
CONTINUOUS
370
25
 62
7
100
AcDbLine
 10
73.64916417188277
 20
18.77966617243818
 30
0.0
 11
75.06403576096025
 21
20.19453776151566
 31
0.0
  0
LINE
  5
6E6
330
1F
100
AcDbEntity
  8
2
  6
CONTINUOUS
370
25
 62
7
100
AcDbLine
 10
73.33122395727803
 20
18.88599002654537
 30
0.0
 11
74.79111793839633
 21
20.34588400766366
 31
0.0
  0
LINE
  5
6E7
330
1F
100
AcDbEntity
  8
2
  6
CONTINUOUS
370
25
 62
7
100
AcDbLine
 10
73.01328374267328
 20
18.99231388065255
 30
0.0
 11
74.33384184856683
 21
20.31287198654611
 31
0.0
  0
LINE
  5
6E8
330
1F
100
AcDbEntity
  8
2
  6
CONTINUOUS
370
25
 62
7
100
AcDbLine
 10
72.69534352806855
 20
19.09863773475974
 30
0.0
 11
73.87656575873737
 21
20.27985996542858
 31
0.0
  0
LINE
  5
6E9
330
1F
100
AcDbEntity
  8
2
  6
CONTINUOUS
370
25
 62
7
100
AcDbLine
 10
72.37740331346379
 20
19.20496158886693
 30
0.0
 11
73.41928966890791
 21
20.24684794431104
 31
0.0
  0
LINE
  5
6EA
330
1F
100
AcDbEntity
  8
2
  6
CONTINUOUS
370
25
 62
7
100
AcDbLine
 10
72.05946309885906
 20
19.31128544297411
 30
0.0
 11
72.96201357907842
 21
20.21383592319348
 31
0.0
  0
LINE
  5
6EB
330
1F
100
AcDbEntity
  8
2
  6
CONTINUOUS
370
25
 62
7
100
AcDbLine
 10
71.74152288425431
 20
19.4176092970813
 30
0.0
 11
72.50473748924895
 21
20.18082390207594
 31
0.0
  0
LINE
  5
6EC
330
1F
100
AcDbEntity
  8
2
  6
CONTINUOUS
370
25
 62
7
100
AcDbLine
 10
71.42358266964956
 20
19.52393315118849
 30
0.0
 11
72.04746139941946
 21
20.14781188095839
 31
0.0
  0
LINE
  5
6ED
330
1F
100
AcDbEntity
  8
2
  6
CONTINUOUS
370
25
 62
7
100
AcDbLine
 10
71.10564245504482
 20
19.63025700529567
 30
0.0
 11
71.59018530959
 21
20.11479985984085
 31
0.0
  0
LINE
  5
6EE
330
1F
100
AcDbEntity
  8
2
  6
CONTINUOUS
370
25
 62
7
100
AcDbLine
 10
70.78770224044007
 20
19.73658085940286
 30
0.0
 11
71.13290921976053
 21
20.08178783872331
 31
0.0
  0
LINE
  5
6EF
330
1F
100
AcDbEntity
  8
2
  6
CONTINUOUS
370
25
 62
7
100
AcDbLine
 10
70.46976202583534
 20
19.84290471351004
 30
0.0
 11
70.67563312993104
 21
20.04877581760576
 31
0.0
  0
LINE
  5
6F0
330
1F
100
AcDbEntity
  8
2
  6
CONTINUOUS
370
25
 62
7
100
AcDbLine
 10
70.15182181123058
 20
19.94922856761722
 30
0.0
 11
70.21835704010158
 21
20.01576379648821
 31
0.0
  0
LINE
  5
6F1
330
1F
100
AcDbEntity
  8
2
  6
CONTINUOUS
370
25
 62
7
100
AcDbLine
 10
70.07604670519237
 20
20.00549002122255
 30
0.0
 11
70.12250378105728
 21
19.95903294535765
 31
0.0
  0
LINE
  5
6F2
330
1F
100
AcDbEntity
  8
2
  6
CONTINUOUS
370
25
 62
7
100
AcDbLine
 10
70.47174427579225
 20
20.03405651933461
 30
0.0
 11
70.75993374506476
 21
19.7458670500621
 31
0.0
  0
LINE
  5
6F3
330
1F
100
AcDbEntity
  8
2
  6
CONTINUOUS
370
25
 62
7
100
AcDbLine
 10
70.86744184639211
 20
20.06262301744667
 30
0.0
 11
71.39736370907224
 21
19.53270115476656
 31
0.0
  0
LINE
  5
6F4
330
1F
100
AcDbEntity
  8
2
  6
CONTINUOUS
370
25
 62
7
100
AcDbLine
 10
71.26313941699199
 20
20.09118951555873
 30
0.0
 11
72.03479367307972
 21
19.319535259471
 31
0.0
  0
LINE
  5
6F5
330
1F
100
AcDbEntity
  8
2
  6
CONTINUOUS
370
25
 62
7
100
AcDbLine
 10
71.65883698759185
 20
20.1197560136708
 30
0.0
 11
72.6722236370872
 21
19.10636936417544
 31
0.0
  0
LINE
  5
6F6
330
1F
100
AcDbEntity
  8
2
  6
CONTINUOUS
370
25
 62
7
100
AcDbLine
 10
72.05453455819173
 20
20.14832251178285
 30
0.0
 11
73.30965360109468
 21
18.8932034688799
 31
0.0
  0
LINE
  5
6F7
330
1F
100
AcDbEntity
  8
2
  6
CONTINUOUS
370
25
 62
7
100
AcDbLine
 10
72.45023212879158
 20
20.17688900989491
 30
0.0
 11
73.94708356510216
 21
18.68003757358435
 31
0.0
  0
LINE
  5
6F8
330
1F
100
AcDbEntity
  8
2
  6
CONTINUOUS
370
25
 62
7
100
AcDbLine
 10
72.84592969939146
 20
20.20545550800697
 30
0.0
 11
74.58451352910964
 21
18.4668716782888
 31
0.0
  0
LINE
  5
6F9
330
1F
100
AcDbEntity
  8
2
  6
CONTINUOUS
370
25
 62
7
100
AcDbLine
 10
73.24162726999134
 20
20.23402200611903
 30
0.0
 11
74.86454224094919
 21
18.61110703516119
 31
0.0
  0
LINE
  5
6FA
330
1F
100
AcDbEntity
  8
2
  6
CONTINUOUS
370
25
 62
7
100
AcDbLine
 10
73.6373248405912
 20
20.2625885042311
 30
0.0
 11
74.9120136535199
 21
18.9878996913024
 31
0.0
  0
LINE
  5
6FB
330
1F
100
AcDbEntity
  8
2
  6
CONTINUOUS
370
25
 62
7
100
AcDbLine
 10
74.03302241119107
 20
20.29115500234316
 30
0.0
 11
74.95948506609062
 21
19.36469234744361
 31
0.0
  0
LINE
  5
6FC
330
1F
100
AcDbEntity
  8
2
  6
CONTINUOUS
370
25
 62
7
100
AcDbLine
 10
74.42871998179095
 20
20.31972150045522
 30
0.0
 11
75.00695647866135
 21
19.74148500358482
 31
0.0
  0
LINE
  5
6FD
330
1F
100
AcDbEntity
  8
2
  6
CONTINUOUS
370
25
 62
7
100
AcDbLine
 10
74.82441755239083
 20
20.34828799856727
 30
0.0
 11
75.05442789123208
 21
20.11827765972602
 31
0.0
  0
LINE
  5
6FE
330
1F
100
AcDbEntity
  8
2
  6
CONTINUOUS
370
25
 62
7
100
AcDbLine
 10
70.0
 20
-20.0
 30
0.0
 11
74.83578370824611
 21
-18.38284325835078
 31
0.0
  0
LINE
  5
6FF
330
1F
100
AcDbEntity
  8
2
  6
CONTINUOUS
370
25
 62
7
100
AcDbLine
 10
74.83578370824611
 20
-18.38284325835078
 30
0.0
 11
75.08578370824611
 21
-20.36715674164922
 31
0.0
  0
LINE
  5
700
330
1F
100
AcDbEntity
  8
2
  6
CONTINUOUS
370
25
 62
7
100
AcDbLine
 10
75.08578370824611
 20
-20.36715674164922
 30
0.0
 11
70.0
 21
-20.0
 31
0.0
  0
LINE
  5
701
330
1F
100
AcDbEntity
  8
2
  6
CONTINUOUS
370
25
 62
7
100
AcDbLine
 10
74.69529375687415
 20
-20.33896619592074
 30
0.0
 11
75.03893704816124
 21
-19.99532290463365
 31
0.0
  0
LINE
  5
702
330
1F
100
AcDbEntity
  8
2
  6
CONTINUOUS
370
25
 62
7
100
AcDbLine
 10
74.2995961862743
 20
-20.31039969780867
 30
0.0
 11
74.99146563559053
 21
-19.61853024849243
 31
0.0
  0
LINE
  5
703
330
1F
100
AcDbEntity
  8
2
  6
CONTINUOUS
370
25
 62
7
100
AcDbLine
 10
73.90389861567442
 20
-20.28183319969661
 30
0.0
 11
74.9439942230198
 21
-19.24173759235123
 31
0.0
  0
LINE
  5
704
330
1F
100
AcDbEntity
  8
2
  6
CONTINUOUS
370
25
 62
7
100
AcDbLine
 10
73.50820104507454
 20
-20.25326670158456
 30
0.0
 11
74.89652281044908
 21
-18.86494493621001
 31
0.0
  0
LINE
  5
705
330
1F
100
AcDbEntity
  8
2
  6
CONTINUOUS
370
25
 62
7
100
AcDbLine
 10
73.11250347447466
 20
-20.2247002034725
 30
0.0
 11
74.84905139787836
 21
-18.4881522800688
 31
0.0
  0
LINE
  5
706
330
1F
100
AcDbEntity
  8
2
  6
CONTINUOUS
370
25
 62
7
100
AcDbLine
 10
72.71680590387481
 20
-20.19613370536044
 30
0.0
 11
74.37650776297892
 21
-18.53643184625631
 31
0.0
  0
LINE
  5
707
330
1F
100
AcDbEntity
  8
2
  6
CONTINUOUS
370
25
 62
7
100
AcDbLine
 10
72.32110833327494
 20
-20.16756720724837
 30
0.0
 11
73.73907779897144
 21
-18.74959774155187
 31
0.0
  0
LINE
  5
708
330
1F
100
AcDbEntity
  8
2
  6
CONTINUOUS
370
25
 62
7
100
AcDbLine
 10
71.92541076267507
 20
-20.13900070913631
 30
0.0
 11
73.10164783496396
 21
-18.96276363684742
 31
0.0
  0
LINE
  5
709
330
1F
100
AcDbEntity
  8
2
  6
CONTINUOUS
370
25
 62
7
100
AcDbLine
 10
71.5297131920752
 20
-20.11043421102425
 30
0.0
 11
72.46421787095647
 21
-19.17592953214297
 31
0.0
  0
LINE
  5
70A
330
1F
100
AcDbEntity
  8
2
  6
CONTINUOUS
370
25
 62
7
100
AcDbLine
 10
71.13401562147533
 20
-20.08186771291219
 30
0.0
 11
71.826787906949
 21
-19.38909542743852
 31
0.0
  0
LINE
  5
70B
330
1F
100
AcDbEntity
  8
2
  6
CONTINUOUS
370
25
 62
7
100
AcDbLine
 10
70.73831805087545
 20
-20.05330121480014
 30
0.0
 11
71.18935794294151
 21
-19.60226132273407
 31
0.0
  0
LINE
  5
70C
330
1F
100
AcDbEntity
  8
2
  6
CONTINUOUS
370
25
 62
7
100
AcDbLine
 10
70.3426204802756
 20
-20.02473471668807
 30
0.0
 11
70.55192797893405
 21
-19.81542721802962
 31
0.0
  0
LINE
  5
70D
330
1F
100
AcDbEntity
  8
2
  6
CONTINUOUS
370
25
 62
7
100
AcDbLine
 10
70.1504137210462
 20
-19.94969945355256
 30
0.0
 11
70.21633186069971
 21
-20.01561759320607
 31
0.0
  0
LINE
  5
70E
330
1F
100
AcDbEntity
  8
2
  6
CONTINUOUS
370
25
 62
7
100
AcDbLine
 10
70.46835393565095
 20
-19.84337559944537
 30
0.0
 11
70.67360795052919
 21
-20.04862961432361
 31
0.0
  0
LINE
  5
70F
330
1F
100
AcDbEntity
  8
2
  6
CONTINUOUS
370
25
 62
7
100
AcDbLine
 10
70.78629415025569
 20
-19.73705174533819
 30
0.0
 11
71.13088404035867
 21
-20.08164163544116
 31
0.0
  0
LINE
  5
710
330
1F
100
AcDbEntity
  8
2
  6
CONTINUOUS
370
25
 62
7
100
AcDbLine
 10
71.10423436486045
 20
-19.630727891231
 30
0.0
 11
71.58816013018813
 21
-20.1146536565587
 31
0.0
  0
LINE
  5
711
330
1F
100
AcDbEntity
  8
2
  6
CONTINUOUS
370
25
 62
7
100
AcDbLine
 10
71.42217457946518
 20
-19.52440403712382
 30
0.0
 11
72.04543622001762
 21
-20.14766567767624
 31
0.0
  0
LINE
  5
712
330
1F
100
AcDbEntity
  8
2
  6
CONTINUOUS
370
25
 62
7
100
AcDbLine
 10
71.74011479406994
 20
-19.41808018301663
 30
0.0
 11
72.5027123098471
 21
-20.18067769879379
 31
0.0
  0
LINE
  5
713
330
1F
100
AcDbEntity
  8
2
  6
CONTINUOUS
370
25
 62
7
100
AcDbLine
 10
72.05805500867467
 20
-19.31175632890944
 30
0.0
 11
72.95998839967658
 21
-20.21368971991133
 31
0.0
  0
LINE
  5
714
330
1F
100
AcDbEntity
  8
2
  6
CONTINUOUS
370
25
 62
7
100
AcDbLine
 10
72.37599522327942
 20
-19.20543247480226
 30
0.0
 11
73.41726448950604
 21
-20.24670174102887
 31
0.0
  0
LINE
  5
715
330
1F
100
AcDbEntity
  8
2
  6
CONTINUOUS
370
25
 62
7
100
AcDbLine
 10
72.69393543788416
 20
-19.09910862069508
 30
0.0
 11
73.87454057933552
 21
-20.27971376214643
 31
0.0
  0
LINE
  5
716
330
1F
100
AcDbEntity
  8
2
  6
CONTINUOUS
370
25
 62
7
100
AcDbLine
 10
73.0118756524889
 20
-18.99278476658789
 30
0.0
 11
74.331816669165
 21
-20.31272578326397
 31
0.0
  0
LINE
  5
717
330
1F
100
AcDbEntity
  8
2
  6
CONTINUOUS
370
25
 62
7
100
AcDbLine
 10
73.32981586709366
 20
-18.88646091248071
 30
0.0
 11
74.78909275899449
 21
-20.34573780438152
 31
0.0
  0
LINE
  5
718
330
1F
100
AcDbEntity
  8
2
  6
CONTINUOUS
370
25
 62
7
100
AcDbLine
 10
73.6477560816984
 20
-18.78013705837352
 30
0.0
 11
75.0643066139718
 21
-20.19668759064691
 31
0.0
  0
LINE
  5
719
330
1F
100
AcDbEntity
  8
2
  6
CONTINUOUS
370
25
 62
7
100
AcDbLine
 10
73.96569629630315
 20
-18.67381320426634
 30
0.0
 11
75.00314926370069
 21
-19.71126617166387
 31
0.0
  0
LINE
  5
71A
330
1F
100
AcDbEntity
  8
2
  6
CONTINUOUS
370
25
 62
7
100
AcDbLine
 10
74.28363651090788
 20
-18.56748935015914
 30
0.0
 11
74.94199191342959
 21
-19.22584475268084
 31
0.0
  0
LINE
  5
71B
330
1F
100
AcDbEntity
  8
2
  6
CONTINUOUS
370
25
 62
7
100
AcDbLine
 10
74.60157672551264
 20
-18.46116549605196
 30
0.0
 11
74.88083456315849
 21
-18.74042333369781
 31
0.0
  0
TEXT
  5
71C
330
1F
100
AcDbEntity
  8
2
  6
CONTINUOUS
370
25
 62
7
100
AcDbText
 10
87.5
 20
-4.958333333333333
 30
0.0
 40
3.5
  1
180°
 50
90.0
 72
     1
 11
87.5
 21
0.0
 31
0.0
100
AcDbText
  0
LINE
  5
71D
330
1F
100
AcDbEntity
  8
SK1
  6
CONTINUOUS
370
50
 62
4
100
AcDbLine
 10
36.2
 20
0.0
 30
0.0
 11
38.825
 21
0.0
 31
0.0
  0
LINE
  5
71E
330
1F
100
AcDbEntity
  8
SK1
  6
CONTINUOUS
370
50
 62
4
100
AcDbLine
 10
36.2
 20
0.0
 30
0.0
 11
36.2
 21
2.625
 31
0.0
  0
ARC
  5
71F
330
1F
100
AcDbEntity
  8
SK1
  6
CONTINUOUS
370
50
 62
4
100
AcDbCircle
 10
36.2
 20
0.0
 30
0.0
 40
2.625
100
AcDbArc
 50
0.0
 51
90.0
  0
LINE
  5
720
330
1F
100
AcDbEntity
  8
SK1
  6
CONTINUOUS
370
50
 62
4
100
AcDbLine
 10
36.2
 20
0.0
 30
0.0
 11
33.575
 21
0.0
 31
0.0
  0
ARC
  5
721
330
1F
100
AcDbEntity
  8
SK1
  6
CONTINUOUS
370
50
 62
4
100
AcDbCircle
 10
36.2
 20
0.0
 30
0.0
 40
2.625
100
AcDbArc
 50
180.0
 51
270.0
  0
LINE
  5
722
330
1F
100
AcDbEntity
  8
SK1
  6
CONTINUOUS
370
50
 62
4
100
AcDbLine
 10
36.2
 20
-2.625
 30
0.0
 11
36.2
 21
0.0
 31
0.0
  0
ARC
  5
723
330
1F
100
AcDbEntity
  8
SK1
  6
CONTINUOUS
370
50
 62
4
100
AcDbCircle
 10
36.2
 20
0.0
 30
0.0
 40
2.625
100
AcDbArc
 50
270.0
 51
0.0
  0
ARC
  5
724
330
1F
100
AcDbEntity
  8
SK1
  6
CONTINUOUS
370
50
 62
4
100
AcDbCircle
 10
36.2
 20
0.0
 30
0.0
 40
2.625
100
AcDbArc
 50
90.0
 51
180.0
  0
LINE
  5
725
330
1F
100
AcDbEntity
  8
SK1
  6
CONTINUOUS
370
50
 62
4
100
AcDbLine
 10
35.86575722192682
 20
-2.60347067499975
 30
0.0
 11
36.2
 21
-2.269227896926564
 31
0.0
  0
LINE
  5
726
330
1F
100
AcDbEntity
  8
SK1
  6
CONTINUOUS
370
50
 62
4
100
AcDbLine
 10
38.46922789692657
 20
0.0
 30
0.0
 11
38.80347067499975
 21
0.3342427780731851
 31
0.0
  0
LINE
  5
727
330
1F
100
AcDbEntity
  8
SK1
  6
CONTINUOUS
370
50
 62
4
100
AcDbLine
 10
35.55395391214687
 20
-2.544042924656761
 30
0.0
 11
36.2
 21
-1.897996836803626
 31
0.0
  0
LINE
  5
728
330
1F
100
AcDbEntity
  8
SK1
  6
CONTINUOUS
370
50
 62
4
100
AcDbLine
 10
38.09799683680363
 20
0.0
 30
0.0
 11
38.74404292465677
 21
0.6460460878531347
 31
0.0
  0
LINE
  5
729
330
1F
100
AcDbEntity
  8
SK1
  6
CONTINUOUS
370
50
 62
4
100
AcDbLine
 10
35.27222348891576
 20
-2.454542287764935
 30
0.0
 11
36.2
 21
-1.526765776680689
 31
0.0
  0
LINE
  5
72A
330
1F
100
AcDbEntity
  8
SK1
  6
CONTINUOUS
370
50
 62
4
100
AcDbLine
 10
37.72676577668069
 20
0.0
 30
0.0
 11
38.65454228776494
 21
0.9277765110842457
 31
0.0
  0
LINE
  5
72B
330
1F
100
AcDbEntity
  8
SK1
  6
CONTINUOUS
370
50
 62
4
100
AcDbLine
 10
35.01478120678253
 20
-2.340753509775221
 30
0.0
 11
36.2
 21
-1.155534716557751
 31
0.0
  0
LINE
  5
72C
330
1F
100
AcDbEntity
  8
SK1
  6
CONTINUOUS
370
50
 62
4
100
AcDbLine
 10
37.35553471655776
 20
0.0
 30
0.0
 11
38.54075350977522
 21
1.185218793217471
 31
0.0
  0
LINE
  5
72D
330
1F
100
AcDbEntity
  8
SK1
  6
CONTINUOUS
370
50
 62
4
100
AcDbLine
 10
34.77826543845548
 20
-2.206038217979337
 30
0.0
 11
36.2
 21
-0.7843036564348136
 31
0.0
  0
LINE
  5
72E
330
1F
100
AcDbEntity
  8
SK1
  6
CONTINUOUS
370
50
 62
4
100
AcDbLine
 10
36.98430365643482
 20
0.0
 30
0.0
 11
38.40603821797934
 21
1.421734561544524
 31
0.0
  0
LINE
  5
72F
330
1F
100
AcDbEntity
  8
SK1
  6
CONTINUOUS
370
50
 62
4
100
AcDbLine
 10
34.5626431117109
 20
-2.050429484600978
 30
0.0
 11
36.2
 21
-0.413072596311876
 31
0.0
  0
LINE
  5
730
330
1F
100
AcDbEntity
  8
SK1
  6
CONTINUOUS
370
50
 62
4
100
AcDbLine
 10
36.61307259631188
 20
0.0
 30
0.0
 11
38.25042948460098
 21
1.637356888289101
 31
0.0
  0
LINE
  5
731
330
1F
100
AcDbEntity
  8
SK1
  6
CONTINUOUS
370
50
 62
4
100
AcDbLine
 10
34.36568136807247
 20
-1.876160168116476
 30
0.0
 11
36.2
 21
-0.0418415361889384
 31
0.0
  0
LINE
  5
732
330
1F
100
AcDbEntity
  8
SK1
  6
CONTINUOUS
370
50
 62
4
100
AcDbLine
 10
36.24184153618894
 20
0.0
 30
0.0
 11
38.07616016811648
 21
1.834318631927537
 31
0.0
  0
LINE
  5
733
330
1F
100
AcDbEntity
  8
SK1
  6
CONTINUOUS
370
50
 62
4
100
AcDbLine
 10
34.18675942477633
 20
-1.683851051289679
 30
0.0
 11
35.87061047606601
 21
0.0
 31
0.0
  0
LINE
  5
734
330
1F
100
AcDbEntity
  8
SK1
  6
CONTINUOUS
370
50
 62
4
100
AcDbLine
 10
36.2
 20
0.3293895239339992
 30
0.0
 11
37.88385105128968
 21
2.013240575223679
 31
0.0
  0
LINE
  5
735
330
1F
100
AcDbEntity
  8
SK1
  6
CONTINUOUS
370
50
 62
4
100
AcDbLine
 10
34.02782161830507
 20
-1.471557797638
 30
0.0
 11
35.49937941594307
 21
0.0
 31
0.0
  0
LINE
  5
736
330
1F
100
AcDbEntity
  8
SK1
  6
CONTINUOUS
370
50
 62
4
100
AcDbLine
 10
36.2
 20
0.7006205840569368
 30
0.0
 11
37.671557797638
 21
2.172178381694937
 31
0.0
  0
LINE
  5
737
330
1F
100
AcDbEntity
  8
SK1
  6
CONTINUOUS
370
50
 62
4
100
AcDbLine
 10
33.88749288718529
 20
-1.240655468634837
 30
0.0
 11
35.12814835582013
 21
0.0
 31
0.0
  0
LINE
  5
738
330
1F
100
AcDbEntity
  8
SK1
  6
CONTINUOUS
370
50
 62
4
100
AcDbLine
 10
36.2
 20
1.071851644179874
 30
0.0
 11
37.44065546863484
 21
2.312507112814711
 31
0.0
  0
LINE
  5
739
330
1F
100
AcDbEntity
  8
SK1
  6
CONTINUOUS
370
50
 62
4
100
AcDbLine
 10
33.76877644288388
 20
-0.9881408528133115
 30
0.0
 11
34.75691729569719
 21
0.0
 31
0.0
  0
LINE
  5
73A
330
1F
100
AcDbEntity
  8
SK1
  6
CONTINUOUS
370
50
 62
4
100
AcDbLine
 10
36.2
 20
1.443082704302812
 30
0.0
 11
37.18814085281331
 21
2.431223557116124
 31
0.0
  0
LINE
  5
73B
330
1F
100
AcDbEntity
  8
SK1
  6
CONTINUOUS
370
50
 62
4
100
AcDbLine
 10
33.67444482033456
 20
-0.7112414152396886
 30
0.0
 11
34.38568623557425
 21
0.0
 31
0.0
  0
LINE
  5
73C
330
1F
100
AcDbEntity
  8
SK1
  6
CONTINUOUS
370
50
 62
4
100
AcDbLine
 10
36.2
 20
1.81431376442575
 30
0.0
 11
36.91124141523969
 21
2.525555179665439
 31
0.0
  0
LINE
  5
73D
330
1F
100
AcDbEntity
  8
SK1
  6
CONTINUOUS
370
50
 62
4
100
AcDbLine
 10
33.60797120571085
 20
-0.4064839697404632
 30
0.0
 11
34.01445517545132
 21
0.0
 31
0.0
  0
LINE
  5
73E
330
1F
100
AcDbEntity
  8
SK1
  6
CONTINUOUS
370
50
 62
4
100
AcDbLine
 10
36.2
 20
2.185544824548687
 30
0.0
 11
36.60648396974047
 21
2.59202879428915
 31
0.0
  0
LINE
  5
73F
330
1F
100
AcDbEntity
  8
SK1
  6
CONTINUOUS
370
50
 62
4
100
AcDbLine
 10
33.57707870331546
 20
-0.0661454120129097
 30
0.0
 11
33.64322411532838
 21
0.0
 31
0.0
  0
LINE
  5
740
330
1F
100
AcDbEntity
  8
SK1
  6
CONTINUOUS
370
50
 62
4
100
AcDbLine
 10
36.2
 20
2.556775884671625
 30
0.0
 11
36.26614541201291
 21
2.622921296684535
 31
0.0
  0
LINE
  5
741
330
1F
100
AcDbEntity
  8
SK1
  6
CONTINUOUS
370
50
 62
4
100
AcDbLine
 10
33.74579652643624
 20
-0.9287176037316112
 30
0.0
 11
35.2712823962684
 21
-2.454203473563768
 31
0.0
  0
LINE
  5
742
330
1F
100
AcDbEntity
  8
SK1
  6
CONTINUOUS
370
50
 62
4
100
AcDbLine
 10
33.61045104563307
 20
-0.4221410628055069
 30
0.0
 11
35.7778589371945
 21
-2.589548954366935
 31
0.0
  0
LINE
  5
743
330
1F
100
AcDbEntity
  8
SK1
  6
CONTINUOUS
370
50
 62
4
100
AcDbLine
 10
33.57550158008623
 20
-0.0159605371357268
 30
0.0
 11
36.18403946286428
 21
-2.624498419913778
 31
0.0
  0
LINE
  5
744
330
1F
100
AcDbEntity
  8
SK1
  6
CONTINUOUS
370
50
 62
4
100
AcDbLine
 10
33.93077210307344
 20
0.0
 30
0.0
 11
36.2
 21
-2.269227896926564
 31
0.0
  0
LINE
  5
745
330
1F
100
AcDbEntity
  8
SK1
  6
CONTINUOUS
370
50
 62
4
100
AcDbLine
 10
34.30200316319637
 20
0.0
 30
0.0
 11
36.2
 21
-1.897996836803626
 31
0.0
  0
LINE
  5
746
330
1F
100
AcDbEntity
  8
SK1
  6
CONTINUOUS
370
50
 62
4
100
AcDbLine
 10
34.67323422331931
 20
0.0
 30
0.0
 11
36.2
 21
-1.526765776680689
 31
0.0
  0
LINE
  5
747
330
1F
100
AcDbEntity
  8
SK1
  6
CONTINUOUS
370
50
 62
4
100
AcDbLine
 10
35.04446528344225
 20
0.0
 30
0.0
 11
36.2
 21
-1.155534716557752
 31
0.0
  0
LINE
  5
748
330
1F
100
AcDbEntity
  8
SK1
  6
CONTINUOUS
370
50
 62
4
100
AcDbLine
 10
35.41569634356519
 20
0.0
 30
0.0
 11
36.2
 21
-0.7843036564348145
 31
0.0
  0
LINE
  5
749
330
1F
100
AcDbEntity
  8
SK1
  6
CONTINUOUS
370
50
 62
4
100
AcDbLine
 10
35.78692740368813
 20
0.0
 30
0.0
 11
36.2
 21
-0.4130725963118769
 31
0.0
  0
LINE
  5
74A
330
1F
100
AcDbEntity
  8
SK1
  6
CONTINUOUS
370
50
 62
4
100
AcDbLine
 10
36.15815846381106
 20
0.0
 30
0.0
 11
36.2
 21
-0.0418415361889393
 31
0.0
  0
LINE
  5
74B
330
1F
100
AcDbEntity
  8
SK1
  6
CONTINUOUS
370
50
 62
4
100
AcDbLine
 10
36.2
 20
0.3293895239339975
 30
0.0
 11
36.529389523934
 21
0.0
 31
0.0
  0
LINE
  5
74C
330
1F
100
AcDbEntity
  8
SK1
  6
CONTINUOUS
370
50
 62
4
100
AcDbLine
 10
36.2
 20
0.7006205840569351
 30
0.0
 11
36.90062058405694
 21
0.0
 31
0.0
  0
LINE
  5
74D
330
1F
100
AcDbEntity
  8
SK1
  6
CONTINUOUS
370
50
 62
4
100
AcDbLine
 10
36.2
 20
1.071851644179873
 30
0.0
 11
37.27185164417988
 21
0.0
 31
0.0
  0
LINE
  5
74E
330
1F
100
AcDbEntity
  8
SK1
  6
CONTINUOUS
370
50
 62
4
100
AcDbLine
 10
36.2
 20
1.44308270430281
 30
0.0
 11
37.64308270430281
 21
0.0
 31
0.0
  0
LINE
  5
74F
330
1F
100
AcDbEntity
  8
SK1
  6
CONTINUOUS
370
50
 62
4
100
AcDbLine
 10
36.2
 20
1.814313764425748
 30
0.0
 11
38.01431376442575
 21
0.0
 31
0.0
  0
LINE
  5
750
330
1F
100
AcDbEntity
  8
SK1
  6
CONTINUOUS
370
50
 62
4
100
AcDbLine
 10
36.2
 20
2.185544824548685
 30
0.0
 11
38.38554482454869
 21
0.0
 31
0.0
  0
LINE
  5
751
330
1F
100
AcDbEntity
  8
SK1
  6
CONTINUOUS
370
50
 62
4
100
AcDbLine
 10
36.2
 20
2.556775884671622
 30
0.0
 11
38.75677588467163
 21
0.0
 31
0.0
  0
LINE
  5
752
330
1F
100
AcDbEntity
  8
SK1
  6
CONTINUOUS
370
50
 62
4
100
AcDbLine
 10
36.5231531925751
 20
2.604853752219459
 30
0.0
 11
38.80485375221946
 21
0.3231531925751043
 31
0.0
  0
LINE
  5
753
330
1F
100
AcDbEntity
  8
SK1
  6
CONTINUOUS
370
50
 62
4
100
AcDbLine
 10
36.99925237182748
 20
2.499985633090018
 30
0.0
 11
38.69998563309002
 21
0.7992523718274818
 31
0.0
  0
LINE
  5
754
330
1F
100
AcDbEntity
  8
SK1
  6
CONTINUOUS
370
50
 62
4
100
AcDbLine
 10
37.76015793098176
 20
2.11031113405868
 30
0.0
 11
38.31031113405868
 21
1.560157930981759
 31
0.0
  0
ARC
  5
755
330
1F
100
AcDbEntity
  8
SK6
  6
CONTINUOUS
370
25
 62
5
100
AcDbCircle
 10
96.4613820083765
 20
-28.94524575338786
 30
0.0
 40
2.76048912849221
100
AcDbArc
 50
338.9379403434233
 51
90.44457437511365
  0
LINE
  5
756
330
1F
100
AcDbEntity
  8
SK6
  6
CONTINUOUS
370
25
 62
5
100
AcDbLine
 10
96.43996279695983
 20
-26.18483972421281
 30
0.0
 11
96.43996279695983
 21
-27.28789835613463
 31
0.0
  0
ARC
  5
757
330
1F
100
AcDbEntity
  8
SK6
  6
CONTINUOUS
370
25
 62
5
100
AcDbCircle
 10
96.45050902936916
 20
-28.9652392456682
 30
0.0
 40
1.677374043771779
100
AcDbArc
 50
243.4214706017868
 51
90.36024081226083
  0
ARC
  5
758
330
1F
100
AcDbEntity
  8
SK6
  6
CONTINUOUS
370
25
 62
5
100
AcDbCircle
 10
98.97275989684958
 20
-28.5338319921556
 30
0.0
 40
3.80021703002276
100
AcDbArc
 50
210.5483731288539
 51
236.97801693668
  0
LINE
  5
759
330
1F
100
AcDbEntity
  8
SK6
  6
CONTINUOUS
370
25
 62
5
100
AcDbLine
 10
96.90179068512487
 20
-31.72016781867535
 30
0.0
 11
101.0437309674267
 21
-31.72016781867535
 31
0.0
  0
ARC
  5
75A
330
1F
100
AcDbEntity
  8
SK6
  6
CONTINUOUS
370
25
 62
5
100
AcDbCircle
 10
98.97276183877257
 20
-28.5338320937346
 30
0.0
 40
3.800216899582472
100
AcDbArc
 50
303.0219828477959
 51
326.3732153033476
  0
LINE
  5
75B
330
1F
100
AcDbEntity
  8
SK6
  6
CONTINUOUS
370
25
 62
5
100
AcDbLine
 10
102.1370597513572
 20
-30.6383194907709
 30
0.0
 11
98.77976170575462
 21
-30.6383194907709
 31
0.0
  0
LINE
  5
75C
330
1F
100
AcDbEntity
  8
SK6
  6
CONTINUOUS
370
25
 62
5
100
AcDbLine
 10
98.77976170575462
 20
-30.6383194907709
 30
0.0
 11
102.6996210977199
 21
-29.27691829641694
 31
0.0
  0
ARC
  5
75D
330
1F
100
AcDbEntity
  8
SK6
  6
CONTINUOUS
370
25
 62
5
100
AcDbCircle
 10
98.97276256157211
 20
-28.5338326048594
 30
0.0
 40
3.800217216614723
100
AcDbArc
 50
348.7238644184696
 51
53.4691051260885
  0
LINE
  5
75E
330
1F
100
AcDbEntity
  8
SK6
  6
CONTINUOUS
370
25
 62
5
100
AcDbLine
 10
101.2348652453854
 20
-25.48022124429967
 30
0.0
 11
99.03745047882737
 21
-29.93730973507057
 31
0.0
  0
ENDSEC
  0
SECTION
  2
OBJECTS
  0
DICTIONARY
  5
C
330
0
100
AcDbDictionary
281
     1
  3
ACAD_GROUP
350
D
  3
ACAD_LAYOUT
350
1A
  3
ACAD_MATERIAL
350
3B
  3
ACAD_MLEADERSTYLE
350
761
  3
ACAD_MLINESTYLE
350
17
  3
ACAD_PLOTSETTINGS
350
19
  3
ACAD_PLOTSTYLENAME
350
E
  3
ACAD_SCALELIST
350
1AB
  3
ACAD_VISUALSTYLE
350
2A
  3
AcDbVariableDictionary
350
75F
  0
DICTIONARY
  5
D
102
{ACAD_REACTORS
330
C
102
}
330
C
100
AcDbDictionary
281
     1
  0
DICTIONARY
  5
1A
102
{ACAD_REACTORS
330
C
102
}
330
C
100
AcDbDictionary
281
     1
  3
Layout1
350
1E
  3
Layout2
350
26
  3
Model
350
22
  0
DICTIONARY
  5
3B
102
{ACAD_REACTORS
330
C
102
}
330
C
100
AcDbDictionary
281
     1
  3
ByBlock
350
3D
  3
ByLayer
350
3C
  3
Global
350
3E
  0
DICTIONARY
  5
761
102
{ACAD_REACTORS
330
C
102
}
330
C
100
AcDbDictionary
281
     1
  0
DICTIONARY
  5
17
102
{ACAD_REACTORS
330
C
102
}
330
C
100
AcDbDictionary
281
     1
  3
Standard
350
18
  0
DICTIONARY
  5
19
102
{ACAD_REACTORS
330
C
102
}
330
C
100
AcDbDictionary
281
     1
  0
ACDBDICTIONARYWDFLT
  5
E
102
{ACAD_REACTORS
330
C
102
}
330
C
100
AcDbDictionary
281
     1
  3
Normal
350
F
100
AcDbDictionaryWithDefault
340
F
  0
DICTIONARY
  5
1AB
102
{ACAD_REACTORS
330
C
102
}
330
C
100
AcDbDictionary
281
     1
  3
A0
350
1AC
  3
A1
350
1AD
  3
A2
350
1AE
  3
A3
350
1AF
  3
A4
350
1B0
  3
A5
350
1B1
  3
A6
350
1B2
  3
A7
350
1B3
  3
A8
350
1B4
  3
A9
350
1B5
  3
B0
350
1B6
  3
B1
350
1B7
  3
B2
350
1B8
  3
B3
350
1B9
  3
B4
350
1BA
  3
B5
350
1BB
  3
B6
350
1BC
  3
B7
350
1BD
  3
B8
350
1BE
  3
B9
350
1BF
  3
C0
350
1C0
  3
C1
350
1C1
  3
C2
350
1C2
  3
C3
350
1C3
  3
C4
350
1C4
  3
C5
350
1C5
  3
C6
350
1C6
  3
C7
350
1C7
  3
C8
350
1C8
  3
C9
350
1C9
  3
D0
350
1CA
  3
D1
350
1CB
  3
D2
350
1CC
  0
DICTIONARY
  5
2A
102
{ACAD_REACTORS
330
C
102
}
330
C
100
AcDbDictionary
281
     1
  3
2dWireframe
350
2F
  3
3D Hidden
350
31
  3
3dWireframe
350
30
  3
Basic
350
32
  3
Brighten
350
36
  3
ColorChange
350
3A
  3
Conceptual
350
34
  3
Dim
350
35
  3
Facepattern
350
39
  3
Flat
350
2B
  3
FlatWithEdges
350
2C
  3
Gouraud
350
2D
  3
GouraudWithEdges
350
2E
  3
Linepattern
350
38
  3
Realistic
350
33
  3
Thicken
350
37
  0
DICTIONARY
  5
75F
102
{ACAD_REACTORS
330
C
102
}
330
C
100
AcDbDictionary
281
     1
  3
CANNOSCALE
350
764
  3
DIMASSOC
350
765
  3
HIDETEXT
350
766
  3
PSOLHEIGHT
350
763
  3
PSOLWIDTH
350
762
  0
LAYOUT
  5
1E
102
{ACAD_REACTORS
330
1A
102
}
330
1A
100
AcDbPlotSettings
  1

  2
none_device
  4

  6

 40
0.0
 41
0.0
 42
0.0
 43
0.0
 44
0.0
 45
0.0
 46
0.0
 47
0.0
 48
0.0
 49
0.0
140
0.0
141
0.0
142
1.0
143
1.0
 70
   688
 72
     0
 73
     0
 74
     5
  7

 75
    16
147
1.0
148
0.0
149
0.0
100
AcDbLayout
  1
Layout1
 70
     1
 71
     1
 10
0.0
 20
0.0
 11
420.0
 21
297.0
 12
0.0
 22
0.0
 32
0.0
 14
1.000000000000000E+20
 24
1.000000000000000E+20
 34
1.000000000000000E+20
 15
-1.000000000000000E+20
 25
-1.000000000000000E+20
 35
-1.000000000000000E+20
146
0.0
 13
0.0
 23
0.0
 33
0.0
 16
1.0
 26
0.0
 36
0.0
 17
0.0
 27
1.0
 37
0.0
 76
     0
330
1B
  0
LAYOUT
  5
26
102
{ACAD_REACTORS
330
1A
102
}
330
1A
100
AcDbPlotSettings
  1

  2
none_device
  4

  6

 40
0.0
 41
0.0
 42
0.0
 43
0.0
 44
0.0
 45
0.0
 46
0.0
 47
0.0
 48
0.0
 49
0.0
140
0.0
141
0.0
142
1.0
143
1.0
 70
   688
 72
     0
 73
     0
 74
     5
  7

 75
    16
147
1.0
148
0.0
149
0.0
100
AcDbLayout
  1
Layout2
 70
     1
 71
     2
 10
0.0
 20
0.0
 11
0.0
 21
0.0
 12
0.0
 22
0.0
 32
0.0
 14
0.0
 24
0.0
 34
0.0
 15
0.0
 25
0.0
 35
0.0
146
0.0
 13
0.0
 23
0.0
 33
0.0
 16
1.0
 26
0.0
 36
0.0
 17
0.0
 27
1.0
 37
0.0
 76
     0
330
23
  0
LAYOUT
  5
22
102
{ACAD_REACTORS
330
1A
102
}
330
1A
100
AcDbPlotSettings
  1

  2
none_device
  4

  6

 40
0.0
 41
0.0
 42
0.0
 43
0.0
 44
0.0
 45
0.0
 46
0.0
 47
0.0
 48
0.0
 49
0.0
140
0.0
141
0.0
142
1.0
143
1.0
 70
  1712
 72
     0
 73
     0
 74
     0
  7

 75
     0
147
1.0
148
0.0
149
0.0
100
AcDbLayout
  1
Model
 70
     1
 71
     0
 10
0.0
 20
0.0
 11
420.0
 21
297.0
 12
0.0
 22
0.0
 32
0.0
 14
0.0
 24
0.0
 34
0.0
 15
25.0
 25
35.0
 35
0.0
146
0.0
 13
0.0
 23
0.0
 33
0.0
 16
1.0
 26
0.0
 36
0.0
 17
0.0
 27
1.0
 37
0.0
 76
     0
330
1F
331
29
  0
MATERIAL
  5
3D
102
{ACAD_REACTORS
330
3B
102
}
102
{ACAD_XDICTIONARY
360
789
102
}
330
3B
100
AcDbMaterial
  1
ByBlock
  0
MATERIAL
  5
3C
102
{ACAD_REACTORS
330
3B
102
}
102
{ACAD_XDICTIONARY
360
787
102
}
330
3B
100
AcDbMaterial
  1
ByLayer
  0
MATERIAL
  5
3E
102
{ACAD_REACTORS
330
3B
102
}
102
{ACAD_XDICTIONARY
360
78B
102
}
330
3B
100
AcDbMaterial
  1
Global
  0
MLINESTYLE
  5
18
102
{ACAD_REACTORS
330
17
102
}
330
17
100
AcDbMlineStyle
  2
Standard
 70
     0
  3

 62
   256
 51
90.0
 52
90.0
 71
     2
 49
0.5
 62
   256
  6
BYLAYER
 49
-0.5
 62
   256
  6
BYLAYER
  0
ACDBPLACEHOLDER
  5
F
102
{ACAD_REACTORS
330
E
102
}
330
E
  0
SCALE
  5
1AC
102
{ACAD_REACTORS
330
1AB
102
}
330
1AB
100
AcDbScale
 70
     0
300
1:1
140
1.0
141
1.0
290
     1
  0
SCALE
  5
1AD
102
{ACAD_REACTORS
330
1AB
102
}
330
1AB
100
AcDbScale
 70
     0
300
1:2
140
1.0
141
2.0
290
     0
  0
SCALE
  5
1AE
102
{ACAD_REACTORS
330
1AB
102
}
330
1AB
100
AcDbScale
 70
     0
300
1:4
140
1.0
141
4.0
290
     0
  0
SCALE
  5
1AF
102
{ACAD_REACTORS
330
1AB
102
}
330
1AB
100
AcDbScale
 70
     0
300
1:5
140
1.0
141
5.0
290
     0
  0
SCALE
  5
1B0
102
{ACAD_REACTORS
330
1AB
102
}
330
1AB
100
AcDbScale
 70
     0
300
1:8
140
1.0
141
8.0
290
     0
  0
SCALE
  5
1B1
102
{ACAD_REACTORS
330
1AB
102
}
330
1AB
100
AcDbScale
 70
     0
300
1:10
140
1.0
141
10.0
290
     0
  0
SCALE
  5
1B2
102
{ACAD_REACTORS
330
1AB
102
}
330
1AB
100
AcDbScale
 70
     0
300
1:16
140
1.0
141
16.0
290
     0
  0
SCALE
  5
1B3
102
{ACAD_REACTORS
330
1AB
102
}
330
1AB
100
AcDbScale
 70
     0
300
1:20
140
1.0
141
20.0
290
     0
  0
SCALE
  5
1B4
102
{ACAD_REACTORS
330
1AB
102
}
330
1AB
100
AcDbScale
 70
     0
300
1:30
140
1.0
141
30.0
290
     0
  0
SCALE
  5
1B5
102
{ACAD_REACTORS
330
1AB
102
}
330
1AB
100
AcDbScale
 70
     0
300
1:40
140
1.0
141
40.0
290
     0
  0
SCALE
  5
1B6
102
{ACAD_REACTORS
330
1AB
102
}
330
1AB
100
AcDbScale
 70
     0
300
1:50
140
1.0
141
50.0
290
     0
  0
SCALE
  5
1B7
102
{ACAD_REACTORS
330
1AB
102
}
330
1AB
100
AcDbScale
 70
     0
300
1:100
140
1.0
141
100.0
290
     0
  0
SCALE
  5
1B8
102
{ACAD_REACTORS
330
1AB
102
}
330
1AB
100
AcDbScale
 70
     0
300
2:1
140
2.0
141
1.0
290
     0
  0
SCALE
  5
1B9
102
{ACAD_REACTORS
330
1AB
102
}
330
1AB
100
AcDbScale
 70
     0
300
4:1
140
4.0
141
1.0
290
     0
  0
SCALE
  5
1BA
102
{ACAD_REACTORS
330
1AB
102
}
330
1AB
100
AcDbScale
 70
     0
300
8:1
140
8.0
141
1.0
290
     0
  0
SCALE
  5
1BB
102
{ACAD_REACTORS
330
1AB
102
}
330
1AB
100
AcDbScale
 70
     0
300
10:1
140
10.0
141
1.0
290
     0
  0
SCALE
  5
1BC
102
{ACAD_REACTORS
330
1AB
102
}
330
1AB
100
AcDbScale
 70
     0
300
100:1
140
100.0
141
1.0
290
     0
  0
SCALE
  5
1BD
102
{ACAD_REACTORS
330
1AB
102
}
330
1AB
100
AcDbScale
 70
     0
300
1/128" = 1'-0"
140
0.0078125
141
12.0
290
     0
  0
SCALE
  5
1BE
102
{ACAD_REACTORS
330
1AB
102
}
330
1AB
100
AcDbScale
 70
     0
300
1/64" = 1'-0"
140
0.015625
141
12.0
290
     0
  0
SCALE
  5
1BF
102
{ACAD_REACTORS
330
1AB
102
}
330
1AB
100
AcDbScale
 70
     0
300
1/32" = 1'-0"
140
0.03125
141
12.0
290
     0
  0
SCALE
  5
1C0
102
{ACAD_REACTORS
330
1AB
102
}
330
1AB
100
AcDbScale
 70
     0
300
1/16" = 1'-0"
140
0.0625
141
12.0
290
     0
  0
SCALE
  5
1C1
102
{ACAD_REACTORS
330
1AB
102
}
330
1AB
100
AcDbScale
 70
     0
300
3/32" = 1'-0"
140
0.09375
141
12.0
290
     0
  0
SCALE
  5
1C2
102
{ACAD_REACTORS
330
1AB
102
}
330
1AB
100
AcDbScale
 70
     0
300
1/8" = 1'-0"
140
0.125
141
12.0
290
     0
  0
SCALE
  5
1C3
102
{ACAD_REACTORS
330
1AB
102
}
330
1AB
100
AcDbScale
 70
     0
300
3/16" = 1'-0"
140
0.1875
141
12.0
290
     0
  0
SCALE
  5
1C4
102
{ACAD_REACTORS
330
1AB
102
}
330
1AB
100
AcDbScale
 70
     0
300
1/4" = 1'-0"
140
0.25
141
12.0
290
     0
  0
SCALE
  5
1C5
102
{ACAD_REACTORS
330
1AB
102
}
330
1AB
100
AcDbScale
 70
     0
300
3/8" = 1'-0"
140
0.375
141
12.0
290
     0
  0
SCALE
  5
1C6
102
{ACAD_REACTORS
330
1AB
102
}
330
1AB
100
AcDbScale
 70
     0
300
1/2" = 1'-0"
140
0.5
141
12.0
290
     0
  0
SCALE
  5
1C7
102
{ACAD_REACTORS
330
1AB
102
}
330
1AB
100
AcDbScale
 70
     0
300
3/4" = 1'-0"
140
0.75
141
12.0
290
     0
  0
SCALE
  5
1C8
102
{ACAD_REACTORS
330
1AB
102
}
330
1AB
100
AcDbScale
 70
     0
300
1" = 1'-0"
140
1.0
141
12.0
290
     0
  0
SCALE
  5
1C9
102
{ACAD_REACTORS
330
1AB
102
}
330
1AB
100
AcDbScale
 70
     0
300
1-1/2" = 1'-0"
140
1.5
141
12.0
290
     0
  0
SCALE
  5
1CA
102
{ACAD_REACTORS
330
1AB
102
}
330
1AB
100
AcDbScale
 70
     0
300
3" = 1'-0"
140
3.0
141
12.0
290
     0
  0
SCALE
  5
1CB
102
{ACAD_REACTORS
330
1AB
102
}
330
1AB
100
AcDbScale
 70
     0
300
6" = 1'-0"
140
6.0
141
12.0
290
     0
  0
SCALE
  5
1CC
102
{ACAD_REACTORS
330
1AB
102
}
330
1AB
100
AcDbScale
 70
     0
300
1'-0" = 1'-0"
140
12.0
141
12.0
290
     0
  0
VISUALSTYLE
  5
2F
102
{ACAD_REACTORS
330
2A
102
}
102
{ACAD_XDICTIONARY
360
76F
102
}
330
2A
100
AcDbVisualStyle
  2
2dWireframe
 70
     4
 71
     0
 72
     2
 73
     0
 90
        0
 40
-0.6
 41
-30.0
 62
     5
 63
     7
 74
     1
 91
        4
 64
     7
 65
   257
 75
     1
175
     1
 42
1.0
 92
        0
 66
   257
 43
1.0
 76
     1
 77
     6
 78
     2
 67
     7
 79
     5
170
     0
171
     0
290
     0
174
     0
 93
        1
 44
0.0
173
     0
291
     0
 45
0.0
1001
ACAD
1000
AcDbSavedByObjectVersion
1070
     0
  0
VISUALSTYLE
  5
31
102
{ACAD_REACTORS
330
2A
102
}
102
{ACAD_XDICTIONARY
360
773
102
}
330
2A
100
AcDbVisualStyle
  2
3D Hidden
 70
     6
 71
     1
 72
     2
 73
     2
 90
        0
 40
-0.6
 41
-30.0
 62
     5
 63
     7
 74
     2
 91
        2
 64
     7
 65
   257
 75
     2
175
     1
 42
40.0
 92
        0
 66
   257
 43
1.0
 76
     1
 77
     6
 78
     2
 67
     7
 79
     3
170
     0
171
     0
290
     0
174
     0
 93
        1
 44
0.0
173
     0
291
     0
 45
0.0
1001
ACAD
1000
AcDbSavedByObjectVersion
1070
     0
  0
VISUALSTYLE
  5
30
102
{ACAD_REACTORS
330
2A
102
}
102
{ACAD_XDICTIONARY
360
771
102
}
330
2A
100
AcDbVisualStyle
  2
3dWireframe
 70
     5
 71
     0
 72
     2
 73
     0
 90
        0
 40
-0.6
 41
-30.0
 62
     5
 63
     7
 74
     1
 91
        4
 64
     7
 65
   257
 75
     1
175
     1
 42
1.0
 92
        0
 66
   257
 43
1.0
 76
     1
 77
     6
 78
     2
 67
     7
 79
     5
170
     0
171
     0
290
     0
174
     0
 93
        1
 44
0.0
173
     0
291
     0
 45
0.0
1001
ACAD
1000
AcDbSavedByObjectVersion
1070
     0
  0
VISUALSTYLE
  5
32
102
{ACAD_REACTORS
330
2A
102
}
102
{ACAD_XDICTIONARY
360
775
102
}
330
2A
100
AcDbVisualStyle
  2
Basic
 70
     7
 71
     1
 72
     0
 73
     1
 90
        0
 40
-0.6
 41
-30.0
 62
     5
 63
     7
 74
     0
 91
        4
 64
     7
 65
   257
 75
     1
175
     1
 42
1.0
 92
        8
 66
     7
 43
1.0
 76
     1
 77
     6
 78
     2
 67
     7
 79
     5
170
     0
171
     0
290
     0
174
     0
 93
        1
 44
0.0
173
     0
291
     1
 45
0.0
1001
ACAD
1000
AcDbSavedByObjectVersion
1070
     0
  0
VISUALSTYLE
  5
36
102
{ACAD_REACTORS
330
2A
102
}
102
{ACAD_XDICTIONARY
360
77D
102
}
330
2A
100
AcDbVisualStyle
  2
Brighten
 70
    12
 71
     2
 72
     2
 73
     0
 90
        0
 40
-0.6
 41
-30.0
 62
     5
 63
     7
 74
     1
 91
        4
 64
     7
 65
   257
 75
     1
175
     1
 42
1.0
 92
        8
 66
     7
 43
1.0
 76
     1
 77
     6
 78
     2
 67
     7
 79
     5
170
     0
171
     0
290
     0
174
     0
 93
        1
 44
50.0
173
     0
291
     1
 45
0.0
1001
ACAD
1000
AcDbSavedByObjectVersion
1070
     0
  0
VISUALSTYLE
  5
3A
102
{ACAD_REACTORS
330
2A
102
}
102
{ACAD_XDICTIONARY
360
785
102
}
330
2A
100
AcDbVisualStyle
  2
ColorChange
 70
    16
 71
     2
 72
     2
 73
     3
 90
        0
 40
-0.6
 41
-30.0
 62
     5
 63
     8
 74
     1
 91
        4
 64
     7
 65
   257
 75
     1
175
     1
 42
1.0
 92
        8
 66
     8
 43
1.0
 76
     1
 77
     6
 78
     2
 67
     7
 79
     5
170
     0
171
     0
290
     0
174
     0
 93
        1
 44
0.0
173
     0
291
     1
 45
0.0
1001
ACAD
1000
AcDbSavedByObjectVersion
1070
     0
  0
VISUALSTYLE
  5
34
102
{ACAD_REACTORS
330
2A
102
}
102
{ACAD_XDICTIONARY
360
779
102
}
330
2A
100
AcDbVisualStyle
  2
Conceptual
 70
     9
 71
     3
 72
     2
 73
     0
 90
        0
 40
-0.6
 41
-30.0
 62
     5
 63
     7
 74
     2
 91
        2
 64
     7
 65
   257
 75
     1
175
     1
 42
40.0
 92
        8
 66
     7
 43
1.0
 76
     1
 77
     6
 78
     2
 67
     7
 79
     3
170
     0
171
     0
290
     0
174
     0
 93
        1
 44
0.0
173
     0
291
     0
 45
0.0
1001
ACAD
1000
AcDbSavedByObjectVersion
1070
     0
  0
VISUALSTYLE
  5
35
102
{ACAD_REACTORS
330
2A
102
}
102
{ACAD_XDICTIONARY
360
77B
102
}
330
2A
100
AcDbVisualStyle
  2
Dim
 70
    11
 71
     2
 72
     2
 73
     0
 90
        0
 40
-0.6
 41
-30.0
 62
     5
 63
     7
 74
     1
 91
        4
 64
     7
 65
   257
 75
     1
175
     1
 42
1.0
 92
        8
 66
     7
 43
1.0
 76
     1
 77
     6
 78
     2
 67
     7
 79
     5
170
     0
171
     0
290
     0
174
     0
 93
        1
 44
-50.0
173
     0
291
     1
 45
0.0
1001
ACAD
1000
AcDbSavedByObjectVersion
1070
     0
  0
VISUALSTYLE
  5
39
102
{ACAD_REACTORS
330
2A
102
}
102
{ACAD_XDICTIONARY
360
783
102
}
330
2A
100
AcDbVisualStyle
  2
Facepattern
 70
    15
 71
     2
 72
     2
 73
     0
 90
        0
 40
-0.6
 41
-30.0
 62
     5
 63
     7
 74
     1
 91
        4
 64
     7
 65
   257
 75
     1
175
     1
 42
1.0
 92
        8
 66
     7
 43
1.0
 76
     1
 77
     6
 78
     2
 67
     7
 79
     5
170
     0
171
     0
290
     0
174
     0
 93
        1
 44
0.0
173
     0
291
     1
 45
0.0
1001
ACAD
1000
AcDbSavedByObjectVersion
1070
     0
  0
VISUALSTYLE
  5
2B
102
{ACAD_REACTORS
330
2A
102
}
102
{ACAD_XDICTIONARY
360
767
102
}
330
2A
100
AcDbVisualStyle
  2
Flat
 70
     0
 71
     2
 72
     1
 73
     1
 90
        2
 40
-0.6
 41
30.0
 62
     5
 63
     7
 74
     0
 91
        4
 64
     7
 65
   257
 75
     1
175
     1
 42
1.0
 92
        8
 66
     7
 43
1.0
 76
     1
 77
     6
 78
     2
 67
     7
 79
     5
170
     0
171
     0
290
     0
174
     0
 93
       13
 44
0.0
173
     0
291
     1
 45
0.0
1001
ACAD
1000
AcDbSavedByObjectVersion
1070
     0
  0
VISUALSTYLE
  5
2C
102
{ACAD_REACTORS
330
2A
102
}
102
{ACAD_XDICTIONARY
360
769
102
}
330
2A
100
AcDbVisualStyle
  2
FlatWithEdges
 70
     1
 71
     2
 72
     1
 73
     1
 90
        2
 40
-0.6
 41
30.0
 62
     5
 63
     7
 74
     1
 91
        4
 64
     7
 65
   257
 75
     1
175
     1
 42
1.0
 92
        0
 66
   257
 43
1.0
 76
     1
 77
     6
 78
     2
 67
     7
 79
     5
170
     0
171
     0
290
     0
174
     0
 93
       13
 44
0.0
173
     0
291
     1
 45
0.0
1001
ACAD
1000
AcDbSavedByObjectVersion
1070
     0
  0
VISUALSTYLE
  5
2D
102
{ACAD_REACTORS
330
2A
102
}
102
{ACAD_XDICTIONARY
360
76B
102
}
330
2A
100
AcDbVisualStyle
  2
Gouraud
 70
     2
 71
     2
 72
     2
 73
     1
 90
        2
 40
-0.6
 41
30.0
 62
     5
 63
     7
 74
     0
 91
        4
 64
     7
 65
   257
 75
     1
175
     1
 42
1.0
 92
        0
 66
     7
 43
1.0
 76
     1
 77
     6
 78
     2
 67
     7
 79
     5
170
     0
171
     0
290
     0
174
     0
 93
       13
 44
0.0
173
     0
291
     1
 45
0.0
1001
ACAD
1000
AcDbSavedByObjectVersion
1070
     0
  0
VISUALSTYLE
  5
2E
102
{ACAD_REACTORS
330
2A
102
}
102
{ACAD_XDICTIONARY
360
76D
102
}
330
2A
100
AcDbVisualStyle
  2
GouraudWithEdges
 70
     3
 71
     2
 72
     2
 73
     1
 90
        2
 40
-0.6
 41
30.0
 62
     5
 63
     7
 74
     1
 91
        4
 64
     7
 65
   257
 75
     1
175
     1
 42
1.0
 92
        0
 66
   257
 43
1.0
 76
     1
 77
     6
 78
     2
 67
     7
 79
     5
170
     0
171
     0
290
     0
174
     0
 93
       13
 44
0.0
173
     0
291
     1
 45
0.0
1001
ACAD
1000
AcDbSavedByObjectVersion
1070
     0
  0
VISUALSTYLE
  5
38
102
{ACAD_REACTORS
330
2A
102
}
102
{ACAD_XDICTIONARY
360
781
102
}
330
2A
100
AcDbVisualStyle
  2
Linepattern
 70
    14
 71
     2
 72
     2
 73
     0
 90
        0
 40
-0.6
 41
-30.0
 62
     5
 63
     7
 74
     1
 91
        4
 64
     7
 65
   257
 75
     7
175
     7
 42
1.0
 92
        8
 66
     7
 43
1.0
 76
     1
 77
     6
 78
     2
 67
     7
 79
     5
170
     0
171
     0
290
     0
174
     0
 93
        1
 44
0.0
173
     0
291
     1
 45
0.0
1001
ACAD
1000
AcDbSavedByObjectVersion
1070
     0
  0
VISUALSTYLE
  5
33
102
{ACAD_REACTORS
330
2A
102
}
102
{ACAD_XDICTIONARY
360
777
102
}
330
2A
100
AcDbVisualStyle
  2
Realistic
 70
     8
 71
     2
 72
     2
 73
     0
 90
        0
 40
-0.6
 41
-30.0
 62
     5
 63
     7
 74
     1
 91
        0
 64
     7
 65
   257
 75
     1
175
     1
 42
1.0
 92
        8
 66
     8
 43
1.0
 76
     1
 77
     6
 78
     2
 67
     7
 79
     5
170
     0
171
     0
290
     0
174
     0
 93
       13
 44
0.0
173
     0
291
     0
 45
0.0
1001
ACAD
1000
AcDbSavedByObjectVersion
1070
     0
  0
VISUALSTYLE
  5
37
102
{ACAD_REACTORS
330
2A
102
}
102
{ACAD_XDICTIONARY
360
77F
102
}
330
2A
100
AcDbVisualStyle
  2
Thicken
 70
    13
 71
     2
 72
     2
 73
     0
 90
        0
 40
-0.6
 41
-30.0
 62
     5
 63
     7
 74
     1
 91
        4
 64
     7
 65
   257
 75
     1
175
     1
 42
1.0
 92
       12
 66
     7
 43
1.0
 76
     1
 77
     6
 78
     2
 67
     7
 79
     5
170
     0
171
     0
290
     0
174
     0
 93
        1
 44
0.0
173
     0
291
     1
 45
0.0
1001
ACAD
1000
AcDbSavedByObjectVersion
1070
     0
  0
DICTIONARYVAR
  5
764
102
{ACAD_REACTORS
330
75F
102
}
330
75F
100
DictionaryVariables
280
     0
  1
1:1
  0
DICTIONARYVAR
  5
765
102
{ACAD_REACTORS
330
75F
102
}
330
75F
100
DictionaryVariables
280
     0
  1
2
  0
DICTIONARYVAR
  5
766
102
{ACAD_REACTORS
330
75F
102
}
330
75F
100
DictionaryVariables
280
     0
  1
1
  0
DICTIONARYVAR
  5
763
102
{ACAD_REACTORS
330
75F
102
}
330
75F
100
DictionaryVariables
280
     0
  1
80.000000
  0
DICTIONARYVAR
  5
762
102
{ACAD_REACTORS
330
75F
102
}
330
75F
100
DictionaryVariables
280
     0
  1
5.000000
  0
DICTIONARY
  5
789
330
3D
100
AcDbDictionary
280
     1
281
     1
  3
ACAD_XREC_ROUNDTRIP
360
78A
  0
DICTIONARY
  5
787
330
3C
100
AcDbDictionary
280
     1
281
     1
  3
ACAD_XREC_ROUNDTRIP
360
788
  0
DICTIONARY
  5
78B
330
3E
100
AcDbDictionary
280
     1
281
     1
  3
ACAD_XREC_ROUNDTRIP
360
78C
  0
DICTIONARY
  5
76F
330
2F
100
AcDbDictionary
280
     1
281
     1
  3
ACAD_XREC_ROUNDTRIP
360
770
  0
DICTIONARY
  5
773
330
31
100
AcDbDictionary
280
     1
281
     1
  3
ACAD_XREC_ROUNDTRIP
360
774
  0
DICTIONARY
  5
771
330
30
100
AcDbDictionary
280
     1
281
     1
  3
ACAD_XREC_ROUNDTRIP
360
772
  0
DICTIONARY
  5
775
330
32
100
AcDbDictionary
280
     1
281
     1
  3
ACAD_XREC_ROUNDTRIP
360
776
  0
DICTIONARY
  5
77D
330
36
100
AcDbDictionary
280
     1
281
     1
  3
ACAD_XREC_ROUNDTRIP
360
77E
  0
DICTIONARY
  5
785
330
3A
100
AcDbDictionary
280
     1
281
     1
  3
ACAD_XREC_ROUNDTRIP
360
786
  0
DICTIONARY
  5
779
330
34
100
AcDbDictionary
280
     1
281
     1
  3
ACAD_XREC_ROUNDTRIP
360
77A
  0
DICTIONARY
  5
77B
330
35
100
AcDbDictionary
280
     1
281
     1
  3
ACAD_XREC_ROUNDTRIP
360
77C
  0
DICTIONARY
  5
783
330
39
100
AcDbDictionary
280
     1
281
     1
  3
ACAD_XREC_ROUNDTRIP
360
784
  0
DICTIONARY
  5
767
330
2B
100
AcDbDictionary
280
     1
281
     1
  3
ACAD_XREC_ROUNDTRIP
360
768
  0
DICTIONARY
  5
769
330
2C
100
AcDbDictionary
280
     1
281
     1
  3
ACAD_XREC_ROUNDTRIP
360
76A
  0
DICTIONARY
  5
76B
330
2D
100
AcDbDictionary
280
     1
281
     1
  3
ACAD_XREC_ROUNDTRIP
360
76C
  0
DICTIONARY
  5
76D
330
2E
100
AcDbDictionary
280
     1
281
     1
  3
ACAD_XREC_ROUNDTRIP
360
76E
  0
DICTIONARY
  5
781
330
38
100
AcDbDictionary
280
     1
281
     1
  3
ACAD_XREC_ROUNDTRIP
360
782
  0
DICTIONARY
  5
777
330
33
100
AcDbDictionary
280
     1
281
     1
  3
ACAD_XREC_ROUNDTRIP
360
778
  0
DICTIONARY
  5
77F
330
37
100
AcDbDictionary
280
     1
281
     1
  3
ACAD_XREC_ROUNDTRIP
360
780
  0
XRECORD
  5
78A
102
{ACAD_REACTORS
330
789
102
}
330
789
100
AcDbXrecord
280
     1
102
MATERIAL
148
0.0
149
0.0
149
0.0
 93
        0
 94
      127
282
     0
 72
     1
 77
     1
171
     1
175
     1
179
     1
273
     0
  0
XRECORD
  5
788
102
{ACAD_REACTORS
330
787
102
}
330
787
100
AcDbXrecord
280
     1
102
MATERIAL
148
0.0
149
0.0
149
0.0
 93
        0
 94
      127
282
     0
 72
     1
 77
     1
171
     1
175
     1
179
     1
273
     0
  0
XRECORD
  5
78C
102
{ACAD_REACTORS
330
78B
102
}
330
78B
100
AcDbXrecord
280
     1
102
MATERIAL
148
0.0
149
0.0
149
0.0
 93
        0
 94
      127
282
     0
 72
     1
 77
     1
171
     1
175
     1
179
     1
273
     0
  0
XRECORD
  5
770
102
{ACAD_REACTORS
330
76F
102
}
330
76F
100
AcDbXrecord
280
     1
102
RTVSPropertyOp0
 70
     1
102
RTVSPropertyOp1
 70
     1
102
RTVSPropertyOp2
 70
     1
102
RTVSPropertyOp3
 70
     1
102
RTVSPropertyOp4
 70
     1
102
RTVSPropertyOp5
 70
     1
102
RTVSPropertyOp6
 70
     1
102
RTVSPropertyOp7
 70
     1
102
RTVSPropertyOp8
 70
     1
102
RTVSPropertyOp9
 70
     1
102
RTVSPropertyOp10
 70
     1
102
RTVSPropertyOp11
 70
     1
102
RTVSPropertyOp12
 70
     1
102
RTVSPropertyOp13
 70
     1
102
RTVSPropertyOp14
 70
     1
102
RTVSPropertyOp15
 70
     1
102
RTVSPropertyOp16
 70
     1
102
RTVSPropertyOp17
 70
     1
102
RTVSPropertyOp18
 70
     1
102
RTVSPropertyOp19
 70
     1
102
RTVSPropertyOp20
 70
     1
102
RTVSPropertyOp21
 70
     1
102
RTVSPropertyOp22
 70
     1
102
RTVSPropertyOp23
 70
     1
102
RTVSPropertyOp24
 70
     1
102
RTVSPropertyOp25
 70
     1
102
RTVSPropertyOp26
 70
     1
102
RTVSPropertyOp27
 70
     1
  0
XRECORD
  5
774
102
{ACAD_REACTORS
330
773
102
}
330
773
100
AcDbXrecord
280
     1
102
RTVSPropertyOp0
 70
     1
102
RTVSPropertyOp1
 70
     1
102
RTVSPropertyOp2
 70
     1
102
RTVSPropertyOp3
 70
     1
102
RTVSPropertyOp4
 70
     1
102
RTVSPropertyOp5
 70
     1
102
RTVSPropertyOp6
 70
     1
102
RTVSPropertyOp7
 70
     1
102
RTVSPropertyOp8
 70
     1
102
RTVSPropertyOp9
 70
     1
102
RTVSPropertyOp10
 70
     1
102
RTVSPropertyOp11
 70
     1
102
RTVSPropertyOp12
 70
     1
102
RTVSPropertyOp13
 70
     1
102
RTVSPropertyOp14
 70
     1
102
RTVSPropertyOp15
 70
     1
102
RTVSPropertyOp16
 70
     1
102
RTVSPropertyOp17
 70
     1
102
RTVSPropertyOp18
 70
     1
102
RTVSPropertyOp19
 70
     1
102
RTVSPropertyOp20
 70
     1
102
RTVSPropertyOp21
 70
     1
102
RTVSPropertyOp22
 70
     1
102
RTVSPropertyOp23
 70
     1
102
RTVSPropertyOp24
 70
     1
102
RTVSPropertyOp25
 70
     1
102
RTVSPropertyOp26
 70
     1
102
RTVSPropertyOp27
 70
     1
  0
XRECORD
  5
772
102
{ACAD_REACTORS
330
771
102
}
330
771
100
AcDbXrecord
280
     1
102
RTVSPropertyOp0
 70
     1
102
RTVSPropertyOp1
 70
     1
102
RTVSPropertyOp2
 70
     1
102
RTVSPropertyOp3
 70
     1
102
RTVSPropertyOp4
 70
     1
102
RTVSPropertyOp5
 70
     1
102
RTVSPropertyOp6
 70
     1
102
RTVSPropertyOp7
 70
     1
102
RTVSPropertyOp8
 70
     1
102
RTVSPropertyOp9
 70
     1
102
RTVSPropertyOp10
 70
     1
102
RTVSPropertyOp11
 70
     1
102
RTVSPropertyOp12
 70
     1
102
RTVSPropertyOp13
 70
     1
102
RTVSPropertyOp14
 70
     1
102
RTVSPropertyOp15
 70
     1
102
RTVSPropertyOp16
 70
     1
102
RTVSPropertyOp17
 70
     1
102
RTVSPropertyOp18
 70
     1
102
RTVSPropertyOp19
 70
     1
102
RTVSPropertyOp20
 70
     1
102
RTVSPropertyOp21
 70
     1
102
RTVSPropertyOp22
 70
     1
102
RTVSPropertyOp23
 70
     1
102
RTVSPropertyOp24
 70
     1
102
RTVSPropertyOp25
 70
     1
102
RTVSPropertyOp26
 70
     1
102
RTVSPropertyOp27
 70
     1
  0
XRECORD
  5
776
102
{ACAD_REACTORS
330
775
102
}
330
775
100
AcDbXrecord
280
     1
102
RTVSPropertyOp0
 70
     1
102
RTVSPropertyOp1
 70
     1
102
RTVSPropertyOp2
 70
     1
102
RTVSPropertyOp3
 70
     1
102
RTVSPropertyOp4
 70
     1
102
RTVSPropertyOp5
 70
     1
102
RTVSPropertyOp6
 70
     1
102
RTVSPropertyOp7
 70
     1
102
RTVSPropertyOp8
 70
     1
102
RTVSPropertyOp9
 70
     1
102
RTVSPropertyOp10
 70
     1
102
RTVSPropertyOp11
 70
     1
102
RTVSPropertyOp12
 70
     1
102
RTVSPropertyOp13
 70
     1
102
RTVSPropertyOp14
 70
     1
102
RTVSPropertyOp15
 70
     1
102
RTVSPropertyOp16
 70
     1
102
RTVSPropertyOp17
 70
     1
102
RTVSPropertyOp18
 70
     1
102
RTVSPropertyOp19
 70
     1
102
RTVSPropertyOp20
 70
     1
102
RTVSPropertyOp21
 70
     1
102
RTVSPropertyOp22
 70
     1
102
RTVSPropertyOp23
 70
     1
102
RTVSPropertyOp24
 70
     1
102
RTVSPropertyOp25
 70
     1
102
RTVSPropertyOp26
 70
     1
102
RTVSPropertyOp27
 70
     1
  0
XRECORD
  5
77E
102
{ACAD_REACTORS
330
77D
102
}
330
77D
100
AcDbXrecord
280
     1
102
RTVSPropertyOp0
 70
     1
102
RTVSPropertyOp1
 70
     1
102
RTVSPropertyOp2
 70
     1
102
RTVSPropertyOp3
 70
     1
102
RTVSPropertyOp4
 70
     1
102
RTVSPropertyOp5
 70
     1
102
RTVSPropertyOp6
 70
     1
102
RTVSPropertyOp7
 70
     1
102
RTVSPropertyOp8
 70
     1
102
RTVSPropertyOp9
 70
     1
102
RTVSPropertyOp10
 70
     1
102
RTVSPropertyOp11
 70
     1
102
RTVSPropertyOp12
 70
     1
102
RTVSPropertyOp13
 70
     1
102
RTVSPropertyOp14
 70
     1
102
RTVSPropertyOp15
 70
     1
102
RTVSPropertyOp16
 70
     1
102
RTVSPropertyOp17
 70
     1
102
RTVSPropertyOp18
 70
     1
102
RTVSPropertyOp19
 70
     1
102
RTVSPropertyOp20
 70
     1
102
RTVSPropertyOp21
 70
     1
102
RTVSPropertyOp22
 70
     1
102
RTVSPropertyOp23
 70
     1
102
RTVSPropertyOp24
 70
     1
102
RTVSPropertyOp25
 70
     1
102
RTVSPropertyOp26
 70
     1
102
RTVSPropertyOp27
 70
     1
  0
XRECORD
  5
786
102
{ACAD_REACTORS
330
785
102
}
330
785
100
AcDbXrecord
280
     1
102
RTVSPropertyOp0
 70
     1
102
RTVSPropertyOp1
 70
     1
102
RTVSPropertyOp2
 70
     1
102
RTVSPropertyOp3
 70
     1
102
RTVSPropertyOp4
 70
     1
102
RTVSPropertyOp5
 70
     1
102
RTVSPropertyOp6
 70
     1
102
RTVSPropertyOp7
 70
     1
102
RTVSPropertyOp8
 70
     1
102
RTVSPropertyOp9
 70
     1
102
RTVSPropertyOp10
 70
     1
102
RTVSPropertyOp11
 70
     1
102
RTVSPropertyOp12
 70
     1
102
RTVSPropertyOp13
 70
     1
102
RTVSPropertyOp14
 70
     1
102
RTVSPropertyOp15
 70
     1
102
RTVSPropertyOp16
 70
     1
102
RTVSPropertyOp17
 70
     1
102
RTVSPropertyOp18
 70
     1
102
RTVSPropertyOp19
 70
     1
102
RTVSPropertyOp20
 70
     1
102
RTVSPropertyOp21
 70
     1
102
RTVSPropertyOp22
 70
     1
102
RTVSPropertyOp23
 70
     1
102
RTVSPropertyOp24
 70
     1
102
RTVSPropertyOp25
 70
     1
102
RTVSPropertyOp26
 70
     1
102
RTVSPropertyOp27
 70
     1
  0
XRECORD
  5
77A
102
{ACAD_REACTORS
330
779
102
}
330
779
100
AcDbXrecord
280
     1
102
RTVSPropertyOp0
 70
     1
102
RTVSPropertyOp1
 70
     1
102
RTVSPropertyOp2
 70
     1
102
RTVSPropertyOp3
 70
     1
102
RTVSPropertyOp4
 70
     1
102
RTVSPropertyOp5
 70
     1
102
RTVSPropertyOp6
 70
     1
102
RTVSPropertyOp7
 70
     1
102
RTVSPropertyOp8
 70
     1
102
RTVSPropertyOp9
 70
     1
102
RTVSPropertyOp10
 70
     1
102
RTVSPropertyOp11
 70
     1
102
RTVSPropertyOp12
 70
     1
102
RTVSPropertyOp13
 70
     1
102
RTVSPropertyOp14
 70
     1
102
RTVSPropertyOp15
 70
     1
102
RTVSPropertyOp16
 70
     1
102
RTVSPropertyOp17
 70
     1
102
RTVSPropertyOp18
 70
     1
102
RTVSPropertyOp19
 70
     1
102
RTVSPropertyOp20
 70
     1
102
RTVSPropertyOp21
 70
     1
102
RTVSPropertyOp22
 70
     1
102
RTVSPropertyOp23
 70
     1
102
RTVSPropertyOp24
 70
     1
102
RTVSPropertyOp25
 70
     1
102
RTVSPropertyOp26
 70
     1
102
RTVSPropertyOp27
 70
     1
  0
XRECORD
  5
77C
102
{ACAD_REACTORS
330
77B
102
}
330
77B
100
AcDbXrecord
280
     1
102
RTVSPropertyOp0
 70
     1
102
RTVSPropertyOp1
 70
     1
102
RTVSPropertyOp2
 70
     1
102
RTVSPropertyOp3
 70
     1
102
RTVSPropertyOp4
 70
     1
102
RTVSPropertyOp5
 70
     1
102
RTVSPropertyOp6
 70
     1
102
RTVSPropertyOp7
 70
     1
102
RTVSPropertyOp8
 70
     1
102
RTVSPropertyOp9
 70
     1
102
RTVSPropertyOp10
 70
     1
102
RTVSPropertyOp11
 70
     1
102
RTVSPropertyOp12
 70
     1
102
RTVSPropertyOp13
 70
     1
102
RTVSPropertyOp14
 70
     1
102
RTVSPropertyOp15
 70
     1
102
RTVSPropertyOp16
 70
     1
102
RTVSPropertyOp17
 70
     1
102
RTVSPropertyOp18
 70
     1
102
RTVSPropertyOp19
 70
     1
102
RTVSPropertyOp20
 70
     1
102
RTVSPropertyOp21
 70
     1
102
RTVSPropertyOp22
 70
     1
102
RTVSPropertyOp23
 70
     1
102
RTVSPropertyOp24
 70
     1
102
RTVSPropertyOp25
 70
     1
102
RTVSPropertyOp26
 70
     1
102
RTVSPropertyOp27
 70
     1
  0
XRECORD
  5
784
102
{ACAD_REACTORS
330
783
102
}
330
783
100
AcDbXrecord
280
     1
102
RTVSPropertyOp0
 70
     1
102
RTVSPropertyOp1
 70
     1
102
RTVSPropertyOp2
 70
     1
102
RTVSPropertyOp3
 70
     1
102
RTVSPropertyOp4
 70
     1
102
RTVSPropertyOp5
 70
     1
102
RTVSPropertyOp6
 70
     1
102
RTVSPropertyOp7
 70
     1
102
RTVSPropertyOp8
 70
     1
102
RTVSPropertyOp9
 70
     1
102
RTVSPropertyOp10
 70
     1
102
RTVSPropertyOp11
 70
     1
102
RTVSPropertyOp12
 70
     1
102
RTVSPropertyOp13
 70
     1
102
RTVSPropertyOp14
 70
     1
102
RTVSPropertyOp15
 70
     1
102
RTVSPropertyOp16
 70
     1
102
RTVSPropertyOp17
 70
     1
102
RTVSPropertyOp18
 70
     1
102
RTVSPropertyOp19
 70
     1
102
RTVSPropertyOp20
 70
     1
102
RTVSPropertyOp21
 70
     1
102
RTVSPropertyOp22
 70
     1
102
RTVSPropertyOp23
 70
     1
102
RTVSPropertyOp24
 70
     1
102
RTVSPropertyOp25
 70
     1
102
RTVSPropertyOp26
 70
     1
102
RTVSPropertyOp27
 70
     1
  0
XRECORD
  5
768
102
{ACAD_REACTORS
330
767
102
}
330
767
100
AcDbXrecord
280
     1
102
RTVSPropertyOp0
 70
     1
102
RTVSPropertyOp1
 70
     1
102
RTVSPropertyOp2
 70
     1
102
RTVSPropertyOp3
 70
     1
102
RTVSPropertyOp4
 70
     1
102
RTVSPropertyOp5
 70
     1
102
RTVSPropertyOp6
 70
     1
102
RTVSPropertyOp7
 70
     1
102
RTVSPropertyOp8
 70
     1
102
RTVSPropertyOp9
 70
     1
102
RTVSPropertyOp10
 70
     1
102
RTVSPropertyOp11
 70
     1
102
RTVSPropertyOp12
 70
     1
102
RTVSPropertyOp13
 70
     1
102
RTVSPropertyOp14
 70
     1
102
RTVSPropertyOp15
 70
     1
102
RTVSPropertyOp16
 70
     1
102
RTVSPropertyOp17
 70
     1
102
RTVSPropertyOp18
 70
     1
102
RTVSPropertyOp19
 70
     1
102
RTVSPropertyOp20
 70
     1
102
RTVSPropertyOp21
 70
     1
102
RTVSPropertyOp22
 70
     1
102
RTVSPropertyOp23
 70
     1
102
RTVSPropertyOp24
 70
     1
102
RTVSPropertyOp25
 70
     1
102
RTVSPropertyOp26
 70
     1
102
RTVSPropertyOp27
 70
     1
  0
XRECORD
  5
76A
102
{ACAD_REACTORS
330
769
102
}
330
769
100
AcDbXrecord
280
     1
102
RTVSPropertyOp0
 70
     1
102
RTVSPropertyOp1
 70
     1
102
RTVSPropertyOp2
 70
     1
102
RTVSPropertyOp3
 70
     1
102
RTVSPropertyOp4
 70
     1
102
RTVSPropertyOp5
 70
     1
102
RTVSPropertyOp6
 70
     1
102
RTVSPropertyOp7
 70
     1
102
RTVSPropertyOp8
 70
     1
102
RTVSPropertyOp9
 70
     1
102
RTVSPropertyOp10
 70
     1
102
RTVSPropertyOp11
 70
     1
102
RTVSPropertyOp12
 70
     1
102
RTVSPropertyOp13
 70
     1
102
RTVSPropertyOp14
 70
     1
102
RTVSPropertyOp15
 70
     1
102
RTVSPropertyOp16
 70
     1
102
RTVSPropertyOp17
 70
     1
102
RTVSPropertyOp18
 70
     1
102
RTVSPropertyOp19
 70
     1
102
RTVSPropertyOp20
 70
     1
102
RTVSPropertyOp21
 70
     1
102
RTVSPropertyOp22
 70
     1
102
RTVSPropertyOp23
 70
     1
102
RTVSPropertyOp24
 70
     1
102
RTVSPropertyOp25
 70
     1
102
RTVSPropertyOp26
 70
     1
102
RTVSPropertyOp27
 70
     1
  0
XRECORD
  5
76C
102
{ACAD_REACTORS
330
76B
102
}
330
76B
100
AcDbXrecord
280
     1
102
RTVSPropertyOp0
 70
     1
102
RTVSPropertyOp1
 70
     1
102
RTVSPropertyOp2
 70
     1
102
RTVSPropertyOp3
 70
     1
102
RTVSPropertyOp4
 70
     1
102
RTVSPropertyOp5
 70
     1
102
RTVSPropertyOp6
 70
     1
102
RTVSPropertyOp7
 70
     1
102
RTVSPropertyOp8
 70
     1
102
RTVSPropertyOp9
 70
     1
102
RTVSPropertyOp10
 70
     1
102
RTVSPropertyOp11
 70
     1
102
RTVSPropertyOp12
 70
     1
102
RTVSPropertyOp13
 70
     1
102
RTVSPropertyOp14
 70
     1
102
RTVSPropertyOp15
 70
     1
102
RTVSPropertyOp16
 70
     1
102
RTVSPropertyOp17
 70
     1
102
RTVSPropertyOp18
 70
     1
102
RTVSPropertyOp19
 70
     1
102
RTVSPropertyOp20
 70
     1
102
RTVSPropertyOp21
 70
     1
102
RTVSPropertyOp22
 70
     1
102
RTVSPropertyOp23
 70
     1
102
RTVSPropertyOp24
 70
     1
102
RTVSPropertyOp25
 70
     1
102
RTVSPropertyOp26
 70
     1
102
RTVSPropertyOp27
 70
     1
  0
XRECORD
  5
76E
102
{ACAD_REACTORS
330
76D
102
}
330
76D
100
AcDbXrecord
280
     1
102
RTVSPropertyOp0
 70
     1
102
RTVSPropertyOp1
 70
     1
102
RTVSPropertyOp2
 70
     1
102
RTVSPropertyOp3
 70
     1
102
RTVSPropertyOp4
 70
     1
102
RTVSPropertyOp5
 70
     1
102
RTVSPropertyOp6
 70
     1
102
RTVSPropertyOp7
 70
     1
102
RTVSPropertyOp8
 70
     1
102
RTVSPropertyOp9
 70
     1
102
RTVSPropertyOp10
 70
     1
102
RTVSPropertyOp11
 70
     1
102
RTVSPropertyOp12
 70
     1
102
RTVSPropertyOp13
 70
     1
102
RTVSPropertyOp14
 70
     1
102
RTVSPropertyOp15
 70
     1
102
RTVSPropertyOp16
 70
     1
102
RTVSPropertyOp17
 70
     1
102
RTVSPropertyOp18
 70
     1
102
RTVSPropertyOp19
 70
     1
102
RTVSPropertyOp20
 70
     1
102
RTVSPropertyOp21
 70
     1
102
RTVSPropertyOp22
 70
     1
102
RTVSPropertyOp23
 70
     1
102
RTVSPropertyOp24
 70
     1
102
RTVSPropertyOp25
 70
     1
102
RTVSPropertyOp26
 70
     1
102
RTVSPropertyOp27
 70
     1
  0
XRECORD
  5
782
102
{ACAD_REACTORS
330
781
102
}
330
781
100
AcDbXrecord
280
     1
102
RTVSPropertyOp0
 70
     1
102
RTVSPropertyOp1
 70
     1
102
RTVSPropertyOp2
 70
     1
102
RTVSPropertyOp3
 70
     1
102
RTVSPropertyOp4
 70
     1
102
RTVSPropertyOp5
 70
     1
102
RTVSPropertyOp6
 70
     1
102
RTVSPropertyOp7
 70
     1
102
RTVSPropertyOp8
 70
     1
102
RTVSPropertyOp9
 70
     1
102
RTVSPropertyOp10
 70
     1
102
RTVSPropertyOp11
 70
     1
102
RTVSPropertyOp12
 70
     1
102
RTVSPropertyOp13
 70
     1
102
RTVSPropertyOp14
 70
     1
102
RTVSPropertyOp15
 70
     1
102
RTVSPropertyOp16
 70
     1
102
RTVSPropertyOp17
 70
     1
102
RTVSPropertyOp18
 70
     1
102
RTVSPropertyOp19
 70
     1
102
RTVSPropertyOp20
 70
     1
102
RTVSPropertyOp21
 70
     1
102
RTVSPropertyOp22
 70
     1
102
RTVSPropertyOp23
 70
     1
102
RTVSPropertyOp24
 70
     1
102
RTVSPropertyOp25
 70
     1
102
RTVSPropertyOp26
 70
     1
102
RTVSPropertyOp27
 70
     1
  0
XRECORD
  5
778
102
{ACAD_REACTORS
330
777
102
}
330
777
100
AcDbXrecord
280
     1
102
RTVSPropertyOp0
 70
     1
102
RTVSPropertyOp1
 70
     1
102
RTVSPropertyOp2
 70
     1
102
RTVSPropertyOp3
 70
     1
102
RTVSPropertyOp4
 70
     1
102
RTVSPropertyOp5
 70
     1
102
RTVSPropertyOp6
 70
     1
102
RTVSPropertyOp7
 70
     1
102
RTVSPropertyOp8
 70
     1
102
RTVSPropertyOp9
 70
     1
102
RTVSPropertyOp10
 70
     1
102
RTVSPropertyOp11
 70
     1
102
RTVSPropertyOp12
 70
     1
102
RTVSPropertyOp13
 70
     1
102
RTVSPropertyOp14
 70
     1
102
RTVSPropertyOp15
 70
     1
102
RTVSPropertyOp16
 70
     1
102
RTVSPropertyOp17
 70
     1
102
RTVSPropertyOp18
 70
     1
102
RTVSPropertyOp19
 70
     1
102
RTVSPropertyOp20
 70
     1
102
RTVSPropertyOp21
 70
     1
102
RTVSPropertyOp22
 70
     1
102
RTVSPropertyOp23
 70
     1
102
RTVSPropertyOp24
 70
     1
102
RTVSPropertyOp25
 70
     1
102
RTVSPropertyOp26
 70
     1
102
RTVSPropertyOp27
 70
     1
  0
XRECORD
  5
780
102
{ACAD_REACTORS
330
77F
102
}
330
77F
100
AcDbXrecord
280
     1
102
RTVSPropertyOp0
 70
     1
102
RTVSPropertyOp1
 70
     1
102
RTVSPropertyOp2
 70
     1
102
RTVSPropertyOp3
 70
     1
102
RTVSPropertyOp4
 70
     1
102
RTVSPropertyOp5
 70
     1
102
RTVSPropertyOp6
 70
     1
102
RTVSPropertyOp7
 70
     1
102
RTVSPropertyOp8
 70
     1
102
RTVSPropertyOp9
 70
     1
102
RTVSPropertyOp10
 70
     1
102
RTVSPropertyOp11
 70
     1
102
RTVSPropertyOp12
 70
     1
102
RTVSPropertyOp13
 70
     1
102
RTVSPropertyOp14
 70
     1
102
RTVSPropertyOp15
 70
     1
102
RTVSPropertyOp16
 70
     1
102
RTVSPropertyOp17
 70
     1
102
RTVSPropertyOp18
 70
     1
102
RTVSPropertyOp19
 70
     1
102
RTVSPropertyOp20
 70
     1
102
RTVSPropertyOp21
 70
     1
102
RTVSPropertyOp22
 70
     1
102
RTVSPropertyOp23
 70
     1
102
RTVSPropertyOp24
 70
     1
102
RTVSPropertyOp25
 70
     1
102
RTVSPropertyOp26
 70
     1
102
RTVSPropertyOp27
 70
     1
  0
ENDSEC
  0
EOF
