  0
SECTION
  2
HEADER
  9
$ACADVER
  1
AC1015
  9
$ACADMAINTVER
 70
     6
  9
$DWGCODEPAGE
  3
ANSI_1252
  9
$INSBASE
 10
0.0
 20
0.0
 30
0.0
  9
$EXTMIN
 10
0.0
 20
0.0
 30
0.0
  9
$EXTMAX
 10
25.0
 20
35.0
 30
0.0
  9
$LIMMIN
 10
0.0
 20
0.0
  9
$LIMMAX
 10
420.0
 20
297.0
  9
$ORTHOMODE
 70
     0
  9
$REGENMODE
 70
     1
  9
$FILLMODE
 70
     1
  9
$QTEXTMODE
 70
     0
  9
$MIRRTEXT
 70
     1
  9
$LTSCALE
 40
4.65
  9
$ATTMODE
 70
     1
  9
$TEXTSIZE
 40
2.5
  9
$TRACEWID
 40
1.0
  9
$TEXTSTYLE
  7
Standard
  9
$CLAYER
  8
0
  9
$CELTYPE
  6
ByLayer
  9
$CECOLOR
 62
   256
  9
$CELTSCALE
 40
1.0
  9
$DISPSILH
 70
     0
  9
$DIMSCALE
 40
1.0
  9
$DIMASZ
 40
2.5
  9
$DIMEXO
 40
0.625
  9
$DIMDLI
 40
3.75
  9
$DIMRND
 40
0.0
  9
$DIMDLE
 40
0.0
  9
$DIMEXE
 40
1.25
  9
$DIMTP
 40
0.0
  9
$DIMTM
 40
0.0
  9
$DIMTXT
 40
2.5
  9
$DIMCEN
 40
2.5
  9
$DIMTSZ
 40
0.0
  9
$DIMTOL
 70
     0
  9
$DIMLIM
 70
     0
  9
$DIMTIH
 70
     0
  9
$DIMTOH
 70
     0
  9
$DIMSE1
 70
     0
  9
$DIMSE2
 70
     0
  9
$DIMTAD
 70
     1
  9
$DIMZIN
 70
     8
  9
$DIMBLK
  1

  9
$DIMASO
 70
     1
  9
$DIMSHO
 70
     1
  9
$DIMPOST
  1

  9
$DIMAPOST
  1

  9
$DIMALT
 70
     0
  9
$DIMALTD
 70
     3
  9
$DIMALTF
 40
0.03937007874016
  9
$DIMLFAC
 40
1.0
  9
$DIMTOFL
 70
     1
  9
$DIMTVP
 40
0.0
  9
$DIMTIX
 70
     0
  9
$DIMSOXD
 70
     0
  9
$DIMSAH
 70
     0
  9
$DIMBLK1
  1

  9
$DIMBLK2
  1

  9
$DIMSTYLE
  2
ISO-25
  9
$DIMCLRD
 70
     0
  9
$DIMCLRE
 70
     0
  9
$DIMCLRT
 70
     0
  9
$DIMTFAC
 40
1.0
  9
$DIMGAP
 40
0.625
  9
$DIMJUST
 70
     0
  9
$DIMSD1
 70
     0
  9
$DIMSD2
 70
     0
  9
$DIMTOLJ
 70
     0
  9
$DIMTZIN
 70
     8
  9
$DIMALTZ
 70
     0
  9
$DIMALTTZ
 70
     0
  9
$DIMUPT
 70
     0
  9
$DIMDEC
 70
     2
  9
$DIMTDEC
 70
     2
  9
$DIMALTU
 70
     2
  9
$DIMALTTD
 70
     3
  9
$DIMTXSTY
  7
Standard
  9
$DIMAUNIT
 70
     0
  9
$DIMADEC
 70
     0
  9
$DIMALTRND
 40
0.0
  9
$DIMAZIN
 70
     0
  9
$DIMDSEP
 70
    44
  9
$DIMATFIT
 70
     3
  9
$DIMFRAC
 70
     0
  9
$DIMLDRBLK
  1

  9
$DIMLUNIT
 70
     2
  9
$DIMLWD
 70
    -2
  9
$DIMLWE
 70
    -2
  9
$DIMTMOVE
 70
     0
  9
$LUNITS
 70
     2
  9
$LUPREC
 70
     4
  9
$SKETCHINC
 40
1.0
  9
$FILLETRAD
 40
10.0
  9
$AUNITS
 70
     0
  9
$AUPREC
 70
     0
  9
$MENU
  1
.
  9
$ELEVATION
 40
0.0
  9
$PELEVATION
 40
0.0
  9
$THICKNESS
 40
0.0
  9
$LIMCHECK
 70
     0
  9
$CHAMFERA
 40
10.0
  9
$CHAMFERB
 40
10.0
  9
$CHAMFERC
 40
20.0
  9
$CHAMFERD
 40
0.0
  9
$SKPOLY
 70
     0
  9
$TDCREATE
 40
2458994.865972222
  9
$TDUCREATE
 40
2458994.782638889
  9
$TDUPDATE
 40
2458994.869444444
  9
$TDUUPDATE
 40
2458994.786111111
  9
$TDINDWG
 40
0.0000000116
  9
$TDUSRTIMER
 40
0.0000000116
  9
$USRTIMER
 70
     1
  9
$ANGBASE
 50
0.0
  9
$ANGDIR
 70
     0
  9
$PDMODE
 70
     0
  9
$PDSIZE
 40
0.0
  9
$PLINEWID
 40
0.0
  9
$SPLFRAME
 70
     0
  9
$SPLINETYPE
 70
     6
  9
$SPLINESEGS
 70
     8
  9
$HANDSEED
  5
D9B
  9
$SURFTAB1
 70
     6
  9
$SURFTAB2
 70
     6
  9
$SURFTYPE
 70
     6
  9
$SURFU
 70
     6
  9
$SURFV
 70
     6
  9
$UCSBASE
  2

  9
$UCSNAME
  2

  9
$UCSORG
 10
0.0
 20
0.0
 30
0.0
  9
$UCSXDIR
 10
1.0
 20
0.0
 30
0.0
  9
$UCSYDIR
 10
0.0
 20
1.0
 30
0.0
  9
$UCSORTHOREF
  2

  9
$UCSORTHOVIEW
 70
     0
  9
$UCSORGTOP
 10
0.0
 20
0.0
 30
0.0
  9
$UCSORGBOTTOM
 10
0.0
 20
0.0
 30
0.0
  9
$UCSORGLEFT
 10
0.0
 20
0.0
 30
0.0
  9
$UCSORGRIGHT
 10
0.0
 20
0.0
 30
0.0
  9
$UCSORGFRONT
 10
0.0
 20
0.0
 30
0.0
  9
$UCSORGBACK
 10
0.0
 20
0.0
 30
0.0
  9
$PUCSBASE
  2

  9
$PUCSNAME
  2

  9
$PUCSORG
 10
0.0
 20
0.0
 30
0.0
  9
$PUCSXDIR
 10
1.0
 20
0.0
 30
0.0
  9
$PUCSYDIR
 10
0.0
 20
1.0
 30
0.0
  9
$PUCSORTHOREF
  2

  9
$PUCSORTHOVIEW
 70
     0
  9
$PUCSORGTOP
 10
0.0
 20
0.0
 30
0.0
  9
$PUCSORGBOTTOM
 10
0.0
 20
0.0
 30
0.0
  9
$PUCSORGLEFT
 10
0.0
 20
0.0
 30
0.0
  9
$PUCSORGRIGHT
 10
0.0
 20
0.0
 30
0.0
  9
$PUCSORGFRONT
 10
0.0
 20
0.0
 30
0.0
  9
$PUCSORGBACK
 10
0.0
 20
0.0
 30
0.0
  9
$USERI1
 70
     0
  9
$USERI2
 70
     0
  9
$USERI3
 70
     0
  9
$USERI4
 70
     0
  9
$USERI5
 70
     0
  9
$USERR1
 40
0.0
  9
$USERR2
 40
0.0
  9
$USERR3
 40
0.0
  9
$USERR4
 40
0.0
  9
$USERR5
 40
0.0
  9
$WORLDVIEW
 70
     1
  9
$SHADEDGE
 70
     3
  9
$SHADEDIF
 70
    70
  9
$TILEMODE
 70
     1
  9
$MAXACTVP
 70
    64
  9
$PINSBASE
 10
0.0
 20
0.0
 30
0.0
  9
$PLIMCHECK
 70
     0
  9
$PEXTMIN
 10
1.000000000000000E+20
 20
1.000000000000000E+20
 30
1.000000000000000E+20
  9
$PEXTMAX
 10
-1.000000000000000E+20
 20
-1.000000000000000E+20
 30
-1.000000000000000E+20
  9
$PLIMMIN
 10
0.0
 20
0.0
  9
$PLIMMAX
 10
420.0
 20
297.0
  9
$UNITMODE
 70
     0
  9
$VISRETAIN
 70
     1
  9
$PLINEGEN
 70
     0
  9
$PSLTSCALE
 70
     1
  9
$TREEDEPTH
 70
  3020
  9
$CMLSTYLE
  2
Standard
  9
$CMLJUST
 70
     0
  9
$CMLSCALE
 40
20.0
  9
$PROXYGRAPHICS
 70
     1
  9
$MEASUREMENT
 70
     1
  9
$CELWEIGHT
370
    -1
  9
$ENDCAPS
280
     0
  9
$JOINSTYLE
280
     0
  9
$LWDISPLAY
290
     0
  9
$INSUNITS
 70
     4
  9
$HYPERLINKBASE
  1

  9
$STYLESHEET
  1

  9
$XEDIT
290
     1
  9
$CEPSNTYPE
380
     0
  9
$PSTYLEMODE
290
     1
  9
$FINGERPRINTGUID
  2
{BE82B648-31CF-4BEF-BC8A-26C772774F76}
  9
$VERSIONGUID
  2
{FAEB1C32-E019-11D5-929B-00C0DF256EC4}
  9
$EXTNAMES
290
     1
  9
$PSVPSCALE
 40
0.0
  9
$OLESTARTUP
290
     0
  0
ENDSEC
  0
SECTION
  2
CLASSES
  0
CLASS
  1
ACDBDICTIONARYWDFLT
  2
AcDbDictionaryWithDefault
  3
ObjectDBX Classes
 90
        0
280
     0
281
     0
  0
CLASS
  1
VISUALSTYLE
  2
AcDbVisualStyle
  3
ObjectDBX Classes
 90
     4095
280
     0
281
     0
  0
CLASS
  1
MATERIAL
  2
AcDbMaterial
  3
ObjectDBX Classes
 90
     1153
280
     0
281
     0
  0
CLASS
  1
SCALE
  2
AcDbScale
  3
ObjectDBX Classes
 90
     1153
280
     0
281
     0
  0
CLASS
  1
DICTIONARYVAR
  2
AcDbDictionaryVar
  3
ObjectDBX Classes
 90
        0
280
     0
281
     0
  0
CLASS
  1
ACDBPLACEHOLDER
  2
AcDbPlaceHolder
  3
ObjectDBX Classes
 90
        0
280
     0
281
     0
  0
CLASS
  1
LAYOUT
  2
AcDbLayout
  3
ObjectDBX Classes
 90
        0
280
     0
281
     0
  0
ENDSEC
  0
SECTION
  2
TABLES
  0
TABLE
  2
VPORT
  5
8
330
0
100
AcDbSymbolTable
 70
     1
  0
VPORT
  5
29
330
8
100
AcDbSymbolTableRecord
100
AcDbViewportTableRecord
  2
*Active
 70
     0
 10
0.0
 20
0.0
 11
1.0
 21
1.0
 12
11.26
 22
4.5
 13
0.0
 23
0.0
 14
10.0
 24
10.0
 15
10.0
 25
10.0
 16
0.0
 26
0.0
 36
1.0
 17
0.0
 27
0.0
 37
0.0
 40
9.0
 41
2.503333333333333
 42
50.0
 43
0.0
 44
0.0
 50
0.0
 51
0.0
 71
     0
 72
   100
 73
     1
 74
     3
 75
     0
 76
     0
 77
     0
 78
     0
281
     0
 65
     1
110
0.0
120
0.0
130
0.0
111
1.0
121
0.0
131
0.0
112
0.0
122
1.0
132
0.0
 79
     0
146
0.0
  0
ENDTAB
  0
TABLE
  2
LTYPE
  5
5
330
0
100
AcDbSymbolTable
 70
     9
  0
LTYPE
  5
14
330
5
100
AcDbSymbolTableRecord
100
AcDbLinetypeTableRecord
  2
ByBlock
 70
     0
  3

 72
    65
 73
     0
 40
0.0
  0
LTYPE
  5
15
330
5
100
AcDbSymbolTableRecord
100
AcDbLinetypeTableRecord
  2
ByLayer
 70
     0
  3

 72
    65
 73
     0
 40
0.0
  0
LTYPE
  5
16
330
5
100
AcDbSymbolTableRecord
100
AcDbLinetypeTableRecord
  2
Continuous
 70
     0
  3
Solid line
 72
    65
 73
     0
 40
0.0
  0
LTYPE
  5
45
330
5
100
AcDbSymbolTableRecord
100
AcDbLinetypeTableRecord
  2
phl_thick
 70
     0
  3
THICK
 72
    65
 73
     0
 40
0.0
  0
LTYPE
  5
43C
330
5
100
AcDbSymbolTableRecord
100
AcDbLinetypeTableRecord
  2
CUT
 70
     0
  3
THICK
 72
    65
 73
     0
 40
0.0
  0
LTYPE
  5
443
330
5
100
AcDbSymbolTableRecord
100
AcDbLinetypeTableRecord
  2
NOCUT
 70
     0
  3
THICK
 72
    65
 73
     0
 40
0.0
  0
LTYPE
  5
44B
330
5
100
AcDbSymbolTableRecord
100
AcDbLinetypeTableRecord
  2
SK1
 70
     0
  3
THICK
 72
    65
 73
     0
 40
0.0
  0
LTYPE
  5
459
330
5
100
AcDbSymbolTableRecord
100
AcDbLinetypeTableRecord
  2
ls_SK2
 70
     0
  3
THIN
 72
    65
 73
     0
 40
0.0
  0
LTYPE
  5
504
330
5
100
AcDbSymbolTableRecord
100
AcDbLinetypeTableRecord
  2
ls_2
 70
     0
  3
THIN
 72
    65
 73
     0
 40
0.0
  0
LTYPE
  5
6B4
330
5
100
AcDbSymbolTableRecord
100
AcDbLinetypeTableRecord
  2
ls_SK1
 70
     0
  3
THICK
 72
    65
 73
     0
 40
0.0
  0
LTYPE
  5
6EE
330
5
100
AcDbSymbolTableRecord
100
AcDbLinetypeTableRecord
  2
LONGDASH_DASH
 70
     0
  3
THIN_DASHDOT
 72
    65
 73
     4
 40
0.85
 49
0.4
 74
     0
 49
-0.2
 74
     0
 49
0.05
 74
     0
 49
-0.2
 74
     0
  0
ENDTAB
  0
TABLE
  2
LAYER
  5
2
330
0
100
AcDbSymbolTable
 70
     9
  0
LAYER
  5
10
330
2
100
AcDbSymbolTableRecord
100
AcDbLayerTableRecord
  2
0
 70
     0
 62
     7
  6
Continuous
370
    -3
390
F
  0
LAYER
  5
44
330
2
100
AcDbSymbolTableRecord
100
AcDbLayerTableRecord
  2
1
 70
     0
 62
4
  6
CONTINUOUS
370
50
370
    -3
390
F
  0
LAYER
  5
43B
330
2
100
AcDbSymbolTableRecord
100
AcDbLayerTableRecord
  2
CUT
 70
     0
 62
1
  6
CONTINUOUS
370
25
370
    -3
390
F
  0
LAYER
  5
442
330
2
100
AcDbSymbolTableRecord
100
AcDbLayerTableRecord
  2
NOCUT
 70
     0
 62
7
  6
CONTINUOUS
370
25
370
    -3
390
F
  0
LAYER
  5
44A
330
2
100
AcDbSymbolTableRecord
100
AcDbLayerTableRecord
  2
SK1
 70
     0
 62
4
  6
CONTINUOUS
370
50
370
    -3
390
F
  0
LAYER
  5
458
330
2
100
AcDbSymbolTableRecord
100
AcDbLayerTableRecord
  2
SK2
 70
     0
 62
7
  6
CONTINUOUS
370
25
370
    -3
390
F
  0
LAYER
  5
503
330
2
100
AcDbSymbolTableRecord
100
AcDbLayerTableRecord
  2
2
 70
     0
 62
7
  6
CONTINUOUS
370
25
370
    -3
390
F
  0
LAYER
  5
6ED
330
2
100
AcDbSymbolTableRecord
100
AcDbLayerTableRecord
  2
4
 70
     0
 62
2
  6
LONGDASH_DASH
370
25
370
    -3
390
F
  0
LAYER
  5
6F0
330
2
100
AcDbSymbolTableRecord
100
AcDbLayerTableRecord
  2
SK4
 70
     0
 62
2
  6
LONGDASH_DASH
370
25
370
    -3
390
F
  0
ENDTAB
  0
TABLE
  2
STYLE
  5
3
330
0
100
AcDbSymbolTable
 70
     1
  0
STYLE
  5
11
330
3
100
AcDbSymbolTableRecord
100
AcDbTextStyleTableRecord
  2
Standard
 70
     0
 40
0.0
 41
1.0
 50
0.0
 71
     0
 42
2.5
  3
Monospac821 BT
  4

  0
ENDTAB
  0
TABLE
  2
VIEW
  5
6
330
0
100
AcDbSymbolTable
 70
     0
  0
ENDTAB
  0
TABLE
  2
UCS
  5
7
330
0
100
AcDbSymbolTable
 70
     0
  0
ENDTAB
  0
TABLE
  2
APPID
  5
9
330
0
100
AcDbSymbolTable
 70
     2
  0
APPID
  5
12
330
9
100
AcDbSymbolTableRecord
100
AcDbRegAppTableRecord
  2
ACAD
 70
     0
  0
APPID
  5
3F
330
9
100
AcDbSymbolTableRecord
100
AcDbRegAppTableRecord
  2
ccLab
 70
     0
  0
ENDTAB
  0
TABLE
  2
DIMSTYLE
  5
A
330
0
100
AcDbSymbolTable
 70
     1
100
AcDbDimStyleTable
  0
DIMSTYLE
105
27
330
A
100
AcDbSymbolTableRecord
100
AcDbDimStyleTableRecord
  2
ISO-25
 70
     0
 41
2.5
 42
0.625
 43
3.75
 44
1.25
 73
     0
 74
     0
 77
     1
 78
     8
140
2.5
141
2.5
143
0.03937007874016
147
0.625
171
     3
172
     1
271
     2
272
     2
274
     3
278
    44
283
     0
284
     8
340
11
  0
ENDTAB
  0
TABLE
  2
BLOCK_RECORD
  5
1
330
0
100
AcDbSymbolTable
 70
     2
  0
BLOCK_RECORD
  5
1F
330
1
100
AcDbSymbolTableRecord
100
AcDbBlockTableRecord
  2
*Model_Space
340
22
  0
BLOCK_RECORD
  5
1B
330
1
100
AcDbSymbolTableRecord
100
AcDbBlockTableRecord
  2
*Paper_Space
340
1E
  0
BLOCK_RECORD
  5
23
330
1
100
AcDbSymbolTableRecord
100
AcDbBlockTableRecord
  2
*Paper_Space0
340
26
  0
ENDTAB
  0
ENDSEC
  0
SECTION
  2
BLOCKS
  0
BLOCK
  5
20
330
1F
100
AcDbEntity
  8
0
100
AcDbBlockBegin
  2
*Model_Space
 70
     0
 10
0.0
 20
0.0
 30
0.0
  3
*Model_Space
  1

  0
ENDBLK
  5
21
330
1F
100
AcDbEntity
  8
0
100
AcDbBlockEnd
  0
BLOCK
  5
1C
330
1B
100
AcDbEntity
 67
     1
  8
0
100
AcDbBlockBegin
  2
*Paper_Space
 70
     0
 10
0.0
 20
0.0
 30
0.0
  3
*Paper_Space
  1

  0
ENDBLK
  5
1D
330
1B
100
AcDbEntity
 67
     1
  8
0
100
AcDbBlockEnd
  0
BLOCK
  5
24
330
23
100
AcDbEntity
  8
0
100
AcDbBlockBegin
  2
*Paper_Space0
 70
     0
 10
0.0
 20
0.0
 30
0.0
  3
*Paper_Space0
  1

  0
ENDBLK
  5
25
330
23
100
AcDbEntity
  8
0
100
AcDbBlockEnd
  0
ENDSEC
  0
SECTION
  2
ENTITIES
  0
LINE
  5
6F1
330
1F
100
AcDbEntity
  8
1
  6
CONTINUOUS
370
50
 62
4
100
AcDbLine
 10
23.094986
 20
1.491058
 30
0.0
 11
23.094982
 21
1.630831
 31
0.0
  0
LINE
  5
6F2
330
1F
100
AcDbEntity
  8
1
  6
CONTINUOUS
370
50
 62
4
100
AcDbLine
 10
23.094984
 20
1.490444
 30
0.0
 11
23.09498
 21
1.629684
 31
0.0
  0
LINE
  5
6F3
330
1F
100
AcDbEntity
  8
1
  6
CONTINUOUS
370
50
 62
4
100
AcDbLine
 10
23.094791
 20
0.802406
 30
0.0
 11
23.094784
 21
0.95948
 31
0.0
  0
LINE
  5
6F4
330
1F
100
AcDbEntity
  8
1
  6
CONTINUOUS
370
50
 62
4
100
AcDbLine
 10
23.094791
 20
0.802477
 30
0.0
 11
23.094784
 21
0.9595229999999999
 31
0.0
  0
LINE
  5
6F5
330
1F
100
AcDbEntity
  8
1
  6
CONTINUOUS
370
50
 62
4
100
AcDbLine
 10
23.094784
 20
0.95948
 30
0.0
 11
23.094772
 21
1.115084
 31
0.0
  0
LINE
  5
6F6
330
1F
100
AcDbEntity
  8
1
  6
CONTINUOUS
370
50
 62
4
100
AcDbLine
 10
23.094784
 20
0.9595229999999999
 30
0.0
 11
23.094772
 21
1.115084
 31
0.0
  0
LINE
  5
6F7
330
1F
100
AcDbEntity
  8
1
  6
CONTINUOUS
370
50
 62
4
100
AcDbLine
 10
23.09498
 20
1.629684
 30
0.0
 11
23.094938
 21
1.775165
 31
0.0
  0
LINE
  5
6F8
330
1F
100
AcDbEntity
  8
1
  6
CONTINUOUS
370
50
 62
4
100
AcDbLine
 10
23.094982
 20
1.630831
 30
0.0
 11
23.094938
 21
1.776622
 31
0.0
  0
LINE
  5
6F9
330
1F
100
AcDbEntity
  8
1
  6
CONTINUOUS
370
50
 62
4
100
AcDbLine
 10
23.094938
 20
1.775165
 30
0.0
 11
23.094858
 21
1.926299
 31
0.0
  0
LINE
  5
6FA
330
1F
100
AcDbEntity
  8
1
  6
CONTINUOUS
370
50
 62
4
100
AcDbLine
 10
23.094938
 20
1.776622
 30
0.0
 11
23.094856
 21
1.92759
 31
0.0
  0
LINE
  5
6FB
330
1F
100
AcDbEntity
  8
1
  6
CONTINUOUS
370
50
 62
4
100
AcDbLine
 10
23.094856
 20
1.92759
 30
0.0
 11
23.09474
 21
2.083172
 31
0.0
  0
LINE
  5
6FC
330
1F
100
AcDbEntity
  8
1
  6
CONTINUOUS
370
50
 62
4
100
AcDbLine
 10
23.094858
 20
1.926299
 30
0.0
 11
23.094742
 21
2.081768
 31
0.0
  0
LINE
  5
6FD
330
1F
100
AcDbEntity
  8
1
  6
CONTINUOUS
370
50
 62
4
100
AcDbLine
 10
23.09474
 20
2.083172
 30
0.0
 11
23.094591
 21
2.242795
 31
0.0
  0
LINE
  5
6FE
330
1F
100
AcDbEntity
  8
1
  6
CONTINUOUS
370
50
 62
4
100
AcDbLine
 10
23.094742
 20
2.081768
 30
0.0
 11
23.094593
 21
2.240808
 31
0.0
  0
LINE
  5
6FF
330
1F
100
AcDbEntity
  8
1
  6
CONTINUOUS
370
50
 62
4
100
AcDbLine
 10
23.094593
 20
2.240808
 30
0.0
 11
23.094416
 21
2.402825
 31
0.0
  0
LINE
  5
700
330
1F
100
AcDbEntity
  8
1
  6
CONTINUOUS
370
50
 62
4
100
AcDbLine
 10
23.094591
 20
2.242795
 30
0.0
 11
23.094412
 21
2.405287
 31
0.0
  0
LINE
  5
701
330
1F
100
AcDbEntity
  8
1
  6
CONTINUOUS
370
50
 62
4
100
AcDbLine
 10
23.094412
 20
2.405287
 30
0.0
 11
23.09421
 21
2.569712
 31
0.0
  0
LINE
  5
702
330
1F
100
AcDbEntity
  8
1
  6
CONTINUOUS
370
50
 62
4
100
AcDbLine
 10
23.094416
 20
2.402825
 30
0.0
 11
23.094212
 21
2.567226
 31
0.0
  0
LINE
  5
703
330
1F
100
AcDbEntity
  8
1
  6
CONTINUOUS
370
50
 62
4
100
AcDbLine
 10
23.094212
 20
2.567226
 30
0.0
 11
23.093985
 21
2.733417
 31
0.0
  0
LINE
  5
704
330
1F
100
AcDbEntity
  8
1
  6
CONTINUOUS
370
50
 62
4
100
AcDbLine
 10
23.09421
 20
2.569712
 30
0.0
 11
23.093983
 21
2.735461
 31
0.0
  0
LINE
  5
705
330
1F
100
AcDbEntity
  8
1
  6
CONTINUOUS
370
50
 62
4
100
AcDbLine
 10
23.093983
 20
2.735461
 30
0.0
 11
23.093739
 21
2.901926
 31
0.0
  0
LINE
  5
706
330
1F
100
AcDbEntity
  8
1
  6
CONTINUOUS
370
50
 62
4
100
AcDbLine
 10
23.093985
 20
2.733417
 30
0.0
 11
23.09374
 21
2.900449
 31
0.0
  0
LINE
  5
707
330
1F
100
AcDbEntity
  8
1
  6
CONTINUOUS
370
50
 62
4
100
AcDbLine
 10
23.09374
 20
2.900449
 30
0.0
 11
23.093479
 21
3.067106
 31
0.0
  0
LINE
  5
708
330
1F
100
AcDbEntity
  8
1
  6
CONTINUOUS
370
50
 62
4
100
AcDbLine
 10
23.093739
 20
2.901926
 30
0.0
 11
23.093477
 21
3.068497
 31
0.0
  0
LINE
  5
709
330
1F
100
AcDbEntity
  8
1
  6
CONTINUOUS
370
50
 62
4
100
AcDbLine
 10
23.093477
 20
3.068497
 30
0.0
 11
23.093204
 21
3.234373
 31
0.0
  0
LINE
  5
70A
330
1F
100
AcDbEntity
  8
1
  6
CONTINUOUS
370
50
 62
4
100
AcDbLine
 10
23.093479
 20
3.067106
 30
0.0
 11
23.093206
 21
3.232768
 31
0.0
  0
LINE
  5
70B
330
1F
100
AcDbEntity
  8
1
  6
CONTINUOUS
370
50
 62
4
100
AcDbLine
 10
23.093206
 20
3.232768
 30
0.0
 11
23.092924
 21
3.396822
 31
0.0
  0
LINE
  5
70C
330
1F
100
AcDbEntity
  8
1
  6
CONTINUOUS
370
50
 62
4
100
AcDbLine
 10
23.093204
 20
3.234373
 30
0.0
 11
23.092922
 21
3.398116
 31
0.0
  0
LINE
  5
70D
330
1F
100
AcDbEntity
  8
1
  6
CONTINUOUS
370
50
 62
4
100
AcDbLine
 10
18.200356
 20
1.829663
 30
0.0
 11
18.200157
 21
1.940732
 31
0.0
  0
LINE
  5
70E
330
1F
100
AcDbEntity
  8
1
  6
CONTINUOUS
370
50
 62
4
100
AcDbLine
 10
23.092922
 20
3.398116
 30
0.0
 11
23.092632
 21
3.559044
 31
0.0
  0
LINE
  5
70F
330
1F
100
AcDbEntity
  8
1
  6
CONTINUOUS
370
50
 62
4
100
AcDbLine
 10
23.092924
 20
3.396822
 30
0.0
 11
23.092632
 21
3.55833
 31
0.0
  0
LINE
  5
710
330
1F
100
AcDbEntity
  8
1
  6
CONTINUOUS
370
50
 62
4
100
AcDbLine
 10
23.092632
 20
3.55833
 30
0.0
 11
23.092337
 21
3.716267
 31
0.0
  0
LINE
  5
711
330
1F
100
AcDbEntity
  8
1
  6
CONTINUOUS
370
50
 62
4
100
AcDbLine
 10
23.092632
 20
3.559044
 30
0.0
 11
23.092337
 21
3.716577
 31
0.0
  0
LINE
  5
712
330
1F
100
AcDbEntity
  8
1
  6
CONTINUOUS
370
50
 62
4
100
AcDbLine
 10
23.092337
 20
3.716267
 30
0.0
 11
23.092039
 21
3.870059
 31
0.0
  0
LINE
  5
713
330
1F
100
AcDbEntity
  8
1
  6
CONTINUOUS
370
50
 62
4
100
AcDbLine
 10
23.092337
 20
3.716577
 30
0.0
 11
23.092039
 21
3.870134
 31
0.0
  0
LINE
  5
714
330
1F
100
AcDbEntity
  8
1
  6
CONTINUOUS
370
50
 62
4
100
AcDbLine
 10
23.092039
 20
3.870059
 30
0.0
 11
23.091738
 21
4.019134999999999
 31
0.0
  0
LINE
  5
715
330
1F
100
AcDbEntity
  8
1
  6
CONTINUOUS
370
50
 62
4
100
AcDbLine
 10
23.092039
 20
3.870134
 30
0.0
 11
23.091738
 21
4.019134999999999
 31
0.0
  0
LINE
  5
716
330
1F
100
AcDbEntity
  8
1
  6
CONTINUOUS
370
50
 62
4
100
AcDbLine
 10
23.090248
 20
4.743436
 30
0.0
 11
23.09
 21
4.864254
 31
0.0
  0
LINE
  5
717
330
1F
100
AcDbEntity
  8
1
  6
CONTINUOUS
370
50
 62
4
100
AcDbLine
 10
23.090248
 20
4.743399
 30
0.0
 11
23.09
 21
4.86421
 31
0.0
  0
LINE
  5
718
330
1F
100
AcDbEntity
  8
1
  6
CONTINUOUS
370
50
 62
4
100
AcDbLine
 10
23.090496
 20
4.622641
 30
0.0
 11
23.090248
 21
4.743436
 31
0.0
  0
LINE
  5
719
330
1F
100
AcDbEntity
  8
1
  6
CONTINUOUS
370
50
 62
4
100
AcDbLine
 10
23.090496
 20
4.62261
 30
0.0
 11
23.090248
 21
4.743399
 31
0.0
  0
LINE
  5
71A
330
1F
100
AcDbEntity
  8
1
  6
CONTINUOUS
370
50
 62
4
100
AcDbLine
 10
23.090994
 20
4.381132
 30
0.0
 11
23.090746
 21
4.501872
 31
0.0
  0
LINE
  5
71B
330
1F
100
AcDbEntity
  8
1
  6
CONTINUOUS
370
50
 62
4
100
AcDbLine
 10
23.090994
 20
4.381113
 30
0.0
 11
23.090746
 21
4.501846
 31
0.0
  0
LINE
  5
71C
330
1F
100
AcDbEntity
  8
1
  6
CONTINUOUS
370
50
 62
4
100
AcDbLine
 10
23.091242
 20
4.260427
 30
0.0
 11
23.090994
 21
4.381132
 31
0.0
  0
LINE
  5
71D
330
1F
100
AcDbEntity
  8
1
  6
CONTINUOUS
370
50
 62
4
100
AcDbLine
 10
23.091242
 20
4.260414
 30
0.0
 11
23.090994
 21
4.381113
 31
0.0
  0
LINE
  5
71E
330
1F
100
AcDbEntity
  8
1
  6
CONTINUOUS
370
50
 62
4
100
AcDbLine
 10
23.09149
 20
4.13976
 30
0.0
 11
23.091242
 21
4.260427
 31
0.0
  0
LINE
  5
71F
330
1F
100
AcDbEntity
  8
1
  6
CONTINUOUS
370
50
 62
4
100
AcDbLine
 10
23.09149
 20
4.139753
 30
0.0
 11
23.091242
 21
4.260414
 31
0.0
  0
LINE
  5
720
330
1F
100
AcDbEntity
  8
1
  6
CONTINUOUS
370
50
 62
4
100
AcDbLine
 10
23.091738
 20
4.019134999999999
 30
0.0
 11
23.09149
 21
4.13976
 31
0.0
  0
LINE
  5
721
330
1F
100
AcDbEntity
  8
1
  6
CONTINUOUS
370
50
 62
4
100
AcDbLine
 10
23.091738
 20
4.019134999999999
 30
0.0
 11
23.09149
 21
4.139753
 31
0.0
  0
LINE
  5
722
330
1F
100
AcDbEntity
  8
1
  6
CONTINUOUS
370
50
 62
4
100
AcDbLine
 10
23.090746
 20
4.501872
 30
0.0
 11
23.090496
 21
4.622641
 31
0.0
  0
LINE
  5
723
330
1F
100
AcDbEntity
  8
1
  6
CONTINUOUS
370
50
 62
4
100
AcDbLine
 10
23.090746
 20
4.501846
 30
0.0
 11
23.090496
 21
4.62261
 31
0.0
  0
LINE
  5
724
330
1F
100
AcDbEntity
  8
1
  6
CONTINUOUS
370
50
 62
4
100
AcDbLine
 10
19.464512
 20
-1.87399
 30
0.0
 11
19.457537
 21
-1.645163
 31
0.0
  0
LINE
  5
725
330
1F
100
AcDbEntity
  8
1
  6
CONTINUOUS
370
50
 62
4
100
AcDbLine
 10
19.457537
 20
-1.645163
 30
0.0
 11
19.440275
 21
-1.412567
 31
0.0
  0
LINE
  5
726
330
1F
100
AcDbEntity
  8
1
  6
CONTINUOUS
370
50
 62
4
100
AcDbLine
 10
18.209579
 20
1.718352
 30
0.0
 11
18.200356
 21
1.829663
 31
0.0
  0
LINE
  5
727
330
1F
100
AcDbEntity
  8
1
  6
CONTINUOUS
370
50
 62
4
100
AcDbLine
 10
19.440275
 20
-1.412567
 30
0.0
 11
19.413401
 21
-1.177879
 31
0.0
  0
LINE
  5
728
330
1F
100
AcDbEntity
  8
1
  6
CONTINUOUS
370
50
 62
4
100
AcDbLine
 10
47.734535
 20
2.598633
 30
0.0
 11
47.724571
 21
2.668375
 31
0.0
  0
LINE
  5
729
330
1F
100
AcDbEntity
  8
1
  6
CONTINUOUS
370
50
 62
4
100
AcDbLine
 10
19.413401
 20
-1.177879
 30
0.0
 11
19.377506
 21
-0.942085
 31
0.0
  0
LINE
  5
72A
330
1F
100
AcDbEntity
  8
1
  6
CONTINUOUS
370
50
 62
4
100
AcDbLine
 10
15.677246
 20
-5.338623
 30
0.0
 11
15.675502
 21
-5.327228
 31
0.0
  0
LINE
  5
72B
330
1F
100
AcDbEntity
  8
1
  6
CONTINUOUS
370
50
 62
4
100
AcDbLine
 10
18.228302
 20
1.607213
 30
0.0
 11
18.209579
 21
1.718352
 31
0.0
  0
LINE
  5
72C
330
1F
100
AcDbEntity
  8
1
  6
CONTINUOUS
370
50
 62
4
100
AcDbLine
 10
19.377506
 20
-0.942085
 30
0.0
 11
19.333155
 21
-0.7057869999999999
 31
0.0
  0
LINE
  5
72D
330
1F
100
AcDbEntity
  8
1
  6
CONTINUOUS
370
50
 62
4
100
AcDbLine
 10
19.333155
 20
-0.7057869999999999
 30
0.0
 11
19.280899
 21
-0.469585
 31
0.0
  0
LINE
  5
72E
330
1F
100
AcDbEntity
  8
1
  6
CONTINUOUS
370
50
 62
4
100
AcDbLine
 10
19.280899
 20
-0.469585
 30
0.0
 11
19.221292
 21
-0.234104
 31
0.0
  0
LINE
  5
72F
330
1F
100
AcDbEntity
  8
1
  6
CONTINUOUS
370
50
 62
4
100
AcDbLine
 10
18.256962
 20
1.496776
 30
0.0
 11
18.228302
 21
1.607213
 31
0.0
  0
LINE
  5
730
330
1F
100
AcDbEntity
  8
1
  6
CONTINUOUS
370
50
 62
4
100
AcDbLine
 10
47.724571
 20
2.668375
 30
0.0
 11
47.70446399999999
 21
2.74545
 31
0.0
  0
LINE
  5
731
330
1F
100
AcDbEntity
  8
1
  6
CONTINUOUS
370
50
 62
4
100
AcDbLine
 10
19.221292
 20
-0.234104
 30
0.0
 11
19.154636
 21
0.0
 31
0.0
  0
LINE
  5
732
330
1F
100
AcDbEntity
  8
1
  6
CONTINUOUS
370
50
 62
4
100
AcDbLine
 10
19.154636
 20
0.0
 30
0.0
 11
19.123293
 21
0.102421
 31
0.0
  0
LINE
  5
733
330
1F
100
AcDbEntity
  8
1
  6
CONTINUOUS
370
50
 62
4
100
AcDbLine
 10
19.123293
 20
0.102421
 30
0.0
 11
19.090599
 21
0.204396
 31
0.0
  0
LINE
  5
734
330
1F
100
AcDbEntity
  8
1
  6
CONTINUOUS
370
50
 62
4
100
AcDbLine
 10
19.090599
 20
0.204396
 30
0.0
 11
19.056652
 21
0.305901
 31
0.0
  0
LINE
  5
735
330
1F
100
AcDbEntity
  8
1
  6
CONTINUOUS
370
50
 62
4
100
AcDbLine
 10
19.056652
 20
0.305901
 30
0.0
 11
19.021477
 21
0.406888
 31
0.0
  0
LINE
  5
736
330
1F
100
AcDbEntity
  8
1
  6
CONTINUOUS
370
50
 62
4
100
AcDbLine
 10
47.70446399999999
 20
2.74545
 30
0.0
 11
47.674847
 21
2.828717
 31
0.0
  0
LINE
  5
737
330
1F
100
AcDbEntity
  8
1
  6
CONTINUOUS
370
50
 62
4
100
AcDbLine
 10
18.295382
 20
1.389135
 30
0.0
 11
18.256962
 21
1.496776
 31
0.0
  0
LINE
  5
738
330
1F
100
AcDbEntity
  8
1
  6
CONTINUOUS
370
50
 62
4
100
AcDbLine
 10
19.021477
 20
0.406888
 30
0.0
 11
18.985096
 21
0.5073059999999999
 31
0.0
  0
LINE
  5
739
330
1F
100
AcDbEntity
  8
1
  6
CONTINUOUS
370
50
 62
4
100
AcDbLine
 10
18.985096
 20
0.5073059999999999
 30
0.0
 11
18.947533
 21
0.607107
 31
0.0
  0
LINE
  5
73A
330
1F
100
AcDbEntity
  8
1
  6
CONTINUOUS
370
50
 62
4
100
AcDbLine
 10
18.947533
 20
0.607107
 30
0.0
 11
18.90881
 21
0.706244
 31
0.0
  0
LINE
  5
73B
330
1F
100
AcDbEntity
  8
1
  6
CONTINUOUS
370
50
 62
4
100
AcDbLine
 10
15.6819
 20
-5.349838
 30
0.0
 11
15.677246
 21
-5.338623
 31
0.0
  0
LINE
  5
73C
330
1F
100
AcDbEntity
  8
1
  6
CONTINUOUS
370
50
 62
4
100
AcDbLine
 10
47.674847
 20
2.828717
 30
0.0
 11
47.635578
 21
2.918657
 31
0.0
  0
LINE
  5
73D
330
1F
100
AcDbEntity
  8
1
  6
CONTINUOUS
370
50
 62
4
100
AcDbLine
 10
18.34334
 20
1.285193
 30
0.0
 11
18.295382
 21
1.389135
 31
0.0
  0
LINE
  5
73E
330
1F
100
AcDbEntity
  8
1
  6
CONTINUOUS
370
50
 62
4
100
AcDbLine
 10
47.635578
 20
2.918657
 30
0.0
 11
47.58651
 21
3.014751
 31
0.0
  0
LINE
  5
73F
330
1F
100
AcDbEntity
  8
1
  6
CONTINUOUS
370
50
 62
4
100
AcDbLine
 10
18.40074
 20
1.185289
 30
0.0
 11
18.34334
 21
1.285193
 31
0.0
  0
LINE
  5
740
330
1F
100
AcDbEntity
  8
1
  6
CONTINUOUS
370
50
 62
4
100
AcDbLine
 10
47.58651
 20
3.014751
 30
0.0
 11
47.527534
 21
3.116286
 31
0.0
  0
LINE
  5
741
330
1F
100
AcDbEntity
  8
1
  6
CONTINUOUS
370
50
 62
4
100
AcDbLine
 10
47.527534
 20
3.116286
 30
0.0
 11
47.45855299999999
 21
3.222547
 31
0.0
  0
LINE
  5
742
330
1F
100
AcDbEntity
  8
1
  6
CONTINUOUS
370
50
 62
4
100
AcDbLine
 10
15.689516
 20
-5.360823
 30
0.0
 11
15.6819
 21
-5.349838
 31
0.0
  0
LINE
  5
743
330
1F
100
AcDbEntity
  8
1
  6
CONTINUOUS
370
50
 62
4
100
AcDbLine
 10
18.467478
 20
1.08976
 30
0.0
 11
18.40074
 21
1.185289
 31
0.0
  0
LINE
  5
744
330
1F
100
AcDbEntity
  8
1
  6
CONTINUOUS
370
50
 62
4
100
AcDbLine
 10
47.45855299999999
 20
3.222547
 30
0.0
 11
47.379467
 21
3.332821
 31
0.0
  0
LINE
  5
745
330
1F
100
AcDbEntity
  8
1
  6
CONTINUOUS
370
50
 62
4
100
AcDbLine
 10
47.379467
 20
3.332821
 30
0.0
 11
47.278805
 21
3.460159
 31
0.0
  0
LINE
  5
746
330
1F
100
AcDbEntity
  8
1
  6
CONTINUOUS
370
50
 62
4
100
AcDbLine
 10
18.542681
 20
0.9997919999999999
 30
0.0
 11
18.467478
 21
1.08976
 31
0.0
  0
LINE
  5
747
330
1F
100
AcDbEntity
  8
1
  6
CONTINUOUS
370
50
 62
4
100
AcDbLine
 10
47.278805
 20
3.460159
 30
0.0
 11
47.165707
 21
3.590013
 31
0.0
  0
LINE
  5
748
330
1F
100
AcDbEntity
  8
1
  6
CONTINUOUS
370
50
 62
4
100
AcDbLine
 10
47.165707
 20
3.590013
 30
0.0
 11
47.041412
 21
3.719877
 31
0.0
  0
LINE
  5
749
330
1F
100
AcDbEntity
  8
1
  6
CONTINUOUS
370
50
 62
4
100
AcDbLine
 10
18.624992
 20
0.9165129999999999
 30
0.0
 11
18.542681
 21
0.9997919999999999
 31
0.0
  0
LINE
  5
74A
330
1F
100
AcDbEntity
  8
1
  6
CONTINUOUS
370
50
 62
4
100
AcDbLine
 10
15.700112
 20
-5.371497
 30
0.0
 11
15.689516
 21
-5.360823
 31
0.0
  0
LINE
  5
74B
330
1F
100
AcDbEntity
  8
1
  6
CONTINUOUS
370
50
 62
4
100
AcDbLine
 10
47.041412
 20
3.719877
 30
0.0
 11
46.906166
 21
3.848655
 31
0.0
  0
LINE
  5
74C
330
1F
100
AcDbEntity
  8
1
  6
CONTINUOUS
370
50
 62
4
100
AcDbLine
 10
46.906166
 20
3.848655
 30
0.0
 11
46.760155
 21
3.975319
 31
0.0
  0
LINE
  5
74D
330
1F
100
AcDbEntity
  8
1
  6
CONTINUOUS
370
50
 62
4
100
AcDbLine
 10
18.713835
 20
0.839869
 30
0.0
 11
18.624992
 21
0.9165129999999999
 31
0.0
  0
LINE
  5
74E
330
1F
100
AcDbEntity
  8
1
  6
CONTINUOUS
370
50
 62
4
100
AcDbLine
 10
46.760155
 20
3.975319
 30
0.0
 11
46.603573
 21
4.09884
 31
0.0
  0
LINE
  5
74F
330
1F
100
AcDbEntity
  8
1
  6
CONTINUOUS
370
50
 62
4
100
AcDbLine
 10
15.713706
 20
-5.381816
 30
0.0
 11
15.700112
 21
-5.371497
 31
0.0
  0
LINE
  5
750
330
1F
100
AcDbEntity
  8
1
  6
CONTINUOUS
370
50
 62
4
100
AcDbLine
 10
18.808634
 20
0.769799
 30
0.0
 11
18.713835
 21
0.839869
 31
0.0
  0
LINE
  5
751
330
1F
100
AcDbEntity
  8
1
  6
CONTINUOUS
370
50
 62
4
100
AcDbLine
 10
46.603573
 20
4.09884
 30
0.0
 11
46.436615
 21
4.21819
 31
0.0
  0
LINE
  5
752
330
1F
100
AcDbEntity
  8
1
  6
CONTINUOUS
370
50
 62
4
100
AcDbLine
 10
46.436615
 20
4.21819
 30
0.0
 11
46.259464
 21
4.332339999999999
 31
0.0
  0
LINE
  5
753
330
1F
100
AcDbEntity
  8
1
  6
CONTINUOUS
370
50
 62
4
100
AcDbLine
 10
18.90881
 20
0.706244
 30
0.0
 11
18.808634
 21
0.769799
 31
0.0
  0
LINE
  5
754
330
1F
100
AcDbEntity
  8
1
  6
CONTINUOUS
370
50
 62
4
100
AcDbLine
 10
15.730317
 20
-5.391751
 30
0.0
 11
15.713706
 21
-5.381816
 31
0.0
  0
LINE
  5
755
330
1F
100
AcDbEntity
  8
1
  6
CONTINUOUS
370
50
 62
4
100
AcDbLine
 10
35.916767
 20
-0.371572
 30
0.0
 11
35.291882
 21
0.0
 31
0.0
  0
LINE
  5
756
330
1F
100
AcDbEntity
  8
1
  6
CONTINUOUS
370
50
 62
4
100
AcDbLine
 10
36.547325
 20
-0.7417539999999999
 30
0.0
 11
35.916767
 21
-0.371572
 31
0.0
  0
LINE
  5
757
330
1F
100
AcDbEntity
  8
1
  6
CONTINUOUS
370
50
 62
4
100
AcDbLine
 10
35.291882
 20
0.0
 30
0.0
 11
34.660648
 21
0.368363
 31
0.0
  0
LINE
  5
758
330
1F
100
AcDbEntity
  8
1
  6
CONTINUOUS
370
50
 62
4
100
AcDbLine
 10
35.491367
 20
-1.209231
 30
0.0
 11
34.980061
 21
-0.914364
 31
0.0
  0
LINE
  5
759
330
1F
100
AcDbEntity
  8
1
  6
CONTINUOUS
370
50
 62
4
100
AcDbLine
 10
46.259464
 20
4.332339999999999
 30
0.0
 11
46.072315
 21
4.440262
 31
0.0
  0
LINE
  5
75A
330
1F
100
AcDbEntity
  8
1
  6
CONTINUOUS
370
50
 62
4
100
AcDbLine
 10
35.998627
 20
-1.501457
 30
0.0
 11
35.491367
 21
-1.209231
 31
0.0
  0
LINE
  5
75B
330
1F
100
AcDbEntity
  8
1
  6
CONTINUOUS
370
50
 62
4
100
AcDbLine
 10
34.980061
 20
-0.914364
 30
0.0
 11
34.466038
 21
-0.6193029999999999
 31
0.0
  0
LINE
  5
75C
330
1F
100
AcDbEntity
  8
1
  6
CONTINUOUS
370
50
 62
4
100
AcDbLine
 10
34.660648
 20
0.368363
 30
0.0
 11
34.019142
 21
0.735359
 31
0.0
  0
LINE
  5
75D
330
1F
100
AcDbEntity
  8
1
  6
CONTINUOUS
370
50
 62
4
100
AcDbLine
 10
37.183681
 20
-1.105649
 30
0.0
 11
36.547325
 21
-0.7417539999999999
 31
0.0
  0
LINE
  5
75E
330
1F
100
AcDbEntity
  8
1
  6
CONTINUOUS
370
50
 62
4
100
AcDbLine
 10
33.38905
 20
-0.005219
 30
0.0
 11
33.379921
 21
0.0
 31
0.0
  0
LINE
  5
75F
330
1F
100
AcDbEntity
  8
1
  6
CONTINUOUS
370
50
 62
4
100
AcDbLine
 10
34.466038
 20
-0.6193029999999999
 30
0.0
 11
33.950531
 21
-0.324693
 31
0.0
  0
LINE
  5
760
330
1F
100
AcDbEntity
  8
1
  6
CONTINUOUS
370
50
 62
4
100
AcDbLine
 10
33.950531
 20
-0.324693
 30
0.0
 11
33.434772
 21
-0.031182
 31
0.0
  0
LINE
  5
761
330
1F
100
AcDbEntity
  8
1
  6
CONTINUOUS
370
50
 62
4
100
AcDbLine
 10
33.434772
 20
-0.031182
 30
0.0
 11
33.425629
 21
-0.025988
 31
0.0
  0
LINE
  5
762
330
1F
100
AcDbEntity
  8
1
  6
CONTINUOUS
370
50
 62
4
100
AcDbLine
 10
33.425629
 20
-0.025988
 30
0.0
 11
33.416485
 21
-0.020795
 31
0.0
  0
LINE
  5
763
330
1F
100
AcDbEntity
  8
1
  6
CONTINUOUS
370
50
 62
4
100
AcDbLine
 10
33.407337
 20
-0.015602
 30
0.0
 11
33.398193
 21
-0.01041
 31
0.0
  0
LINE
  5
764
330
1F
100
AcDbEntity
  8
1
  6
CONTINUOUS
370
50
 62
4
100
AcDbLine
 10
33.398193
 20
-0.01041
 30
0.0
 11
33.38905
 21
-0.005219
 31
0.0
  0
LINE
  5
765
330
1F
100
AcDbEntity
  8
1
  6
CONTINUOUS
370
50
 62
4
100
AcDbLine
 10
33.416485
 20
-0.020795
 30
0.0
 11
33.407337
 21
-0.015602
 31
0.0
  0
LINE
  5
766
330
1F
100
AcDbEntity
  8
1
  6
CONTINUOUS
370
50
 62
4
100
AcDbLine
 10
33.379921
 20
0.0
 30
0.0
 11
32.936726
 21
0.251127
 31
0.0
  0
LINE
  5
767
330
1F
100
AcDbEntity
  8
1
  6
CONTINUOUS
370
50
 62
4
100
AcDbLine
 10
32.936726
 20
0.251127
 30
0.0
 11
32.493427
 21
0.501634
 31
0.0
  0
LINE
  5
768
330
1F
100
AcDbEntity
  8
1
  6
CONTINUOUS
370
50
 62
4
100
AcDbLine
 10
36.51376
 20
-1.792209
 30
0.0
 11
35.998627
 21
-1.501457
 31
0.0
  0
LINE
  5
769
330
1F
100
AcDbEntity
  8
1
  6
CONTINUOUS
370
50
 62
4
100
AcDbLine
 10
32.493427
 20
0.501634
 30
0.0
 11
32.050056
 21
0.751641
 31
0.0
  0
LINE
  5
76A
330
1F
100
AcDbEntity
  8
1
  6
CONTINUOUS
370
50
 62
4
100
AcDbLine
 10
32.050056
 20
0.751641
 30
0.0
 11
31.607521
 21
1.000754
 31
0.0
  0
LINE
  5
76B
330
1F
100
AcDbEntity
  8
1
  6
CONTINUOUS
370
50
 62
4
100
AcDbLine
 10
31.607521
 20
1.000754
 30
0.0
 11
31.165852
 21
1.24908
 31
0.0
  0
LINE
  5
76C
330
1F
100
AcDbEntity
  8
1
  6
CONTINUOUS
370
50
 62
4
100
AcDbLine
 10
31.165852
 20
1.24908
 30
0.0
 11
30.724834
 21
1.496723
 31
0.0
  0
LINE
  5
76D
330
1F
100
AcDbEntity
  8
1
  6
CONTINUOUS
370
50
 62
4
100
AcDbLine
 10
34.019142
 20
0.735359
 30
0.0
 11
33.374599
 21
1.097154
 31
0.0
  0
LINE
  5
76E
330
1F
100
AcDbEntity
  8
1
  6
CONTINUOUS
370
50
 62
4
100
AcDbLine
 10
30.724834
 20
1.496723
 30
0.0
 11
30.285078
 21
1.743257
 31
0.0
  0
LINE
  5
76F
330
1F
100
AcDbEntity
  8
1
  6
CONTINUOUS
370
50
 62
4
100
AcDbLine
 10
30.285078
 20
1.743257
 30
0.0
 11
29.844414
 21
1.989565
 31
0.0
  0
LINE
  5
770
330
1F
100
AcDbEntity
  8
1
  6
CONTINUOUS
370
50
 62
4
100
AcDbLine
 10
37.822514
 20
-1.461338
 30
0.0
 11
37.183681
 21
-1.105649
 31
0.0
  0
LINE
  5
771
330
1F
100
AcDbEntity
  8
1
  6
CONTINUOUS
370
50
 62
4
100
AcDbLine
 10
33.374599
 20
1.097154
 30
0.0
 11
32.729813
 21
1.452616
 31
0.0
  0
LINE
  5
772
330
1F
100
AcDbEntity
  8
1
  6
CONTINUOUS
370
50
 62
4
100
AcDbLine
 10
29.844414
 20
1.989565
 30
0.0
 11
29.362446
 21
2.25338
 31
0.0
  0
LINE
  5
773
330
1F
100
AcDbEntity
  8
1
  6
CONTINUOUS
370
50
 62
4
100
AcDbLine
 10
37.047329
 20
-2.082911
 30
0.0
 11
36.51376
 21
-1.792209
 31
0.0
  0
LINE
  5
774
330
1F
100
AcDbEntity
  8
1
  6
CONTINUOUS
370
50
 62
4
100
AcDbLine
 10
1.59
 20
5.47995
 30
0.0
 11
-0.01
 21
6.34995
 31
0.0
  0
LINE
  5
775
330
1F
100
AcDbEntity
  8
1
  6
CONTINUOUS
370
50
 62
4
100
AcDbLine
 10
38.46439
 20
-1.809588
 30
0.0
 11
37.822514
 21
-1.461338
 31
0.0
  0
LINE
  5
776
330
1F
100
AcDbEntity
  8
1
  6
CONTINUOUS
370
50
 62
4
100
AcDbLine
 10
32.729813
 20
1.452616
 30
0.0
 11
32.087589
 21
1.800615
 31
0.0
  0
LINE
  5
777
330
1F
100
AcDbEntity
  8
1
  6
CONTINUOUS
370
50
 62
4
100
AcDbLine
 10
23.001966
 20
-5.179935
 30
0.0
 11
22.987076
 21
-5.171942
 31
0.0
  0
LINE
  5
778
330
1F
100
AcDbEntity
  8
1
  6
CONTINUOUS
370
50
 62
4
100
AcDbLine
 10
32.087589
 20
1.800615
 30
0.0
 11
31.448709
 21
2.141146
 31
0.0
  0
LINE
  5
779
330
1F
100
AcDbEntity
  8
1
  6
CONTINUOUS
370
50
 62
4
100
AcDbLine
 10
23.016794
 20
-5.187838
 30
0.0
 11
23.001966
 21
-5.179935
 31
0.0
  0
LINE
  5
77A
330
1F
100
AcDbEntity
  8
1
  6
CONTINUOUS
370
50
 62
4
100
AcDbLine
 10
39.106621
 20
-2.149431
 30
0.0
 11
38.46439
 21
-1.809588
 31
0.0
  0
LINE
  5
77B
330
1F
100
AcDbEntity
  8
1
  6
CONTINUOUS
370
50
 62
4
100
AcDbLine
 10
23.031559
 20
-5.19565
 30
0.0
 11
23.016794
 21
-5.187838
 31
0.0
  0
LINE
  5
77C
330
1F
100
AcDbEntity
  8
1
  6
CONTINUOUS
370
50
 62
4
100
AcDbLine
 10
29.362446
 20
2.25338
 30
0.0
 11
28.823677
 21
2.53798
 31
0.0
  0
LINE
  5
77D
330
1F
100
AcDbEntity
  8
1
  6
CONTINUOUS
370
50
 62
4
100
AcDbLine
 10
37.585667
 20
-2.366222
 30
0.0
 11
37.047329
 21
-2.082911
 31
0.0
  0
LINE
  5
77E
330
1F
100
AcDbEntity
  8
1
  6
CONTINUOUS
370
50
 62
4
100
AcDbLine
 10
23.046263
 20
-5.203371
 30
0.0
 11
23.031559
 21
-5.19565
 31
0.0
  0
LINE
  5
77F
330
1F
100
AcDbEntity
  8
1
  6
CONTINUOUS
370
50
 62
4
100
AcDbLine
 10
31.448709
 20
2.141146
 30
0.0
 11
30.811569
 21
2.475379
 31
0.0
  0
LINE
  5
780
330
1F
100
AcDbEntity
  8
1
  6
CONTINUOUS
370
50
 62
4
100
AcDbLine
 10
23.060904
 20
-5.210999
 30
0.0
 11
23.046263
 21
-5.203371
 31
0.0
  0
LINE
  5
781
330
1F
100
AcDbEntity
  8
1
  6
CONTINUOUS
370
50
 62
4
100
AcDbLine
 10
23.075481
 20
-5.218535
 30
0.0
 11
23.060904
 21
-5.210999
 31
0.0
  0
LINE
  5
782
330
1F
100
AcDbEntity
  8
1
  6
CONTINUOUS
370
50
 62
4
100
AcDbLine
 10
39.746525
 20
-2.479911
 30
0.0
 11
39.106621
 21
-2.149431
 31
0.0
  0
LINE
  5
783
330
1F
100
AcDbEntity
  8
1
  6
CONTINUOUS
370
50
 62
4
100
AcDbLine
 10
30.811569
 20
2.475379
 30
0.0
 11
30.177404
 21
2.802591
 31
0.0
  0
LINE
  5
784
330
1F
100
AcDbEntity
  8
1
  6
CONTINUOUS
370
50
 62
4
100
AcDbLine
 10
23.09
 20
-5.225979
 30
0.0
 11
23.075481
 21
-5.218535
 31
0.0
  0
LINE
  5
785
330
1F
100
AcDbEntity
  8
1
  6
CONTINUOUS
370
50
 62
4
100
AcDbLine
 10
38.126221
 20
-2.64114
 30
0.0
 11
37.585667
 21
-2.366222
 31
0.0
  0
LINE
  5
786
330
1F
100
AcDbEntity
  8
1
  6
CONTINUOUS
370
50
 62
4
100
AcDbLine
 10
28.823677
 20
2.53798
 30
0.0
 11
28.225513
 21
2.840222
 31
0.0
  0
LINE
  5
787
330
1F
100
AcDbEntity
  8
1
  6
CONTINUOUS
370
50
 62
4
100
AcDbLine
 10
40.385441
 20
-2.802061
 30
0.0
 11
39.746525
 21
-2.479911
 31
0.0
  0
LINE
  5
788
330
1F
100
AcDbEntity
  8
1
  6
CONTINUOUS
370
50
 62
4
100
AcDbLine
 10
30.177404
 20
2.802591
 30
0.0
 11
29.546686
 21
3.119799
 31
0.0
  0
LINE
  5
789
330
1F
100
AcDbEntity
  8
1
  6
CONTINUOUS
370
50
 62
4
100
AcDbLine
 10
46.072315
 20
4.440262
 30
0.0
 11
45.807472
 21
4.571009
 31
0.0
  0
LINE
  5
78A
330
1F
100
AcDbEntity
  8
1
  6
CONTINUOUS
370
50
 62
4
100
AcDbLine
 10
38.667408
 20
-2.907116
 30
0.0
 11
38.126221
 21
-2.64114
 31
0.0
  0
LINE
  5
78B
330
1F
100
AcDbEntity
  8
1
  6
CONTINUOUS
370
50
 62
4
100
AcDbLine
 10
41.023003
 20
-3.115393
 30
0.0
 11
40.385441
 21
-2.802061
 31
0.0
  0
LINE
  5
78C
330
1F
100
AcDbEntity
  8
1
  6
CONTINUOUS
370
50
 62
4
100
AcDbLine
 10
15.749969
 20
-5.401270999999999
 30
0.0
 11
15.730317
 21
-5.391751
 31
0.0
  0
LINE
  5
78D
330
1F
100
AcDbEntity
  8
1
  6
CONTINUOUS
370
50
 62
4
100
AcDbLine
 10
28.225513
 20
2.840222
 30
0.0
 11
27.584312
 21
3.14836
 31
0.0
  0
LINE
  5
78E
330
1F
100
AcDbEntity
  8
1
  6
CONTINUOUS
370
50
 62
4
100
AcDbLine
 10
41.65732999999999
 20
-3.418499
 30
0.0
 11
41.023003
 21
-3.115393
 31
0.0
  0
LINE
  5
78F
330
1F
100
AcDbEntity
  8
1
  6
CONTINUOUS
370
50
 62
4
100
AcDbLine
 10
29.546686
 20
3.119799
 30
0.0
 11
28.897472
 21
3.428407
 31
0.0
  0
LINE
  5
790
330
1F
100
AcDbEntity
  8
1
  6
CONTINUOUS
370
50
 62
4
100
AcDbLine
 10
39.207649
 20
-3.163606
 30
0.0
 11
38.667408
 21
-2.907116
 31
0.0
  0
LINE
  5
791
330
1F
100
AcDbEntity
  8
1
  6
CONTINUOUS
370
50
 62
4
100
AcDbLine
 10
33.434353
 20
-0.030984
 30
0.0
 11
32.69619
 21
0.313864
 31
0.0
  0
LINE
  5
792
330
1F
100
AcDbEntity
  8
1
  6
CONTINUOUS
370
50
 62
4
100
AcDbLine
 10
32.69619
 20
0.313864
 30
0.0
 11
31.958019
 21
0.657482
 31
0.0
  0
LINE
  5
793
330
1F
100
AcDbEntity
  8
1
  6
CONTINUOUS
370
50
 62
4
100
AcDbLine
 10
31.958019
 20
0.657482
 30
0.0
 11
31.219845
 21
1.000307
 31
0.0
  0
LINE
  5
794
330
1F
100
AcDbEntity
  8
1
  6
CONTINUOUS
370
50
 62
4
100
AcDbLine
 10
31.219845
 20
1.000307
 30
0.0
 11
30.481668
 21
1.342309
 31
0.0
  0
LINE
  5
795
330
1F
100
AcDbEntity
  8
1
  6
CONTINUOUS
370
50
 62
4
100
AcDbLine
 10
30.481668
 20
1.342309
 30
0.0
 11
29.7435
 21
1.683207
 31
0.0
  0
LINE
  5
796
330
1F
100
AcDbEntity
  8
1
  6
CONTINUOUS
370
50
 62
4
100
AcDbLine
 10
39.745365
 20
-3.410064
 30
0.0
 11
39.207649
 21
-3.163606
 31
0.0
  0
LINE
  5
797
330
1F
100
AcDbEntity
  8
1
  6
CONTINUOUS
370
50
 62
4
100
AcDbLine
 10
27.584312
 20
3.14836
 30
0.0
 11
26.939474
 21
3.44273
 31
0.0
  0
LINE
  5
798
330
1F
100
AcDbEntity
  8
1
  6
CONTINUOUS
370
50
 62
4
100
AcDbLine
 10
42.305477
 20
-3.713592
 30
0.0
 11
41.65732999999999
 21
-3.418499
 31
0.0
  0
LINE
  5
799
330
1F
100
AcDbEntity
  8
1
  6
CONTINUOUS
370
50
 62
4
100
AcDbLine
 10
29.7435
 20
1.683207
 30
0.0
 11
29.005335
 21
2.011822
 31
0.0
  0
LINE
  5
79A
330
1F
100
AcDbEntity
  8
1
  6
CONTINUOUS
370
50
 62
4
100
AcDbLine
 10
40.280846
 20
-3.646789
 30
0.0
 11
39.745365
 21
-3.410064
 31
0.0
  0
LINE
  5
79B
330
1F
100
AcDbEntity
  8
1
  6
CONTINUOUS
370
50
 62
4
100
AcDbLine
 10
28.897472
 20
3.428407
 30
0.0
 11
28.22752
 21
3.724274
 31
0.0
  0
LINE
  5
79C
330
1F
100
AcDbEntity
  8
1
  6
CONTINUOUS
370
50
 62
4
100
AcDbLine
 10
26.939474
 20
3.44273
 30
0.0
 11
26.294928
 21
3.721896
 31
0.0
  0
LINE
  5
79D
330
1F
100
AcDbEntity
  8
1
  6
CONTINUOUS
370
50
 62
4
100
AcDbLine
 10
40.815456
 20
-3.8743
 30
0.0
 11
40.280846
 21
-3.646789
 31
0.0
  0
LINE
  5
79E
330
1F
100
AcDbEntity
  8
1
  6
CONTINUOUS
370
50
 62
4
100
AcDbLine
 10
29.005335
 20
2.011822
 30
0.0
 11
28.267176
 21
2.322156
 31
0.0
  0
LINE
  5
79F
330
1F
100
AcDbEntity
  8
1
  6
CONTINUOUS
370
50
 62
4
100
AcDbLine
 10
26.294928
 20
3.721896
 30
0.0
 11
25.652636
 21
3.985315
 31
0.0
  0
LINE
  5
7A0
330
1F
100
AcDbEntity
  8
1
  6
CONTINUOUS
370
50
 62
4
100
AcDbLine
 10
28.22752
 20
3.724274
 30
0.0
 11
27.553473
 21
4.000499
 31
0.0
  0
LINE
  5
7A1
330
1F
100
AcDbEntity
  8
1
  6
CONTINUOUS
370
50
 62
4
100
AcDbLine
 10
41.348038
 20
-4.091807999999999
 30
0.0
 11
40.815456
 21
-3.8743
 31
0.0
  0
LINE
  5
7A2
330
1F
100
AcDbEntity
  8
1
  6
CONTINUOUS
370
50
 62
4
100
AcDbLine
 10
15.772684
 20
-5.410349
 30
0.0
 11
15.749969
 21
-5.401270999999999
 31
0.0
  0
LINE
  5
7A3
330
1F
100
AcDbEntity
  8
1
  6
CONTINUOUS
370
50
 62
4
100
AcDbLine
 10
45.807472
 20
4.571009
 30
0.0
 11
45.53608699999999
 21
4.678999999999999
 31
0.0
  0
LINE
  5
7A4
330
1F
100
AcDbEntity
  8
1
  6
CONTINUOUS
370
50
 62
4
100
AcDbLine
 10
28.267176
 20
2.322156
 30
0.0
 11
27.529015
 21
2.615049
 31
0.0
  0
LINE
  5
7A5
330
1F
100
AcDbEntity
  8
1
  6
CONTINUOUS
370
50
 62
4
100
AcDbLine
 10
41.871021
 20
-4.295761
 30
0.0
 11
41.348038
 21
-4.091807999999999
 31
0.0
  0
LINE
  5
7A6
330
1F
100
AcDbEntity
  8
1
  6
CONTINUOUS
370
50
 62
4
100
AcDbLine
 10
22.878571
 20
-5.113638
 30
0.0
 11
22.804417
 21
-5.084874999999999
 31
0.0
  0
LINE
  5
7A7
330
1F
100
AcDbEntity
  8
1
  6
CONTINUOUS
370
50
 62
4
100
AcDbLine
 10
25.652636
 20
3.985315
 30
0.0
 11
25.011183
 21
4.233542
 31
0.0
  0
LINE
  5
7A8
330
1F
100
AcDbEntity
  8
1
  6
CONTINUOUS
370
50
 62
4
100
AcDbLine
 10
27.553473
 20
4.000499
 30
0.0
 11
26.87851
 21
4.256392
 31
0.0
  0
LINE
  5
7A9
330
1F
100
AcDbEntity
  8
1
  6
CONTINUOUS
370
50
 62
4
100
AcDbLine
 10
27.529015
 20
2.615049
 30
0.0
 11
26.790848
 21
2.891204
 31
0.0
  0
LINE
  5
7AA
330
1F
100
AcDbEntity
  8
1
  6
CONTINUOUS
370
50
 62
4
100
AcDbLine
 10
25.011183
 20
4.233542
 30
0.0
 11
24.372204
 21
4.465460999999999
 31
0.0
  0
LINE
  5
7AB
330
1F
100
AcDbEntity
  8
1
  6
CONTINUOUS
370
50
 62
4
100
AcDbLine
 10
42.399868
 20
-4.487109
 30
0.0
 11
41.871021
 21
-4.295761
 31
0.0
  0
LINE
  5
7AC
330
1F
100
AcDbEntity
  8
1
  6
CONTINUOUS
370
50
 62
4
100
AcDbLine
 10
26.790848
 20
2.891204
 30
0.0
 11
26.052679
 21
3.150937
 31
0.0
  0
LINE
  5
7AD
330
1F
100
AcDbEntity
  8
1
  6
CONTINUOUS
370
50
 62
4
100
AcDbLine
 10
26.87851
 20
4.256392
 30
0.0
 11
26.205812
 21
4.491262
 31
0.0
  0
LINE
  5
7AE
330
1F
100
AcDbEntity
  8
1
  6
CONTINUOUS
370
50
 62
4
100
AcDbLine
 10
21.586763
 20
-4.550813
 30
0.0
 11
21.516558
 21
-4.52675
 31
0.0
  0
LINE
  5
7AF
330
1F
100
AcDbEntity
  8
1
  6
CONTINUOUS
370
50
 62
4
100
AcDbLine
 10
24.372204
 20
4.465460999999999
 30
0.0
 11
23.740522
 21
4.67818
 31
0.0
  0
LINE
  5
7B0
330
1F
100
AcDbEntity
  8
1
  6
CONTINUOUS
370
50
 62
4
100
AcDbLine
 10
15.798482
 20
-5.418953999999999
 30
0.0
 11
15.772684
 21
-5.410349
 31
0.0
  0
LINE
  5
7B1
330
1F
100
AcDbEntity
  8
1
  6
CONTINUOUS
370
50
 62
4
100
AcDbLine
 10
22.804417
 20
-5.084874999999999
 30
0.0
 11
22.716934
 21
-5.055966
 31
0.0
  0
LINE
  5
7B2
330
1F
100
AcDbEntity
  8
1
  6
CONTINUOUS
370
50
 62
4
100
AcDbLine
 10
26.052679
 20
3.150937
 30
0.0
 11
25.314507
 21
3.394493
 31
0.0
  0
LINE
  5
7B3
330
1F
100
AcDbEntity
  8
1
  6
CONTINUOUS
370
50
 62
4
100
AcDbLine
 10
42.933998
 20
-4.663327
 30
0.0
 11
42.399868
 21
-4.487109
 31
0.0
  0
LINE
  5
7B4
330
1F
100
AcDbEntity
  8
1
  6
CONTINUOUS
370
50
 62
4
100
AcDbLine
 10
26.205812
 20
4.491262
 30
0.0
 11
25.536646
 21
4.705049
 31
0.0
  0
LINE
  5
7B5
330
1F
100
AcDbEntity
  8
1
  6
CONTINUOUS
370
50
 62
4
100
AcDbLine
 10
23.986166
 20
-0.845857
 30
0.0
 11
23.1
 21
-0.566682
 31
0.0
  0
LINE
  5
7B6
330
1F
100
AcDbEntity
  8
1
  6
CONTINUOUS
370
50
 62
4
100
AcDbLine
 10
21.516558
 20
-4.52675
 30
0.0
 11
21.102953
 21
-4.398143
 31
0.0
  0
LINE
  5
7B7
330
1F
100
AcDbEntity
  8
1
  6
CONTINUOUS
370
50
 62
4
100
AcDbLine
 10
25.314507
 20
3.394493
 30
0.0
 11
24.576332
 21
3.621766
 31
0.0
  0
LINE
  5
7B8
330
1F
100
AcDbEntity
  8
1
  6
CONTINUOUS
370
50
 62
4
100
AcDbLine
 10
45.53608699999999
 20
4.678999999999999
 30
0.0
 11
45.258911
 21
4.764254
 31
0.0
  0
LINE
  5
7B9
330
1F
100
AcDbEntity
  8
1
  6
CONTINUOUS
370
50
 62
4
100
AcDbLine
 10
24.879169
 20
-1.115553
 30
0.0
 11
23.986166
 21
-0.845857
 31
0.0
  0
LINE
  5
7BA
330
1F
100
AcDbEntity
  8
1
  6
CONTINUOUS
370
50
 62
4
100
AcDbLine
 10
23.740522
 20
4.67818
 30
0.0
 11
23.1
 21
4.871148
 31
0.0
  0
LINE
  5
7BB
330
1F
100
AcDbEntity
  8
1
  6
CONTINUOUS
370
50
 62
4
100
AcDbLine
 10
29.922283
 20
-0.9163359999999999
 30
0.0
 11
29.164261
 21
-0.689102
 31
0.0
  0
LINE
  5
7BC
330
1F
100
AcDbEntity
  8
1
  6
CONTINUOUS
370
50
 62
4
100
AcDbLine
 10
24.616055
 20
0.668383
 30
0.0
 11
23.858004
 21
0.895389
 31
0.0
  0
LINE
  5
7BD
330
1F
100
AcDbEntity
  8
1
  6
CONTINUOUS
370
50
 62
4
100
AcDbLine
 10
29.164261
 20
-0.689102
 30
0.0
 11
28.406269
 21
-0.462534
 31
0.0
  0
LINE
  5
7BE
330
1F
100
AcDbEntity
  8
1
  6
CONTINUOUS
370
50
 62
4
100
AcDbLine
 10
25.374132
 20
0.441802
 30
0.0
 11
24.616055
 21
0.668383
 31
0.0
  0
LINE
  5
7BF
330
1F
100
AcDbEntity
  8
1
  6
CONTINUOUS
370
50
 62
4
100
AcDbLine
 10
26.132212
 20
0.215552
 30
0.0
 11
25.374132
 21
0.441802
 31
0.0
  0
LINE
  5
7C0
330
1F
100
AcDbEntity
  8
1
  6
CONTINUOUS
370
50
 62
4
100
AcDbLine
 10
28.406269
 20
-0.462534
 30
0.0
 11
27.648279
 21
-0.236419
 31
0.0
  0
LINE
  5
7C1
330
1F
100
AcDbEntity
  8
1
  6
CONTINUOUS
370
50
 62
4
100
AcDbLine
 10
26.890266
 20
-0.010475
 30
0.0
 11
26.132212
 21
0.215552
 31
0.0
  0
LINE
  5
7C2
330
1F
100
AcDbEntity
  8
1
  6
CONTINUOUS
370
50
 62
4
100
AcDbLine
 10
27.648279
 20
-0.236419
 30
0.0
 11
26.890266
 21
-0.010475
 31
0.0
  0
LINE
  5
7C3
330
1F
100
AcDbEntity
  8
1
  6
CONTINUOUS
370
50
 62
4
100
AcDbLine
 10
23.858004
 20
0.895389
 30
0.0
 11
23.1
 21
1.116208
 31
0.0
  0
LINE
  5
7C4
330
1F
100
AcDbEntity
  8
1
  6
CONTINUOUS
370
50
 62
4
100
AcDbLine
 10
30.680347
 20
-1.136623
 30
0.0
 11
29.922283
 21
-0.9163359999999999
 31
0.0
  0
LINE
  5
7C5
330
1F
100
AcDbEntity
  8
1
  6
CONTINUOUS
370
50
 62
4
100
AcDbLine
 10
25.536646
 20
4.705049
 30
0.0
 11
24.868868
 21
4.898394
 31
0.0
  0
LINE
  5
7C6
330
1F
100
AcDbEntity
  8
1
  6
CONTINUOUS
370
50
 62
4
100
AcDbLine
 10
22.716934
 20
-5.055966
 30
0.0
 11
22.616327
 21
-5.027188
 31
0.0
  0
LINE
  5
7C7
330
1F
100
AcDbEntity
  8
1
  6
CONTINUOUS
370
50
 62
4
100
AcDbLine
 10
24.576332
 20
3.621766
 30
0.0
 11
23.838163
 21
3.83154
 31
0.0
  0
LINE
  5
7C8
330
1F
100
AcDbEntity
  8
1
  6
CONTINUOUS
370
50
 62
4
100
AcDbLine
 10
47.461796
 20
1.17285
 30
0.0
 11
46.527515
 21
1.438294
 31
0.0
  0
LINE
  5
7C9
330
1F
100
AcDbEntity
  8
1
  6
CONTINUOUS
370
50
 62
4
100
AcDbLine
 10
43.22908
 20
-4.746897
 30
0.0
 11
42.933998
 21
-4.663327
 31
0.0
  0
LINE
  5
7CA
330
1F
100
AcDbEntity
  8
1
  6
CONTINUOUS
370
50
 62
4
100
AcDbLine
 10
15.827387
 20
-5.427057
 30
0.0
 11
15.798482
 21
-5.418953999999999
 31
0.0
  0
LINE
  5
7CB
330
1F
100
AcDbEntity
  8
1
  6
CONTINUOUS
370
50
 62
4
100
AcDbLine
 10
31.438435
 20
-1.345094
 30
0.0
 11
30.680347
 21
-1.136623
 31
0.0
  0
LINE
  5
7CC
330
1F
100
AcDbEntity
  8
1
  6
CONTINUOUS
370
50
 62
4
100
AcDbLine
 10
25.795689
 20
-1.366618
 30
0.0
 11
24.879169
 21
-1.115553
 31
0.0
  0
LINE
  5
7CD
330
1F
100
AcDbEntity
  8
1
  6
CONTINUOUS
370
50
 62
4
100
AcDbLine
 10
32.196518
 20
-1.542413
 30
0.0
 11
31.438435
 21
-1.345094
 31
0.0
  0
LINE
  5
7CE
330
1F
100
AcDbEntity
  8
1
  6
CONTINUOUS
370
50
 62
4
100
AcDbLine
 10
24.868868
 20
4.898394
 30
0.0
 11
24.208126
 21
5.069386
 31
0.0
  0
LINE
  5
7CF
330
1F
100
AcDbEntity
  8
1
  6
CONTINUOUS
370
50
 62
4
100
AcDbLine
 10
21.102953
 20
-4.398143
 30
0.0
 11
20.709446
 21
-4.296916
 31
0.0
  0
LINE
  5
7D0
330
1F
100
AcDbEntity
  8
1
  6
CONTINUOUS
370
50
 62
4
100
AcDbLine
 10
46.527515
 20
1.438294
 30
0.0
 11
45.572151
 21
1.680265
 31
0.0
  0
LINE
  5
7D1
330
1F
100
AcDbEntity
  8
1
  6
CONTINUOUS
370
50
 62
4
100
AcDbLine
 10
23.838163
 20
3.83154
 30
0.0
 11
23.1
 21
4.017069
 31
0.0
  0
LINE
  5
7D2
330
1F
100
AcDbEntity
  8
1
  6
CONTINUOUS
370
50
 62
4
100
AcDbLine
 10
26.737242
 20
-1.603163
 30
0.0
 11
25.795689
 21
-1.366618
 31
0.0
  0
LINE
  5
7D3
330
1F
100
AcDbEntity
  8
1
  6
CONTINUOUS
370
50
 62
4
100
AcDbLine
 10
22.616327
 20
-5.027188
 30
0.0
 11
22.503096
 21
-4.998944
 31
0.0
  0
LINE
  5
7D4
330
1F
100
AcDbEntity
  8
1
  6
CONTINUOUS
370
50
 62
4
100
AcDbLine
 10
32.954571
 20
-1.729238
 30
0.0
 11
32.196518
 21
-1.542413
 31
0.0
  0
LINE
  5
7D5
330
1F
100
AcDbEntity
  8
1
  6
CONTINUOUS
370
50
 62
4
100
AcDbLine
 10
15.859418
 20
-5.434629
 30
0.0
 11
15.827387
 21
-5.427057
 31
0.0
  0
LINE
  5
7D6
330
1F
100
AcDbEntity
  8
1
  6
CONTINUOUS
370
50
 62
4
100
AcDbLine
 10
27.705107
 20
-1.830423
 30
0.0
 11
26.737242
 21
-1.603163
 31
0.0
  0
LINE
  5
7D7
330
1F
100
AcDbEntity
  8
1
  6
CONTINUOUS
370
50
 62
4
100
AcDbLine
 10
33.712582
 20
-1.906028
 30
0.0
 11
32.954571
 21
-1.729238
 31
0.0
  0
LINE
  5
7D8
330
1F
100
AcDbEntity
  8
1
  6
CONTINUOUS
370
50
 62
4
100
AcDbLine
 10
45.572151
 20
1.680265
 30
0.0
 11
44.616932
 21
1.900213
 31
0.0
  0
LINE
  5
7D9
330
1F
100
AcDbEntity
  8
1
  6
CONTINUOUS
370
50
 62
4
100
AcDbLine
 10
24.208126
 20
5.069386
 30
0.0
 11
23.560364
 21
5.214726
 31
0.0
  0
LINE
  5
7DA
330
1F
100
AcDbEntity
  8
1
  6
CONTINUOUS
370
50
 62
4
100
AcDbLine
 10
28.672695
 20
-2.046284
 30
0.0
 11
27.705107
 21
-1.830423
 31
0.0
  0
LINE
  5
7DB
330
1F
100
AcDbEntity
  8
1
  6
CONTINUOUS
370
50
 62
4
100
AcDbLine
 10
45.258911
 20
4.764254
 30
0.0
 11
44.977322
 21
4.826747
 31
0.0
  0
LINE
  5
7DC
330
1F
100
AcDbEntity
  8
1
  6
CONTINUOUS
370
50
 62
4
100
AcDbLine
 10
34.470566
 20
-2.07275
 30
0.0
 11
33.712582
 21
-1.906028
 31
0.0
  0
LINE
  5
7DD
330
1F
100
AcDbEntity
  8
1
  6
CONTINUOUS
370
50
 62
4
100
AcDbLine
 10
43.524075
 20
-4.81161
 30
0.0
 11
43.22908
 21
-4.746897
 31
0.0
  0
LINE
  5
7DE
330
1F
100
AcDbEntity
  8
1
  6
CONTINUOUS
370
50
 62
4
100
AcDbLine
 10
22.503096
 20
-4.998944
 30
0.0
 11
22.37837
 21
-4.971814999999999
 31
0.0
  0
LINE
  5
7DF
330
1F
100
AcDbEntity
  8
1
  6
CONTINUOUS
370
50
 62
4
100
AcDbLine
 10
29.601549
 20
-2.246271
 30
0.0
 11
28.672695
 21
-2.046284
 31
0.0
  0
LINE
  5
7E0
330
1F
100
AcDbEntity
  8
1
  6
CONTINUOUS
370
50
 62
4
100
AcDbLine
 10
44.616932
 20
1.900213
 30
0.0
 11
43.682407
 21
2.099642
 31
0.0
  0
LINE
  5
7E1
330
1F
100
AcDbEntity
  8
1
  6
CONTINUOUS
370
50
 62
4
100
AcDbLine
 10
24.006769
 20
5.122497999999999
 30
0.0
 11
23.895168
 21
5.145731
 31
0.0
  0
LINE
  5
7E2
330
1F
100
AcDbEntity
  8
1
  6
CONTINUOUS
370
50
 62
4
100
AcDbLine
 10
24.118378
 20
5.099298999999999
 30
0.0
 11
24.006769
 21
5.122497999999999
 31
0.0
  0
LINE
  5
7E3
330
1F
100
AcDbEntity
  8
1
  6
CONTINUOUS
370
50
 62
4
100
AcDbLine
 10
23.895168
 20
5.145731
 30
0.0
 11
23.783567
 21
5.168909
 31
0.0
  0
LINE
  5
7E4
330
1F
100
AcDbEntity
  8
1
  6
CONTINUOUS
370
50
 62
4
100
AcDbLine
 10
24.229984
 20
5.076137999999999
 30
0.0
 11
24.118378
 21
5.099298999999999
 31
0.0
  0
LINE
  5
7E5
330
1F
100
AcDbEntity
  8
1
  6
CONTINUOUS
370
50
 62
4
100
AcDbLine
 10
24.341591
 20
5.053017
 30
0.0
 11
24.229984
 21
5.076137999999999
 31
0.0
  0
LINE
  5
7E6
330
1F
100
AcDbEntity
  8
1
  6
CONTINUOUS
370
50
 62
4
100
AcDbLine
 10
24.453196
 20
5.029935
 30
0.0
 11
24.341591
 21
5.053017
 31
0.0
  0
LINE
  5
7E7
330
1F
100
AcDbEntity
  8
1
  6
CONTINUOUS
370
50
 62
4
100
AcDbLine
 10
35.228561
 20
-2.229301
 30
0.0
 11
34.470566
 21
-2.07275
 31
0.0
  0
LINE
  5
7E8
330
1F
100
AcDbEntity
  8
1
  6
CONTINUOUS
370
50
 62
4
100
AcDbLine
 10
24.587652
 20
5.002181
 30
0.0
 11
24.453196
 21
5.029935
 31
0.0
  0
LINE
  5
7E9
330
1F
100
AcDbEntity
  8
1
  6
CONTINUOUS
370
50
 62
4
100
AcDbLine
 10
23.783567
 20
5.168909
 30
0.0
 11
23.671967
 21
5.191937999999999
 31
0.0
  0
LINE
  5
7EA
330
1F
100
AcDbEntity
  8
1
  6
CONTINUOUS
370
50
 62
4
100
AcDbLine
 10
24.722107
 20
4.974488
 30
0.0
 11
24.587652
 21
5.002181
 31
0.0
  0
LINE
  5
7EB
330
1F
100
AcDbEntity
  8
1
  6
CONTINUOUS
370
50
 62
4
100
AcDbLine
 10
24.856573
 20
4.946853
 30
0.0
 11
24.722107
 21
4.974488
 31
0.0
  0
LINE
  5
7EC
330
1F
100
AcDbEntity
  8
1
  6
CONTINUOUS
370
50
 62
4
100
AcDbLine
 10
24.991041
 20
4.919281
 30
0.0
 11
24.856573
 21
4.946853
 31
0.0
  0
LINE
  5
7ED
330
1F
100
AcDbEntity
  8
1
  6
CONTINUOUS
370
50
 62
4
100
AcDbLine
 10
23.671967
 20
5.191937999999999
 30
0.0
 11
23.560364
 21
5.214818999999999
 31
0.0
  0
LINE
  5
7EE
330
1F
100
AcDbEntity
  8
1
  6
CONTINUOUS
370
50
 62
4
100
AcDbLine
 10
25.092985
 20
4.898416999999999
 30
0.0
 11
24.991041
 21
4.919281
 31
0.0
  0
LINE
  5
7EF
330
1F
100
AcDbEntity
  8
1
  6
CONTINUOUS
370
50
 62
4
100
AcDbLine
 10
25.194929
 20
4.87759
 30
0.0
 11
25.092985
 21
4.898416999999999
 31
0.0
  0
LINE
  5
7F0
330
1F
100
AcDbEntity
  8
1
  6
CONTINUOUS
370
50
 62
4
100
AcDbLine
 10
20.709446
 20
-4.296916
 30
0.0
 11
20.328255
 21
-4.219139999999999
 31
0.0
  0
LINE
  5
7F1
330
1F
100
AcDbEntity
  8
1
  6
CONTINUOUS
370
50
 62
4
100
AcDbLine
 10
25.296873
 20
4.856799
 30
0.0
 11
25.194929
 21
4.87759
 31
0.0
  0
LINE
  5
7F2
330
1F
100
AcDbEntity
  8
1
  6
CONTINUOUS
370
50
 62
4
100
AcDbLine
 10
25.398815
 20
4.836042
 30
0.0
 11
25.296873
 21
4.856799
 31
0.0
  0
LINE
  5
7F3
330
1F
100
AcDbEntity
  8
1
  6
CONTINUOUS
370
50
 62
4
100
AcDbLine
 10
25.500769
 20
4.815319
 30
0.0
 11
25.398815
 21
4.836042
 31
0.0
  0
LINE
  5
7F4
330
1F
100
AcDbEntity
  8
1
  6
CONTINUOUS
370
50
 62
4
100
AcDbLine
 10
25.60272
 20
4.794631
 30
0.0
 11
25.500769
 21
4.815319
 31
0.0
  0
LINE
  5
7F5
330
1F
100
AcDbEntity
  8
1
  6
CONTINUOUS
370
50
 62
4
100
AcDbLine
 10
25.704672
 20
4.773976999999999
 30
0.0
 11
25.60272
 21
4.794631
 31
0.0
  0
LINE
  5
7F6
330
1F
100
AcDbEntity
  8
1
  6
CONTINUOUS
370
50
 62
4
100
AcDbLine
 10
25.806623
 20
4.753356999999999
 30
0.0
 11
25.704672
 21
4.773976999999999
 31
0.0
  0
LINE
  5
7F7
330
1F
100
AcDbEntity
  8
1
  6
CONTINUOUS
370
50
 62
4
100
AcDbLine
 10
23.560364
 20
5.214726
 30
0.0
 11
23.484465
 21
5.230065
 31
0.0
  0
LINE
  5
7F8
330
1F
100
AcDbEntity
  8
1
  6
CONTINUOUS
370
50
 62
4
100
AcDbLine
 10
25.970688
 20
4.720244
 30
0.0
 11
25.806623
 21
4.753356999999999
 31
0.0
  0
LINE
  5
7F9
330
1F
100
AcDbEntity
  8
1
  6
CONTINUOUS
370
50
 62
4
100
AcDbLine
 10
26.134752
 20
4.687215
 30
0.0
 11
25.970688
 21
4.720244
 31
0.0
  0
LINE
  5
7FA
330
1F
100
AcDbEntity
  8
1
  6
CONTINUOUS
370
50
 62
4
100
AcDbLine
 10
26.298817
 20
4.654267
 30
0.0
 11
26.134752
 21
4.687215
 31
0.0
  0
LINE
  5
7FB
330
1F
100
AcDbEntity
  8
1
  6
CONTINUOUS
370
50
 62
4
100
AcDbLine
 10
26.462883
 20
4.621397
 30
0.0
 11
26.298817
 21
4.654267
 31
0.0
  0
LINE
  5
7FC
330
1F
100
AcDbEntity
  8
1
  6
CONTINUOUS
370
50
 62
4
100
AcDbLine
 10
43.682407
 20
2.099642
 30
0.0
 11
42.745235
 21
2.287097
 31
0.0
  0
LINE
  5
7FD
330
1F
100
AcDbEntity
  8
1
  6
CONTINUOUS
370
50
 62
4
100
AcDbLine
 10
26.637177
 20
4.586558999999999
 30
0.0
 11
26.462883
 21
4.621397
 31
0.0
  0
LINE
  5
7FE
330
1F
100
AcDbEntity
  8
1
  6
CONTINUOUS
370
50
 62
4
100
AcDbLine
 10
26.811472
 20
4.551801999999999
 30
0.0
 11
26.637177
 21
4.586558999999999
 31
0.0
  0
LINE
  5
7FF
330
1F
100
AcDbEntity
  8
1
  6
CONTINUOUS
370
50
 62
4
100
AcDbLine
 10
30.453461
 20
-2.415861
 30
0.0
 11
29.601549
 21
-2.246271
 31
0.0
  0
LINE
  5
800
330
1F
100
AcDbEntity
  8
1
  6
CONTINUOUS
370
50
 62
4
100
AcDbLine
 10
26.985767
 20
4.517119
 30
0.0
 11
26.811472
 21
4.551801999999999
 31
0.0
  0
LINE
  5
801
330
1F
100
AcDbEntity
  8
1
  6
CONTINUOUS
370
50
 62
4
100
AcDbLine
 10
27.160067
 20
4.482508
 30
0.0
 11
26.985767
 21
4.517119
 31
0.0
  0
LINE
  5
802
330
1F
100
AcDbEntity
  8
1
  6
CONTINUOUS
370
50
 62
4
100
AcDbLine
 10
27.356348
 20
4.443611
 30
0.0
 11
27.160067
 21
4.482508
 31
0.0
  0
LINE
  5
803
330
1F
100
AcDbEntity
  8
1
  6
CONTINUOUS
370
50
 62
4
100
AcDbLine
 10
27.552633
 20
4.404792
 30
0.0
 11
27.356348
 21
4.443611
 31
0.0
  0
LINE
  5
804
330
1F
100
AcDbEntity
  8
1
  6
CONTINUOUS
370
50
 62
4
100
AcDbLine
 10
27.74892
 20
4.366046
 30
0.0
 11
27.552633
 21
4.404792
 31
0.0
  0
LINE
  5
805
330
1F
100
AcDbEntity
  8
1
  6
CONTINUOUS
370
50
 62
4
100
AcDbLine
 10
23.484465
 20
5.230065
 30
0.0
 11
23.4083
 21
5.245083
 31
0.0
  0
LINE
  5
806
330
1F
100
AcDbEntity
  8
1
  6
CONTINUOUS
370
50
 62
4
100
AcDbLine
 10
27.94521
 20
4.327366
 30
0.0
 11
27.74892
 21
4.366046
 31
0.0
  0
LINE
  5
807
330
1F
100
AcDbEntity
  8
1
  6
CONTINUOUS
370
50
 62
4
100
AcDbLine
 10
28.087307
 20
4.299403
 30
0.0
 11
27.94521
 21
4.327366
 31
0.0
  0
LINE
  5
808
330
1F
100
AcDbEntity
  8
1
  6
CONTINUOUS
370
50
 62
4
100
AcDbLine
 10
28.229408
 20
4.271471
 30
0.0
 11
28.087307
 21
4.299403
 31
0.0
  0
LINE
  5
809
330
1F
100
AcDbEntity
  8
1
  6
CONTINUOUS
370
50
 62
4
100
AcDbLine
 10
28.371508
 20
4.243567
 30
0.0
 11
28.229408
 21
4.271471
 31
0.0
  0
LINE
  5
80A
330
1F
100
AcDbEntity
  8
1
  6
CONTINUOUS
370
50
 62
4
100
AcDbLine
 10
28.513609
 20
4.215691
 30
0.0
 11
28.371508
 21
4.243567
 31
0.0
  0
LINE
  5
80B
330
1F
100
AcDbEntity
  8
1
  6
CONTINUOUS
370
50
 62
4
100
AcDbLine
 10
28.624544
 20
4.193947
 30
0.0
 11
28.513609
 21
4.215691
 31
0.0
  0
LINE
  5
80C
330
1F
100
AcDbEntity
  8
1
  6
CONTINUOUS
370
50
 62
4
100
AcDbLine
 10
28.735477
 20
4.172219
 30
0.0
 11
28.624544
 21
4.193947
 31
0.0
  0
LINE
  5
80D
330
1F
100
AcDbEntity
  8
1
  6
CONTINUOUS
370
50
 62
4
100
AcDbLine
 10
28.846413
 20
4.150506
 30
0.0
 11
28.735477
 21
4.172219
 31
0.0
  0
LINE
  5
80E
330
1F
100
AcDbEntity
  8
1
  6
CONTINUOUS
370
50
 62
4
100
AcDbLine
 10
28.957346
 20
4.128808
 30
0.0
 11
28.846413
 21
4.150506
 31
0.0
  0
LINE
  5
80F
330
1F
100
AcDbEntity
  8
1
  6
CONTINUOUS
370
50
 62
4
100
AcDbLine
 10
29.068268
 20
4.107127999999999
 30
0.0
 11
28.957346
 21
4.128808
 31
0.0
  0
LINE
  5
810
330
1F
100
AcDbEntity
  8
1
  6
CONTINUOUS
370
50
 62
4
100
AcDbLine
 10
29.179188
 20
4.085463
 30
0.0
 11
29.068268
 21
4.107127999999999
 31
0.0
  0
LINE
  5
811
330
1F
100
AcDbEntity
  8
1
  6
CONTINUOUS
370
50
 62
4
100
AcDbLine
 10
29.290108
 20
4.063813
 30
0.0
 11
29.179188
 21
4.085463
 31
0.0
  0
LINE
  5
812
330
1F
100
AcDbEntity
  8
1
  6
CONTINUOUS
370
50
 62
4
100
AcDbLine
 10
29.401028
 20
4.042179
 30
0.0
 11
29.290108
 21
4.063813
 31
0.0
  0
LINE
  5
813
330
1F
100
AcDbEntity
  8
1
  6
CONTINUOUS
370
50
 62
4
100
AcDbLine
 10
29.517563
 20
4.019466
 30
0.0
 11
29.401028
 21
4.042179
 31
0.0
  0
LINE
  5
814
330
1F
100
AcDbEntity
  8
1
  6
CONTINUOUS
370
50
 62
4
100
AcDbLine
 10
29.634098
 20
3.996772
 30
0.0
 11
29.517563
 21
4.019466
 31
0.0
  0
LINE
  5
815
330
1F
100
AcDbEntity
  8
1
  6
CONTINUOUS
370
50
 62
4
100
AcDbLine
 10
29.750631
 20
3.974098
 30
0.0
 11
29.634098
 21
3.996772
 31
0.0
  0
LINE
  5
816
330
1F
100
AcDbEntity
  8
1
  6
CONTINUOUS
370
50
 62
4
100
AcDbLine
 10
29.867161
 20
3.951447
 30
0.0
 11
29.750631
 21
3.974098
 31
0.0
  0
LINE
  5
817
330
1F
100
AcDbEntity
  8
1
  6
CONTINUOUS
370
50
 62
4
100
AcDbLine
 10
29.987627
 20
3.928199
 30
0.0
 11
29.867161
 21
3.951447
 31
0.0
  0
LINE
  5
818
330
1F
100
AcDbEntity
  8
1
  6
CONTINUOUS
370
50
 62
4
100
AcDbLine
 10
35.986584
 20
-2.375293
 30
0.0
 11
35.228561
 21
-2.229301
 31
0.0
  0
LINE
  5
819
330
1F
100
AcDbEntity
  8
1
  6
CONTINUOUS
370
50
 62
4
100
AcDbLine
 10
23.4083
 20
5.245083
 30
0.0
 11
23.331825
 21
5.259783
 31
0.0
  0
LINE
  5
81A
330
1F
100
AcDbEntity
  8
1
  6
CONTINUOUS
370
50
 62
4
100
AcDbLine
 10
30.108091
 20
3.905196
 30
0.0
 11
29.987627
 21
3.928199
 31
0.0
  0
LINE
  5
81B
330
1F
100
AcDbEntity
  8
1
  6
CONTINUOUS
370
50
 62
4
100
AcDbLine
 10
30.228554
 20
3.882437
 30
0.0
 11
30.108091
 21
3.905196
 31
0.0
  0
LINE
  5
81C
330
1F
100
AcDbEntity
  8
1
  6
CONTINUOUS
370
50
 62
4
100
AcDbLine
 10
22.37837
 20
-4.971814999999999
 30
0.0
 11
22.243296
 21
-4.946395
 31
0.0
  0
LINE
  5
81D
330
1F
100
AcDbEntity
  8
1
  6
CONTINUOUS
370
50
 62
4
100
AcDbLine
 10
42.745235
 20
2.287097
 30
0.0
 11
41.846272
 21
2.455459
 31
0.0
  0
LINE
  5
81E
330
1F
100
AcDbEntity
  8
1
  6
CONTINUOUS
370
50
 62
4
100
AcDbLine
 10
23.331825
 20
5.259783
 30
0.0
 11
23.254982
 21
5.274169
 31
0.0
  0
LINE
  5
81F
330
1F
100
AcDbEntity
  8
1
  6
CONTINUOUS
370
50
 62
4
100
AcDbLine
 10
30.349012
 20
3.859921
 30
0.0
 11
30.228554
 21
3.882437
 31
0.0
  0
LINE
  5
820
330
1F
100
AcDbEntity
  8
1
  6
CONTINUOUS
370
50
 62
4
100
AcDbLine
 10
30.469488
 20
3.837643
 30
0.0
 11
30.349012
 21
3.859921
 31
0.0
  0
LINE
  5
821
330
1F
100
AcDbEntity
  8
1
  6
CONTINUOUS
370
50
 62
4
100
AcDbLine
 10
30.589962
 20
3.815605
 30
0.0
 11
30.469488
 21
3.837643
 31
0.0
  0
LINE
  5
822
330
1F
100
AcDbEntity
  8
1
  6
CONTINUOUS
370
50
 62
4
100
AcDbLine
 10
23.254982
 20
5.274169
 30
0.0
 11
23.177725
 21
5.288245
 31
0.0
  0
LINE
  5
823
330
1F
100
AcDbEntity
  8
1
  6
CONTINUOUS
370
50
 62
4
100
AcDbLine
 10
30.710436
 20
3.793805
 30
0.0
 11
30.589962
 21
3.815605
 31
0.0
  0
LINE
  5
824
330
1F
100
AcDbEntity
  8
1
  6
CONTINUOUS
370
50
 62
4
100
AcDbLine
 10
30.830908
 20
3.772241
 30
0.0
 11
30.710436
 21
3.793805
 31
0.0
  0
LINE
  5
825
330
1F
100
AcDbEntity
  8
1
  6
CONTINUOUS
370
50
 62
4
100
AcDbLine
 10
18.512815
 20
5.192648
 30
0.0
 11
18.24415
 21
5.240663
 31
0.0
  0
LINE
  5
826
330
1F
100
AcDbEntity
  8
1
  6
CONTINUOUS
370
50
 62
4
100
AcDbLine
 10
18.24415
 20
5.240663
 30
0.0
 11
17.982668
 21
5.287207
 31
0.0
  0
LINE
  5
827
330
1F
100
AcDbEntity
  8
1
  6
CONTINUOUS
370
50
 62
4
100
AcDbLine
 10
23.177725
 20
5.288245
 30
0.0
 11
23.1
 21
5.302014
 31
0.0
  0
LINE
  5
828
330
1F
100
AcDbEntity
  8
1
  6
CONTINUOUS
370
50
 62
4
100
AcDbLine
 10
31.025709
 20
3.737867
 30
0.0
 11
30.830908
 21
3.772241
 31
0.0
  0
LINE
  5
829
330
1F
100
AcDbEntity
  8
1
  6
CONTINUOUS
370
50
 62
4
100
AcDbLine
 10
18.787699
 20
5.144323
 30
0.0
 11
18.512815
 21
5.192648
 31
0.0
  0
LINE
  5
82A
330
1F
100
AcDbEntity
  8
1
  6
CONTINUOUS
370
50
 62
4
100
AcDbLine
 10
17.982668
 20
5.287207
 30
0.0
 11
17.728453
 21
5.331303
 31
0.0
  0
LINE
  5
82B
330
1F
100
AcDbEntity
  8
1
  6
CONTINUOUS
370
50
 62
4
100
AcDbLine
 10
31.22051
 20
3.704098
 30
0.0
 11
31.025709
 21
3.737867
 31
0.0
  0
LINE
  5
82C
330
1F
100
AcDbEntity
  8
1
  6
CONTINUOUS
370
50
 62
4
100
AcDbLine
 10
15.942068
 20
-5.448755999999999
 30
0.0
 11
15.859418
 21
-5.434629
 31
0.0
  0
LINE
  5
82D
330
1F
100
AcDbEntity
  8
1
  6
CONTINUOUS
370
50
 62
4
100
AcDbLine
 10
47.660137
 20
2.42505
 30
0.0
 11
47.417988
 21
2.466411
 31
0.0
  0
LINE
  5
82E
330
1F
100
AcDbEntity
  8
1
  6
CONTINUOUS
370
50
 62
4
100
AcDbLine
 10
31.355547
 20
3.681039
 30
0.0
 11
31.22051
 21
3.704098
 31
0.0
  0
LINE
  5
82F
330
1F
100
AcDbEntity
  8
1
  6
CONTINUOUS
370
50
 62
4
100
AcDbLine
 10
19.068071
 20
5.096454
 30
0.0
 11
18.787699
 21
5.144323
 31
0.0
  0
LINE
  5
830
330
1F
100
AcDbEntity
  8
1
  6
CONTINUOUS
370
50
 62
4
100
AcDbLine
 10
36.744648
 20
-2.504488
 30
0.0
 11
35.986584
 21
-2.375293
 31
0.0
  0
LINE
  5
831
330
1F
100
AcDbEntity
  8
1
  6
CONTINUOUS
370
50
 62
4
100
AcDbLine
 10
31.490585
 20
3.658262
 30
0.0
 11
31.355547
 21
3.681039
 31
0.0
  0
LINE
  5
832
330
1F
100
AcDbEntity
  8
1
  6
CONTINUOUS
370
50
 62
4
100
AcDbLine
 10
31.625624
 20
3.635766
 30
0.0
 11
31.490585
 21
3.658262
 31
0.0
  0
LINE
  5
833
330
1F
100
AcDbEntity
  8
1
  6
CONTINUOUS
370
50
 62
4
100
AcDbLine
 10
17.728453
 20
5.331303
 30
0.0
 11
17.481773
 21
5.371935
 31
0.0
  0
LINE
  5
834
330
1F
100
AcDbEntity
  8
1
  6
CONTINUOUS
370
50
 62
4
100
AcDbLine
 10
31.760662
 20
3.613546
 30
0.0
 11
31.625624
 21
3.635766
 31
0.0
  0
LINE
  5
835
330
1F
100
AcDbEntity
  8
1
  6
CONTINUOUS
370
50
 62
4
100
AcDbLine
 10
19.353539
 20
5.049644
 30
0.0
 11
19.068071
 21
5.096454
 31
0.0
  0
LINE
  5
836
330
1F
100
AcDbEntity
  8
1
  6
CONTINUOUS
370
50
 62
4
100
AcDbLine
 10
31.348375
 20
-2.561973
 30
0.0
 11
30.453461
 21
-2.415861
 31
0.0
  0
LINE
  5
837
330
1F
100
AcDbEntity
  8
1
  6
CONTINUOUS
370
50
 62
4
100
AcDbLine
 10
47.417988
 20
2.466411
 30
0.0
 11
47.17585
 21
2.505856
 31
0.0
  0
LINE
  5
838
330
1F
100
AcDbEntity
  8
1
  6
CONTINUOUS
370
50
 62
4
100
AcDbLine
 10
31.895712
 20
3.591599
 30
0.0
 11
31.760662
 21
3.613546
 31
0.0
  0
LINE
  5
839
330
1F
100
AcDbEntity
  8
1
  6
CONTINUOUS
370
50
 62
4
100
AcDbLine
 10
41.846272
 20
2.455459
 30
0.0
 11
40.967716
 21
2.598028
 31
0.0
  0
LINE
  5
83A
330
1F
100
AcDbEntity
  8
1
  6
CONTINUOUS
370
50
 62
4
100
AcDbLine
 10
22.243296
 20
-4.946395
 30
0.0
 11
22.098633
 21
-4.92317
 31
0.0
  0
LINE
  5
83B
330
1F
100
AcDbEntity
  8
1
  6
CONTINUOUS
370
50
 62
4
100
AcDbLine
 10
32.030762
 20
3.569922
 30
0.0
 11
31.895712
 21
3.591599
 31
0.0
  0
LINE
  5
83C
330
1F
100
AcDbEntity
  8
1
  6
CONTINUOUS
370
50
 62
4
100
AcDbLine
 10
32.16581
 20
3.548512
 30
0.0
 11
32.030762
 21
3.569922
 31
0.0
  0
LINE
  5
83D
330
1F
100
AcDbEntity
  8
1
  6
CONTINUOUS
370
50
 62
4
100
AcDbLine
 10
32.300865
 20
3.527367
 30
0.0
 11
32.16581
 21
3.548512
 31
0.0
  0
LINE
  5
83E
330
1F
100
AcDbEntity
  8
1
  6
CONTINUOUS
370
50
 62
4
100
AcDbLine
 10
19.643703
 20
5.004500999999999
 30
0.0
 11
19.353539
 21
5.049644
 31
0.0
  0
LINE
  5
83F
330
1F
100
AcDbEntity
  8
1
  6
CONTINUOUS
370
50
 62
4
100
AcDbLine
 10
47.17585
 20
2.505856
 30
0.0
 11
46.933708
 21
2.543406
 31
0.0
  0
LINE
  5
840
330
1F
100
AcDbEntity
  8
1
  6
CONTINUOUS
370
50
 62
4
100
AcDbLine
 10
32.437351
 20
3.506263
 30
0.0
 11
32.300865
 21
3.527367
 31
0.0
  0
LINE
  5
841
330
1F
100
AcDbEntity
  8
1
  6
CONTINUOUS
370
50
 62
4
100
AcDbLine
 10
43.818478
 20
-4.856655
 30
0.0
 11
43.524075
 21
-4.81161
 31
0.0
  0
LINE
  5
842
330
1F
100
AcDbEntity
  8
1
  6
CONTINUOUS
370
50
 62
4
100
AcDbLine
 10
32.573841
 20
3.485424
 30
0.0
 11
32.437351
 21
3.506263
 31
0.0
  0
LINE
  5
843
330
1F
100
AcDbEntity
  8
1
  6
CONTINUOUS
370
50
 62
4
100
AcDbLine
 10
17.481773
 20
5.371935
 30
0.0
 11
17.243816
 21
5.407808999999999
 31
0.0
  0
LINE
  5
844
330
1F
100
AcDbEntity
  8
1
  6
CONTINUOUS
370
50
 62
4
100
AcDbLine
 10
32.725128
 20
3.46263
 30
0.0
 11
32.573841
 21
3.485424
 31
0.0
  0
LINE
  5
845
330
1F
100
AcDbEntity
  8
1
  6
CONTINUOUS
370
50
 62
4
100
AcDbLine
 10
20.328255
 20
-4.219139999999999
 30
0.0
 11
19.971661
 21
-4.165582
 31
0.0
  0
LINE
  5
846
330
1F
100
AcDbEntity
  8
1
  6
CONTINUOUS
370
50
 62
4
100
AcDbLine
 10
32.876419
 20
3.440155
 30
0.0
 11
32.725128
 21
3.46263
 31
0.0
  0
LINE
  5
847
330
1F
100
AcDbEntity
  8
1
  6
CONTINUOUS
370
50
 62
4
100
AcDbLine
 10
46.933708
 20
2.543406
 30
0.0
 11
46.691574
 21
2.579086
 31
0.0
  0
LINE
  5
848
330
1F
100
AcDbEntity
  8
1
  6
CONTINUOUS
370
50
 62
4
100
AcDbLine
 10
33.02771
 20
3.417993
 30
0.0
 11
32.876419
 21
3.440155
 31
0.0
  0
LINE
  5
849
330
1F
100
AcDbEntity
  8
1
  6
CONTINUOUS
370
50
 62
4
100
AcDbLine
 10
37.502735
 20
-2.615073
 30
0.0
 11
36.744648
 21
-2.504488
 31
0.0
  0
LINE
  5
84A
330
1F
100
AcDbEntity
  8
1
  6
CONTINUOUS
370
50
 62
4
100
AcDbLine
 10
19.938175
 20
4.961627
 30
0.0
 11
19.643703
 21
5.004500999999999
 31
0.0
  0
LINE
  5
84B
330
1F
100
AcDbEntity
  8
1
  6
CONTINUOUS
370
50
 62
4
100
AcDbLine
 10
33.179005
 20
3.396142
 30
0.0
 11
33.02771
 21
3.417993
 31
0.0
  0
LINE
  5
84C
330
1F
100
AcDbEntity
  8
1
  6
CONTINUOUS
370
50
 62
4
100
AcDbLine
 10
33.330311
 20
3.374598
 30
0.0
 11
33.179005
 21
3.396142
 31
0.0
  0
LINE
  5
84D
330
1F
100
AcDbEntity
  8
1
  6
CONTINUOUS
370
50
 62
4
100
AcDbLine
 10
44.977322
 20
4.826747
 30
0.0
 11
44.69186
 21
4.866823999999999
 31
0.0
  0
LINE
  5
84E
330
1F
100
AcDbEntity
  8
1
  6
CONTINUOUS
370
50
 62
4
100
AcDbLine
 10
33.481602
 20
3.353363
 30
0.0
 11
33.330311
 21
3.374598
 31
0.0
  0
LINE
  5
84F
330
1F
100
AcDbEntity
  8
1
  6
CONTINUOUS
370
50
 62
4
100
AcDbLine
 10
46.691574
 20
2.579086
 30
0.0
 11
46.449436
 21
2.612919
 31
0.0
  0
LINE
  5
850
330
1F
100
AcDbEntity
  8
1
  6
CONTINUOUS
370
50
 62
4
100
AcDbLine
 10
33.6329
 20
3.33243
 30
0.0
 11
33.481602
 21
3.353363
 31
0.0
  0
LINE
  5
851
330
1F
100
AcDbEntity
  8
1
  6
CONTINUOUS
370
50
 62
4
100
AcDbLine
 10
33.784203
 20
3.311799
 30
0.0
 11
33.6329
 21
3.33243
 31
0.0
  0
LINE
  5
852
330
1F
100
AcDbEntity
  8
1
  6
CONTINUOUS
370
50
 62
4
100
AcDbLine
 10
16.026327
 20
-5.46015
 30
0.0
 11
15.942068
 21
-5.448755999999999
 31
0.0
  0
LINE
  5
853
330
1F
100
AcDbEntity
  8
1
  6
CONTINUOUS
370
50
 62
4
100
AcDbLine
 10
33.927326
 20
3.292559
 30
0.0
 11
33.784203
 21
3.311799
 31
0.0
  0
LINE
  5
854
330
1F
100
AcDbEntity
  8
1
  6
CONTINUOUS
370
50
 62
4
100
AcDbLine
 10
20.236555
 20
4.921628
 30
0.0
 11
19.938175
 21
4.961627
 31
0.0
  0
LINE
  5
855
330
1F
100
AcDbEntity
  8
1
  6
CONTINUOUS
370
50
 62
4
100
AcDbLine
 10
22.098633
 20
-4.92317
 30
0.0
 11
21.945135
 21
-4.902627
 31
0.0
  0
LINE
  5
856
330
1F
100
AcDbEntity
  8
1
  6
CONTINUOUS
370
50
 62
4
100
AcDbLine
 10
34.0919
 20
3.270768
 30
0.0
 11
33.927326
 21
3.292559
 31
0.0
  0
LINE
  5
857
330
1F
100
AcDbEntity
  8
1
  6
CONTINUOUS
370
50
 62
4
100
AcDbLine
 10
46.449436
 20
2.612919
 30
0.0
 11
46.207302
 21
2.644928
 31
0.0
  0
LINE
  5
858
330
1F
100
AcDbEntity
  8
1
  6
CONTINUOUS
370
50
 62
4
100
AcDbLine
 10
32.250896
 20
-2.680398
 30
0.0
 11
31.348375
 21
-2.561973
 31
0.0
  0
LINE
  5
859
330
1F
100
AcDbEntity
  8
1
  6
CONTINUOUS
370
50
 62
4
100
AcDbLine
 10
17.243816
 20
5.407808999999999
 30
0.0
 11
17.014427
 21
5.437774
 31
0.0
  0
LINE
  5
85A
330
1F
100
AcDbEntity
  8
1
  6
CONTINUOUS
370
50
 62
4
100
AcDbLine
 10
34.256474
 20
3.249331
 30
0.0
 11
34.0919
 21
3.270768
 31
0.0
  0
LINE
  5
85B
330
1F
100
AcDbEntity
  8
1
  6
CONTINUOUS
370
50
 62
4
100
AcDbLine
 10
34.421036
 20
3.228249
 30
0.0
 11
34.256474
 21
3.249331
 31
0.0
  0
LINE
  5
85C
330
1F
100
AcDbEntity
  8
1
  6
CONTINUOUS
370
50
 62
4
100
AcDbLine
 10
40.967716
 20
2.598028
 30
0.0
 11
40.006618
 21
2.72011
 31
0.0
  0
LINE
  5
85D
330
1F
100
AcDbEntity
  8
1
  6
CONTINUOUS
370
50
 62
4
100
AcDbLine
 10
34.585598
 20
3.207521
 30
0.0
 11
34.421036
 21
3.228249
 31
0.0
  0
LINE
  5
85E
330
1F
100
AcDbEntity
  8
1
  6
CONTINUOUS
370
50
 62
4
100
AcDbLine
 10
34.750153
 20
3.187152
 30
0.0
 11
34.585598
 21
3.207521
 31
0.0
  0
LINE
  5
85F
330
1F
100
AcDbEntity
  8
1
  6
CONTINUOUS
370
50
 62
4
100
AcDbLine
 10
38.260818
 20
-2.707986
 30
0.0
 11
37.502735
 21
-2.615073
 31
0.0
  0
LINE
  5
860
330
1F
100
AcDbEntity
  8
1
  6
CONTINUOUS
370
50
 62
4
100
AcDbLine
 10
34.914703
 20
3.16714
 30
0.0
 11
34.750153
 21
3.187152
 31
0.0
  0
LINE
  5
861
330
1F
100
AcDbEntity
  8
1
  6
CONTINUOUS
370
50
 62
4
100
AcDbLine
 10
20.538452
 20
4.885108
 30
0.0
 11
20.236555
 21
4.921628
 31
0.0
  0
LINE
  5
862
330
1F
100
AcDbEntity
  8
1
  6
CONTINUOUS
370
50
 62
4
100
AcDbLine
 10
35.079235
 20
3.147492
 30
0.0
 11
34.914703
 21
3.16714
 31
0.0
  0
LINE
  5
863
330
1F
100
AcDbEntity
  8
1
  6
CONTINUOUS
370
50
 62
4
100
AcDbLine
 10
46.207302
 20
2.644928
 30
0.0
 11
45.513214
 21
2.726782
 31
0.0
  0
LINE
  5
864
330
1F
100
AcDbEntity
  8
1
  6
CONTINUOUS
370
50
 62
4
100
AcDbLine
 10
35.243767
 20
3.128209
 30
0.0
 11
35.079235
 21
3.147492
 31
0.0
  0
LINE
  5
865
330
1F
100
AcDbEntity
  8
1
  6
CONTINUOUS
370
50
 62
4
100
AcDbLine
 10
35.417603
 20
3.108237
 30
0.0
 11
35.243767
 21
3.128209
 31
0.0
  0
LINE
  5
866
330
1F
100
AcDbEntity
  8
1
  6
CONTINUOUS
370
50
 62
4
100
AcDbLine
 10
35.591431
 20
3.088685
 30
0.0
 11
35.417603
 21
3.108237
 31
0.0
  0
LINE
  5
867
330
1F
100
AcDbEntity
  8
1
  6
CONTINUOUS
370
50
 62
4
100
AcDbLine
 10
35.765236
 20
3.069562
 30
0.0
 11
35.591431
 21
3.088685
 31
0.0
  0
LINE
  5
868
330
1F
100
AcDbEntity
  8
1
  6
CONTINUOUS
370
50
 62
4
100
AcDbLine
 10
21.945135
 20
-4.902627
 30
0.0
 11
21.783558
 21
-4.885250999999999
 31
0.0
  0
LINE
  5
869
330
1F
100
AcDbEntity
  8
1
  6
CONTINUOUS
370
50
 62
4
100
AcDbLine
 10
35.939037
 20
3.050972
 30
0.0
 11
35.765236
 21
3.069562
 31
0.0
  0
LINE
  5
86A
330
1F
100
AcDbEntity
  8
1
  6
CONTINUOUS
370
50
 62
4
100
AcDbLine
 10
17.014427
 20
5.437774
 30
0.0
 11
16.794405
 21
5.460559
 31
0.0
  0
LINE
  5
86B
330
1F
100
AcDbEntity
  8
1
  6
CONTINUOUS
370
50
 62
4
100
AcDbLine
 10
33.243702
 20
-2.783103
 30
0.0
 11
32.250896
 21
-2.680398
 31
0.0
  0
LINE
  5
86C
330
1F
100
AcDbEntity
  8
1
  6
CONTINUOUS
370
50
 62
4
100
AcDbLine
 10
36.112846
 20
3.033113
 30
0.0
 11
35.939037
 21
3.050972
 31
0.0
  0
LINE
  5
86D
330
1F
100
AcDbEntity
  8
1
  6
CONTINUOUS
370
50
 62
4
100
AcDbLine
 10
16.112331
 20
-5.46889
 30
0.0
 11
16.026327
 21
-5.46015
 31
0.0
  0
LINE
  5
86E
330
1F
100
AcDbEntity
  8
1
  6
CONTINUOUS
370
50
 62
4
100
AcDbLine
 10
36.286648
 20
3.015982
 30
0.0
 11
36.112846
 21
3.033113
 31
0.0
  0
LINE
  5
86F
330
1F
100
AcDbEntity
  8
1
  6
CONTINUOUS
370
50
 62
4
100
AcDbLine
 10
45.513214
 20
2.726782
 30
0.0
 11
44.819099
 21
2.794385
 31
0.0
  0
LINE
  5
870
330
1F
100
AcDbEntity
  8
1
  6
CONTINUOUS
370
50
 62
4
100
AcDbLine
 10
40.006618
 20
2.72011
 30
0.0
 11
39.042843
 21
2.812894
 31
0.0
  0
LINE
  5
871
330
1F
100
AcDbEntity
  8
1
  6
CONTINUOUS
370
50
 62
4
100
AcDbLine
 10
36.460464
 20
2.999568
 30
0.0
 11
36.286648
 21
3.015982
 31
0.0
  0
LINE
  5
872
330
1F
100
AcDbEntity
  8
1
  6
CONTINUOUS
370
50
 62
4
100
AcDbLine
 10
19.971661
 20
-4.165582
 30
0.0
 11
19.633587
 21
-4.133696
 31
0.0
  0
LINE
  5
873
330
1F
100
AcDbEntity
  8
1
  6
CONTINUOUS
370
50
 62
4
100
AcDbLine
 10
36.634281
 20
2.983862
 30
0.0
 11
36.460464
 21
2.999568
 31
0.0
  0
LINE
  5
874
330
1F
100
AcDbEntity
  8
1
  6
CONTINUOUS
370
50
 62
4
100
AcDbLine
 10
36.803425
 20
2.969248
 30
0.0
 11
36.634281
 21
2.983862
 31
0.0
  0
LINE
  5
875
330
1F
100
AcDbEntity
  8
1
  6
CONTINUOUS
370
50
 62
4
100
AcDbLine
 10
44.11158
 20
-4.881285
 30
0.0
 11
43.818478
 21
-4.856655
 31
0.0
  0
LINE
  5
876
330
1F
100
AcDbEntity
  8
1
  6
CONTINUOUS
370
50
 62
4
100
AcDbLine
 10
36.972565
 20
2.955286
 30
0.0
 11
36.803425
 21
2.969248
 31
0.0
  0
LINE
  5
877
330
1F
100
AcDbEntity
  8
1
  6
CONTINUOUS
370
50
 62
4
100
AcDbLine
 10
21.783558
 20
-4.885250999999999
 30
0.0
 11
21.615152
 21
-4.871593
 31
0.0
  0
LINE
  5
878
330
1F
100
AcDbEntity
  8
1
  6
CONTINUOUS
370
50
 62
4
100
AcDbLine
 10
20.721663
 20
4.870642
 30
0.0
 11
20.538452
 21
4.885108
 31
0.0
  0
LINE
  5
879
330
1F
100
AcDbEntity
  8
1
  6
CONTINUOUS
370
50
 62
4
100
AcDbLine
 10
37.141716
 20
2.941964
 30
0.0
 11
36.972565
 21
2.955286
 31
0.0
  0
LINE
  5
87A
330
1F
100
AcDbEntity
  8
1
  6
CONTINUOUS
370
50
 62
4
100
AcDbLine
 10
44.819099
 20
2.794385
 30
0.0
 11
44.124947
 21
2.848146
 31
0.0
  0
LINE
  5
87B
330
1F
100
AcDbEntity
  8
1
  6
CONTINUOUS
370
50
 62
4
100
AcDbLine
 10
34.328182
 20
-2.865909
 30
0.0
 11
33.243702
 21
-2.783103
 31
0.0
  0
LINE
  5
87C
330
1F
100
AcDbEntity
  8
1
  6
CONTINUOUS
370
50
 62
4
100
AcDbLine
 10
37.310871
 20
2.929276
 30
0.0
 11
37.141716
 21
2.941964
 31
0.0
  0
LINE
  5
87D
330
1F
100
AcDbEntity
  8
1
  6
CONTINUOUS
370
50
 62
4
100
AcDbLine
 10
48.489998
 20
0.000714
 30
0.0
 11
48.33244699999999
 21
0.011956
 31
0.0
  0
LINE
  5
87E
330
1F
100
AcDbEntity
  8
1
  6
CONTINUOUS
370
50
 62
4
100
AcDbLine
 10
37.480042
 20
2.917212
 30
0.0
 11
37.310871
 21
2.929276
 31
0.0
  0
LINE
  5
87F
330
1F
100
AcDbEntity
  8
1
  6
CONTINUOUS
370
50
 62
4
100
AcDbLine
 10
16.200211
 20
-5.47505
 30
0.0
 11
16.112331
 21
-5.46889
 31
0.0
  0
LINE
  5
880
330
1F
100
AcDbEntity
  8
1
  6
CONTINUOUS
370
50
 62
4
100
AcDbLine
 10
39.042843
 20
2.812894
 30
0.0
 11
38.101387
 21
2.878157
 31
0.0
  0
LINE
  5
881
330
1F
100
AcDbEntity
  8
1
  6
CONTINUOUS
370
50
 62
4
100
AcDbLine
 10
16.794405
 20
5.460559
 30
0.0
 11
16.583576
 21
5.474988
 31
0.0
  0
LINE
  5
882
330
1F
100
AcDbEntity
  8
1
  6
CONTINUOUS
370
50
 62
4
100
AcDbLine
 10
37.649208
 20
2.905765
 30
0.0
 11
37.480042
 21
2.917212
 31
0.0
  0
LINE
  5
883
330
1F
100
AcDbEntity
  8
1
  6
CONTINUOUS
370
50
 62
4
100
AcDbLine
 10
37.818382
 20
2.894928
 30
0.0
 11
37.649208
 21
2.905765
 31
0.0
  0
LINE
  5
884
330
1F
100
AcDbEntity
  8
1
  6
CONTINUOUS
370
50
 62
4
100
AcDbLine
 10
44.69186
 20
4.866823999999999
 30
0.0
 11
44.402954
 21
4.884865
 31
0.0
  0
LINE
  5
885
330
1F
100
AcDbEntity
  8
1
  6
CONTINUOUS
370
50
 62
4
100
AcDbLine
 10
37.987553
 20
2.884693
 30
0.0
 11
37.818382
 21
2.894928
 31
0.0
  0
LINE
  5
886
330
1F
100
AcDbEntity
  8
1
  6
CONTINUOUS
370
50
 62
4
100
AcDbLine
 10
38.101387
 20
2.878142
 30
0.0
 11
37.987553
 21
2.884693
 31
0.0
  0
LINE
  5
887
330
1F
100
AcDbEntity
  8
1
  6
CONTINUOUS
370
50
 62
4
100
AcDbLine
 10
44.124947
 20
2.848146
 30
0.0
 11
43.430756
 21
2.887675
 31
0.0
  0
LINE
  5
888
330
1F
100
AcDbEntity
  8
1
  6
CONTINUOUS
370
50
 62
4
100
AcDbLine
 10
21.615152
 20
-4.871593
 30
0.0
 11
21.442198
 21
-4.862185999999999
 31
0.0
  0
LINE
  5
889
330
1F
100
AcDbEntity
  8
1
  6
CONTINUOUS
370
50
 62
4
100
AcDbLine
 10
20.904388
 20
4.861282999999999
 30
0.0
 11
20.721663
 21
4.870642
 31
0.0
  0
LINE
  5
88A
330
1F
100
AcDbEntity
  8
1
  6
CONTINUOUS
370
50
 62
4
100
AcDbLine
 10
35.462982
 20
-2.918674
 30
0.0
 11
34.328182
 21
-2.865909
 31
0.0
  0
LINE
  5
88B
330
1F
100
AcDbEntity
  8
1
  6
CONTINUOUS
370
50
 62
4
100
AcDbLine
 10
16.290001
 20
-5.478708999999999
 30
0.0
 11
16.200211
 21
-5.47505
 31
0.0
  0
LINE
  5
88C
330
1F
100
AcDbEntity
  8
1
  6
CONTINUOUS
370
50
 62
4
100
AcDbLine
 10
19.633587
 20
-4.133696
 30
0.0
 11
19.36504
 21
-4.122818
 31
0.0
  0
LINE
  5
88D
330
1F
100
AcDbEntity
  8
1
  6
CONTINUOUS
370
50
 62
4
100
AcDbLine
 10
43.430756
 20
2.887675
 30
0.0
 11
42.736557
 21
2.912287
 31
0.0
  0
LINE
  5
88E
330
1F
100
AcDbEntity
  8
1
  6
CONTINUOUS
370
50
 62
4
100
AcDbLine
 10
21.442198
 20
-4.862185999999999
 30
0.0
 11
21.265589
 21
-4.85722
 31
0.0
  0
LINE
  5
88F
330
1F
100
AcDbEntity
  8
1
  6
CONTINUOUS
370
50
 62
4
100
AcDbLine
 10
16.583576
 20
5.474988
 30
0.0
 11
16.381641
 21
5.47995
 31
0.0
  0
LINE
  5
890
330
1F
100
AcDbEntity
  8
1
  6
CONTINUOUS
370
50
 62
4
100
AcDbLine
 10
21.085836
 20
4.856863
 30
0.0
 11
20.904388
 21
4.861282999999999
 31
0.0
  0
LINE
  5
891
330
1F
100
AcDbEntity
  8
1
  6
CONTINUOUS
370
50
 62
4
100
AcDbLine
 10
36.288052
 20
-2.931653
 30
0.0
 11
35.462982
 21
-2.918674
 31
0.0
  0
LINE
  5
892
330
1F
100
AcDbEntity
  8
1
  6
CONTINUOUS
370
50
 62
4
100
AcDbLine
 10
16.381641
 20
-5.47995
 30
0.0
 11
16.290001
 21
-5.478708999999999
 31
0.0
  0
LINE
  5
893
330
1F
100
AcDbEntity
  8
1
  6
CONTINUOUS
370
50
 62
4
100
AcDbLine
 10
42.736557
 20
2.912287
 30
0.0
 11
42.042366
 21
2.921295
 31
0.0
  0
LINE
  5
894
330
1F
100
AcDbEntity
  8
1
  6
CONTINUOUS
370
50
 62
4
100
AcDbLine
 10
44.402954
 20
-4.884865
 30
0.0
 11
44.11158
 21
-4.881285
 31
0.0
  0
LINE
  5
895
330
1F
100
AcDbEntity
  8
1
  6
CONTINUOUS
370
50
 62
4
100
AcDbLine
 10
39.283173
 20
2.926612
 30
0.0
 11
39.001965
 21
2.927324
 31
0.0
  0
LINE
  5
896
330
1F
100
AcDbEntity
  8
1
  6
CONTINUOUS
370
50
 62
4
100
AcDbLine
 10
39.436363
 20
2.926226
 30
0.0
 11
39.283173
 21
2.926612
 31
0.0
  0
LINE
  5
897
330
1F
100
AcDbEntity
  8
1
  6
CONTINUOUS
370
50
 62
4
100
AcDbLine
 10
39.001965
 20
2.927324
 30
0.0
 11
38.866905
 21
2.927663
 31
0.0
  0
LINE
  5
898
330
1F
100
AcDbEntity
  8
1
  6
CONTINUOUS
370
50
 62
4
100
AcDbLine
 10
39.583324
 20
2.925859
 30
0.0
 11
39.436363
 21
2.926226
 31
0.0
  0
LINE
  5
899
330
1F
100
AcDbEntity
  8
1
  6
CONTINUOUS
370
50
 62
4
100
AcDbLine
 10
38.866905
 20
2.927663
 30
0.0
 11
38.731846
 21
2.928
 31
0.0
  0
LINE
  5
89A
330
1F
100
AcDbEntity
  8
1
  6
CONTINUOUS
370
50
 62
4
100
AcDbLine
 10
39.72971
 20
2.925498
 30
0.0
 11
39.583324
 21
2.925859
 31
0.0
  0
LINE
  5
89B
330
1F
100
AcDbEntity
  8
1
  6
CONTINUOUS
370
50
 62
4
100
AcDbLine
 10
38.731846
 20
2.928
 30
0.0
 11
38.59678299999999
 21
2.928331
 31
0.0
  0
LINE
  5
89C
330
1F
100
AcDbEntity
  8
1
  6
CONTINUOUS
370
50
 62
4
100
AcDbLine
 10
39.876091
 20
2.925143
 30
0.0
 11
39.72971
 21
2.925498
 31
0.0
  0
LINE
  5
89D
330
1F
100
AcDbEntity
  8
1
  6
CONTINUOUS
370
50
 62
4
100
AcDbLine
 10
38.59678299999999
 20
2.928331
 30
0.0
 11
38.461712
 21
2.928657
 31
0.0
  0
LINE
  5
89E
330
1F
100
AcDbEntity
  8
1
  6
CONTINUOUS
370
50
 62
4
100
AcDbLine
 10
40.022472
 20
2.924796
 30
0.0
 11
39.876091
 21
2.925143
 31
0.0
  0
LINE
  5
89F
330
1F
100
AcDbEntity
  8
1
  6
CONTINUOUS
370
50
 62
4
100
AcDbLine
 10
38.461712
 20
2.928657
 30
0.0
 11
38.326649
 21
2.928974
 31
0.0
  0
LINE
  5
8A0
330
1F
100
AcDbEntity
  8
1
  6
CONTINUOUS
370
50
 62
4
100
AcDbLine
 10
40.16884599999999
 20
2.924458
 30
0.0
 11
40.022472
 21
2.924796
 31
0.0
  0
LINE
  5
8A1
330
1F
100
AcDbEntity
  8
1
  6
CONTINUOUS
370
50
 62
4
100
AcDbLine
 10
38.326649
 20
2.928974
 30
0.0
 11
38.188595
 21
2.929288
 31
0.0
  0
LINE
  5
8A2
330
1F
100
AcDbEntity
  8
1
  6
CONTINUOUS
370
50
 62
4
100
AcDbLine
 10
40.31522
 20
2.924131
 30
0.0
 11
40.16884599999999
 21
2.924458
 31
0.0
  0
LINE
  5
8A3
330
1F
100
AcDbEntity
  8
1
  6
CONTINUOUS
370
50
 62
4
100
AcDbLine
 10
38.188595
 20
2.929288
 30
0.0
 11
38.069683
 21
2.929549
 31
0.0
  0
LINE
  5
8A4
330
1F
100
AcDbEntity
  8
1
  6
CONTINUOUS
370
50
 62
4
100
AcDbLine
 10
40.46159
 20
2.923815
 30
0.0
 11
40.31522
 21
2.924131
 31
0.0
  0
LINE
  5
8A5
330
1F
100
AcDbEntity
  8
1
  6
CONTINUOUS
370
50
 62
4
100
AcDbLine
 10
38.069683
 20
2.929549
 30
0.0
 11
37.968445
 21
2.929764
 31
0.0
  0
LINE
  5
8A6
330
1F
100
AcDbEntity
  8
1
  6
CONTINUOUS
370
50
 62
4
100
AcDbLine
 10
40.612072
 20
2.923504
 30
0.0
 11
40.46159
 21
2.923815
 31
0.0
  0
LINE
  5
8A7
330
1F
100
AcDbEntity
  8
1
  6
CONTINUOUS
370
50
 62
4
100
AcDbLine
 10
37.968445
 20
2.929764
 30
0.0
 11
37.867203
 21
2.92997
 31
0.0
  0
LINE
  5
8A8
330
1F
100
AcDbEntity
  8
1
  6
CONTINUOUS
370
50
 62
4
100
AcDbLine
 10
21.265589
 20
-4.85722
 30
0.0
 11
21.086117
 21
-4.85686
 31
0.0
  0
LINE
  5
8A9
330
1F
100
AcDbEntity
  8
1
  6
CONTINUOUS
370
50
 62
4
100
AcDbLine
 10
40.71982999999999
 20
2.92329
 30
0.0
 11
40.612072
 21
2.923504
 31
0.0
  0
LINE
  5
8AA
330
1F
100
AcDbEntity
  8
1
  6
CONTINUOUS
370
50
 62
4
100
AcDbLine
 10
37.867203
 20
2.92997
 30
0.0
 11
37.765965
 21
2.930168
 31
0.0
  0
LINE
  5
8AB
330
1F
100
AcDbEntity
  8
1
  6
CONTINUOUS
370
50
 62
4
100
AcDbLine
 10
40.826134
 20
2.923087
 30
0.0
 11
40.71982999999999
 21
2.92329
 31
0.0
  0
LINE
  5
8AC
330
1F
100
AcDbEntity
  8
1
  6
CONTINUOUS
370
50
 62
4
100
AcDbLine
 10
37.765965
 20
2.930168
 30
0.0
 11
37.658165
 21
2.930368
 31
0.0
  0
LINE
  5
8AD
330
1F
100
AcDbEntity
  8
1
  6
CONTINUOUS
370
50
 62
4
100
AcDbLine
 10
40.97325499999999
 20
2.922818
 30
0.0
 11
40.826134
 21
2.923087
 31
0.0
  0
LINE
  5
8AE
330
1F
100
AcDbEntity
  8
1
  6
CONTINUOUS
370
50
 62
4
100
AcDbLine
 10
37.658165
 20
2.930368
 30
0.0
 11
37.53297
 21
2.930587
 31
0.0
  0
LINE
  5
8AF
330
1F
100
AcDbEntity
  8
1
  6
CONTINUOUS
370
50
 62
4
100
AcDbLine
 10
41.126331
 20
2.922555
 30
0.0
 11
40.97325499999999
 21
2.922818
 31
0.0
  0
LINE
  5
8B0
330
1F
100
AcDbEntity
  8
1
  6
CONTINUOUS
370
50
 62
4
100
AcDbLine
 10
37.53297
 20
2.930587
 30
0.0
 11
37.410606
 21
2.930784
 31
0.0
  0
LINE
  5
8B1
330
1F
100
AcDbEntity
  8
1
  6
CONTINUOUS
370
50
 62
4
100
AcDbLine
 10
41.279011
 20
2.92231
 30
0.0
 11
41.126331
 21
2.922555
 31
0.0
  0
LINE
  5
8B2
330
1F
100
AcDbEntity
  8
1
  6
CONTINUOUS
370
50
 62
4
100
AcDbLine
 10
42.042366
 20
2.921262
 30
0.0
 11
41.889694
 21
2.921491
 31
0.0
  0
LINE
  5
8B3
330
1F
100
AcDbEntity
  8
1
  6
CONTINUOUS
370
50
 62
4
100
AcDbLine
 10
41.431694
 20
2.922084
 30
0.0
 11
41.279011
 21
2.92231
 31
0.0
  0
LINE
  5
8B4
330
1F
100
AcDbEntity
  8
1
  6
CONTINUOUS
370
50
 62
4
100
AcDbLine
 10
37.410606
 20
2.930784
 30
0.0
 11
37.288242
 21
2.930964
 31
0.0
  0
LINE
  5
8B5
330
1F
100
AcDbEntity
  8
1
  6
CONTINUOUS
370
50
 62
4
100
AcDbLine
 10
41.58435799999999
 20
2.921875
 30
0.0
 11
41.431694
 21
2.922084
 31
0.0
  0
LINE
  5
8B6
330
1F
100
AcDbEntity
  8
1
  6
CONTINUOUS
370
50
 62
4
100
AcDbLine
 10
41.889694
 20
2.921491
 30
0.0
 11
41.737026
 21
2.921685
 31
0.0
  0
LINE
  5
8B7
330
1F
100
AcDbEntity
  8
1
  6
CONTINUOUS
370
50
 62
4
100
AcDbLine
 10
41.737026
 20
2.921685
 30
0.0
 11
41.58435799999999
 21
2.921875
 31
0.0
  0
LINE
  5
8B8
330
1F
100
AcDbEntity
  8
1
  6
CONTINUOUS
370
50
 62
4
100
AcDbLine
 10
36.404228
 20
-2.931631
 30
0.0
 11
36.288055
 21
-2.931622
 31
0.0
  0
LINE
  5
8B9
330
1F
100
AcDbEntity
  8
1
  6
CONTINUOUS
370
50
 62
4
100
AcDbLine
 10
1.59
 20
-5.47995
 30
0.0
 11
16.38435
 21
-5.47995
 31
0.0
  0
LINE
  5
8BA
330
1F
100
AcDbEntity
  8
1
  6
CONTINUOUS
370
50
 62
4
100
AcDbLine
 10
1.59
 20
5.47995
 30
0.0
 11
16.38435
 21
5.47995
 31
0.0
  0
LINE
  5
8BB
330
1F
100
AcDbEntity
  8
1
  6
CONTINUOUS
370
50
 62
4
100
AcDbLine
 10
36.404228
 20
-2.931631
 30
0.0
 11
36.520401
 21
-2.931616
 31
0.0
  0
LINE
  5
8BC
330
1F
100
AcDbEntity
  8
1
  6
CONTINUOUS
370
50
 62
4
100
AcDbLine
 10
36.520401
 20
-2.931616
 30
0.0
 11
36.636589
 21
-2.931576
 31
0.0
  0
LINE
  5
8BD
330
1F
100
AcDbEntity
  8
1
  6
CONTINUOUS
370
50
 62
4
100
AcDbLine
 10
36.636589
 20
-2.931576
 30
0.0
 11
36.75285
 21
-2.931514
 31
0.0
  0
LINE
  5
8BE
330
1F
100
AcDbEntity
  8
1
  6
CONTINUOUS
370
50
 62
4
100
AcDbLine
 10
36.75285
 20
-2.931514
 30
0.0
 11
36.876549
 21
-2.931424
 31
0.0
  0
LINE
  5
8BF
330
1F
100
AcDbEntity
  8
1
  6
CONTINUOUS
370
50
 62
4
100
AcDbLine
 10
36.876549
 20
-2.931424
 30
0.0
 11
36.99983599999999
 21
-2.931312
 31
0.0
  0
LINE
  5
8C0
330
1F
100
AcDbEntity
  8
1
  6
CONTINUOUS
370
50
 62
4
100
AcDbLine
 10
36.99983599999999
 20
-2.931312
 30
0.0
 11
37.12310799999999
 21
-2.931177
 31
0.0
  0
LINE
  5
8C1
330
1F
100
AcDbEntity
  8
1
  6
CONTINUOUS
370
50
 62
4
100
AcDbLine
 10
19.237141
 20
-4.122974
 30
0.0
 11
19.36504
 21
-4.122818
 31
0.0
  0
LINE
  5
8C2
330
1F
100
AcDbEntity
  8
1
  6
CONTINUOUS
370
50
 62
4
100
AcDbLine
 10
37.12310799999999
 20
-2.931177
 30
0.0
 11
37.246384
 21
-2.931021
 31
0.0
  0
LINE
  5
8C3
330
1F
100
AcDbEntity
  8
1
  6
CONTINUOUS
370
50
 62
4
100
AcDbLine
 10
37.246384
 20
-2.931021
 30
0.0
 11
37.369675
 21
-2.930846
 31
0.0
  0
LINE
  5
8C4
330
1F
100
AcDbEntity
  8
1
  6
CONTINUOUS
370
50
 62
4
100
AcDbLine
 10
37.369675
 20
-2.930846
 30
0.0
 11
37.492962
 21
-2.930653
 31
0.0
  0
LINE
  5
8C5
330
1F
100
AcDbEntity
  8
1
  6
CONTINUOUS
370
50
 62
4
100
AcDbLine
 10
37.492962
 20
-2.930653
 30
0.0
 11
37.616959
 21
-2.930442
 31
0.0
  0
LINE
  5
8C6
330
1F
100
AcDbEntity
  8
1
  6
CONTINUOUS
370
50
 62
4
100
AcDbLine
 10
37.616959
 20
-2.930442
 30
0.0
 11
37.734711
 21
-2.930227
 31
0.0
  0
LINE
  5
8C7
330
1F
100
AcDbEntity
  8
1
  6
CONTINUOUS
370
50
 62
4
100
AcDbLine
 10
37.734711
 20
-2.930227
 30
0.0
 11
37.835506
 21
-2.930033
 31
0.0
  0
LINE
  5
8C8
330
1F
100
AcDbEntity
  8
1
  6
CONTINUOUS
370
50
 62
4
100
AcDbLine
 10
21.085836
 20
4.856863
 30
0.0
 11
21.265219
 21
4.857214
 31
0.0
  0
LINE
  5
8C9
330
1F
100
AcDbEntity
  8
1
  6
CONTINUOUS
370
50
 62
4
100
AcDbLine
 10
37.835506
 20
-2.930033
 30
0.0
 11
37.936298
 21
-2.92983
 31
0.0
  0
LINE
  5
8CA
330
1F
100
AcDbEntity
  8
1
  6
CONTINUOUS
370
50
 62
4
100
AcDbLine
 10
37.936298
 20
-2.92983
 30
0.0
 11
38.037094
 21
-2.929619
 31
0.0
  0
LINE
  5
8CB
330
1F
100
AcDbEntity
  8
1
  6
CONTINUOUS
370
50
 62
4
100
AcDbLine
 10
38.037094
 20
-2.929619
 30
0.0
 11
38.142879
 21
-2.929389
 31
0.0
  0
LINE
  5
8CC
330
1F
100
AcDbEntity
  8
1
  6
CONTINUOUS
370
50
 62
4
100
AcDbLine
 10
38.142879
 20
-2.929389
 30
0.0
 11
38.283817
 21
-2.929072
 31
0.0
  0
LINE
  5
8CD
330
1F
100
AcDbEntity
  8
1
  6
CONTINUOUS
370
50
 62
4
100
AcDbLine
 10
38.283817
 20
-2.929072
 30
0.0
 11
38.419712
 21
-2.928756
 31
0.0
  0
LINE
  5
8CE
330
1F
100
AcDbEntity
  8
1
  6
CONTINUOUS
370
50
 62
4
100
AcDbLine
 10
38.419712
 20
-2.928756
 30
0.0
 11
38.555618
 21
-2.928431
 31
0.0
  0
LINE
  5
8CF
330
1F
100
AcDbEntity
  8
1
  6
CONTINUOUS
370
50
 62
4
100
AcDbLine
 10
38.555618
 20
-2.928431
 30
0.0
 11
38.691517
 21
-2.928099
 31
0.0
  0
LINE
  5
8D0
330
1F
100
AcDbEntity
  8
1
  6
CONTINUOUS
370
50
 62
4
100
AcDbLine
 10
44.11158
 20
4.881285
 30
0.0
 11
44.402954
 21
4.884865
 31
0.0
  0
LINE
  5
8D1
330
1F
100
AcDbEntity
  8
1
  6
CONTINUOUS
370
50
 62
4
100
AcDbLine
 10
20.904575
 20
-4.861276
 30
0.0
 11
21.086117
 21
-4.85686
 31
0.0
  0
LINE
  5
8D2
330
1F
100
AcDbEntity
  8
1
  6
CONTINUOUS
370
50
 62
4
100
AcDbLine
 10
16.381641
 20
-5.47995
 30
0.0
 11
16.583576
 21
-5.474988
 31
0.0
  0
LINE
  5
8D3
330
1F
100
AcDbEntity
  8
1
  6
CONTINUOUS
370
50
 62
4
100
AcDbLine
 10
42.305477
 20
-3.713592
 30
0.0
 11
42.531204
 21
-3.707693
 31
0.0
  0
LINE
  5
8D4
330
1F
100
AcDbEntity
  8
1
  6
CONTINUOUS
370
50
 62
4
100
AcDbLine
 10
21.265219
 20
4.857214
 30
0.0
 11
21.441744
 21
4.862168
 31
0.0
  0
LINE
  5
8D5
330
1F
100
AcDbEntity
  8
1
  6
CONTINUOUS
370
50
 62
4
100
AcDbLine
 10
42.531204
 20
-3.707693
 30
0.0
 11
42.760372
 21
-3.701215
 31
0.0
  0
LINE
  5
8D6
330
1F
100
AcDbEntity
  8
1
  6
CONTINUOUS
370
50
 62
4
100
AcDbLine
 10
42.760372
 20
-3.701215
 30
0.0
 11
42.988453
 21
-3.694285
 31
0.0
  0
LINE
  5
8D7
330
1F
100
AcDbEntity
  8
1
  6
CONTINUOUS
370
50
 62
4
100
AcDbLine
 10
42.988453
 20
-3.694285
 30
0.0
 11
43.216015
 21
-3.686902
 31
0.0
  0
LINE
  5
8D8
330
1F
100
AcDbEntity
  8
1
  6
CONTINUOUS
370
50
 62
4
100
AcDbLine
 10
43.216015
 20
-3.686902
 30
0.0
 11
43.443649
 21
-3.679065
 31
0.0
  0
LINE
  5
8D9
330
1F
100
AcDbEntity
  8
1
  6
CONTINUOUS
370
50
 62
4
100
AcDbLine
 10
43.443649
 20
-3.679065
 30
0.0
 11
43.67192499999999
 21
-3.670774
 31
0.0
  0
LINE
  5
8DA
330
1F
100
AcDbEntity
  8
1
  6
CONTINUOUS
370
50
 62
4
100
AcDbLine
 10
43.67192499999999
 20
-3.670774
 30
0.0
 11
43.901424
 21
-3.662026
 31
0.0
  0
LINE
  5
8DB
330
1F
100
AcDbEntity
  8
1
  6
CONTINUOUS
370
50
 62
4
100
AcDbLine
 10
19.025736
 20
-4.131445
 30
0.0
 11
19.237141
 21
-4.122974
 31
0.0
  0
LINE
  5
8DC
330
1F
100
AcDbEntity
  8
1
  6
CONTINUOUS
370
50
 62
4
100
AcDbLine
 10
20.721758
 20
-4.870636
 30
0.0
 11
20.904575
 21
-4.861276
 31
0.0
  0
LINE
  5
8DD
330
1F
100
AcDbEntity
  8
1
  6
CONTINUOUS
370
50
 62
4
100
AcDbLine
 10
21.441744
 20
4.862168
 30
0.0
 11
21.614622
 21
4.871557
 31
0.0
  0
LINE
  5
8DE
330
1F
100
AcDbEntity
  8
1
  6
CONTINUOUS
370
50
 62
4
100
AcDbLine
 10
44.402954
 20
-4.884865
 30
0.0
 11
44.69186
 21
-4.866823999999999
 31
0.0
  0
LINE
  5
8DF
330
1F
100
AcDbEntity
  8
1
  6
CONTINUOUS
370
50
 62
4
100
AcDbLine
 10
16.583576
 20
-5.474988
 30
0.0
 11
16.794405
 21
-5.460559
 31
0.0
  0
LINE
  5
8E0
330
1F
100
AcDbEntity
  8
1
  6
CONTINUOUS
370
50
 62
4
100
AcDbLine
 10
37.108532
 20
-2.944527
 30
0.0
 11
37.256748
 21
-2.933267
 31
0.0
  0
LINE
  5
8E1
330
1F
100
AcDbEntity
  8
1
  6
CONTINUOUS
370
50
 62
4
100
AcDbLine
 10
20.538452
 20
-4.885108
 30
0.0
 11
20.721758
 21
-4.870636
 31
0.0
  0
LINE
  5
8E2
330
1F
100
AcDbEntity
  8
1
  6
CONTINUOUS
370
50
 62
4
100
AcDbLine
 10
36.960316
 20
-2.956275
 30
0.0
 11
37.108532
 21
-2.944527
 31
0.0
  0
LINE
  5
8E3
330
1F
100
AcDbEntity
  8
1
  6
CONTINUOUS
370
50
 62
4
100
AcDbLine
 10
21.614622
 20
4.871557
 30
0.0
 11
21.782959
 21
4.885193999999999
 31
0.0
  0
LINE
  5
8E4
330
1F
100
AcDbEntity
  8
1
  6
CONTINUOUS
370
50
 62
4
100
AcDbLine
 10
36.812099
 20
-2.968516
 30
0.0
 11
36.960316
 21
-2.956275
 31
0.0
  0
LINE
  5
8E5
330
1F
100
AcDbEntity
  8
1
  6
CONTINUOUS
370
50
 62
4
100
AcDbLine
 10
43.818478
 20
4.856655
 30
0.0
 11
44.11158
 21
4.881285
 31
0.0
  0
LINE
  5
8E6
330
1F
100
AcDbEntity
  8
1
  6
CONTINUOUS
370
50
 62
4
100
AcDbLine
 10
36.643684
 20
-2.983033
 30
0.0
 11
36.812099
 21
-2.968516
 31
0.0
  0
LINE
  5
8E7
330
1F
100
AcDbEntity
  8
1
  6
CONTINUOUS
370
50
 62
4
100
AcDbLine
 10
36.50182
 20
-2.995768
 30
0.0
 11
36.643684
 21
-2.983033
 31
0.0
  0
LINE
  5
8E8
330
1F
100
AcDbEntity
  8
1
  6
CONTINUOUS
370
50
 62
4
100
AcDbLine
 10
18.860023
 20
-4.146822999999999
 30
0.0
 11
19.025736
 21
-4.131445
 31
0.0
  0
LINE
  5
8E9
330
1F
100
AcDbEntity
  8
1
  6
CONTINUOUS
370
50
 62
4
100
AcDbLine
 10
36.360252
 20
-3.008945
 30
0.0
 11
36.50182
 21
-2.995768
 31
0.0
  0
LINE
  5
8EA
330
1F
100
AcDbEntity
  8
1
  6
CONTINUOUS
370
50
 62
4
100
AcDbLine
 10
36.218693
 20
-3.022594
 30
0.0
 11
36.360252
 21
-3.008945
 31
0.0
  0
LINE
  5
8EB
330
1F
100
AcDbEntity
  8
1
  6
CONTINUOUS
370
50
 62
4
100
AcDbLine
 10
16.093332
 20
-5.148861999999999
 30
0.0
 11
16.138863
 21
-5.144343
 31
0.0
  0
LINE
  5
8EC
330
1F
100
AcDbEntity
  8
1
  6
CONTINUOUS
370
50
 62
4
100
AcDbLine
 10
43.901436
 20
-3.662044
 30
0.0
 11
44.102116
 21
-3.642056
 31
0.0
  0
LINE
  5
8ED
330
1F
100
AcDbEntity
  8
1
  6
CONTINUOUS
370
50
 62
4
100
AcDbLine
 10
36.077133
 20
-3.036723
 30
0.0
 11
36.218693
 21
-3.022594
 31
0.0
  0
LINE
  5
8EE
330
1F
100
AcDbEntity
  8
1
  6
CONTINUOUS
370
50
 62
4
100
AcDbLine
 10
35.93557699999999
 20
-3.051335
 30
0.0
 11
36.077133
 21
-3.036723
 31
0.0
  0
LINE
  5
8EF
330
1F
100
AcDbEntity
  8
1
  6
CONTINUOUS
370
50
 62
4
100
AcDbLine
 10
16.794405
 20
-5.460559
 30
0.0
 11
17.014427
 21
-5.437774
 31
0.0
  0
LINE
  5
8F0
330
1F
100
AcDbEntity
  8
1
  6
CONTINUOUS
370
50
 62
4
100
AcDbLine
 10
35.794022
 20
-3.066437
 30
0.0
 11
35.93557699999999
 21
-3.051335
 31
0.0
  0
LINE
  5
8F1
330
1F
100
AcDbEntity
  8
1
  6
CONTINUOUS
370
50
 62
4
100
AcDbLine
 10
21.782959
 20
4.885193999999999
 30
0.0
 11
21.944483
 21
4.902547999999999
 31
0.0
  0
LINE
  5
8F2
330
1F
100
AcDbEntity
  8
1
  6
CONTINUOUS
370
50
 62
4
100
AcDbLine
 10
35.652462
 20
-3.081921
 30
0.0
 11
35.794022
 21
-3.066437
 31
0.0
  0
LINE
  5
8F3
330
1F
100
AcDbEntity
  8
1
  6
CONTINUOUS
370
50
 62
4
100
AcDbLine
 10
35.509285
 20
-3.097872
 30
0.0
 11
35.652462
 21
-3.081921
 31
0.0
  0
LINE
  5
8F4
330
1F
100
AcDbEntity
  8
1
  6
CONTINUOUS
370
50
 62
4
100
AcDbLine
 10
23.09
 20
4.868592
 30
0.0
 11
23.091429
 21
4.868752
 31
0.0
  0
LINE
  5
8F5
330
1F
100
AcDbEntity
  8
1
  6
CONTINUOUS
370
50
 62
4
100
AcDbLine
 10
23.092857
 20
4.868914
 30
0.0
 11
23.094286
 21
4.869073999999999
 31
0.0
  0
LINE
  5
8F6
330
1F
100
AcDbEntity
  8
1
  6
CONTINUOUS
370
50
 62
4
100
AcDbLine
 10
23.095715
 20
4.869235
 30
0.0
 11
23.097143
 21
4.869395
 31
0.0
  0
LINE
  5
8F7
330
1F
100
AcDbEntity
  8
1
  6
CONTINUOUS
370
50
 62
4
100
AcDbLine
 10
23.098572
 20
4.869556
 30
0.0
 11
23.1
 21
4.869715999999999
 31
0.0
  0
LINE
  5
8F8
330
1F
100
AcDbEntity
  8
1
  6
CONTINUOUS
370
50
 62
4
100
AcDbLine
 10
23.094286
 20
4.869073999999999
 30
0.0
 11
23.095715
 21
4.869235
 31
0.0
  0
LINE
  5
8F9
330
1F
100
AcDbEntity
  8
1
  6
CONTINUOUS
370
50
 62
4
100
AcDbLine
 10
23.097143
 20
4.869395
 30
0.0
 11
23.098572
 21
4.869556
 31
0.0
  0
LINE
  5
8FA
330
1F
100
AcDbEntity
  8
1
  6
CONTINUOUS
370
50
 62
4
100
AcDbLine
 10
35.398209
 20
-3.110444
 30
0.0
 11
35.509285
 21
-3.097872
 31
0.0
  0
LINE
  5
8FB
330
1F
100
AcDbEntity
  8
1
  6
CONTINUOUS
370
50
 62
4
100
AcDbLine
 10
23.091429
 20
4.868752
 30
0.0
 11
23.092857
 21
4.868914
 31
0.0
  0
LINE
  5
8FC
330
1F
100
AcDbEntity
  8
1
  6
CONTINUOUS
370
50
 62
4
100
AcDbLine
 10
35.287342
 20
-3.123164
 30
0.0
 11
35.398209
 21
-3.110444
 31
0.0
  0
LINE
  5
8FD
330
1F
100
AcDbEntity
  8
1
  6
CONTINUOUS
370
50
 62
4
100
AcDbLine
 10
35.151859
 20
-3.138935
 30
0.0
 11
35.287342
 21
-3.123164
 31
0.0
  0
LINE
  5
8FE
330
1F
100
AcDbEntity
  8
1
  6
CONTINUOUS
370
50
 62
4
100
AcDbLine
 10
35.014687
 20
-3.155157
 30
0.0
 11
35.151859
 21
-3.138935
 31
0.0
  0
LINE
  5
8FF
330
1F
100
AcDbEntity
  8
1
  6
CONTINUOUS
370
50
 62
4
100
AcDbLine
 10
34.877598
 20
-3.171621
 30
0.0
 11
35.014687
 21
-3.155157
 31
0.0
  0
LINE
  5
900
330
1F
100
AcDbEntity
  8
1
  6
CONTINUOUS
370
50
 62
4
100
AcDbLine
 10
22.808775
 20
4.768232999999999
 30
0.0
 11
23.09
 21
4.802035
 31
0.0
  0
LINE
  5
901
330
1F
100
AcDbEntity
  8
1
  6
CONTINUOUS
370
50
 62
4
100
AcDbLine
 10
20.236555
 20
-4.921628
 30
0.0
 11
20.538452
 21
-4.885108
 31
0.0
  0
LINE
  5
902
330
1F
100
AcDbEntity
  8
1
  6
CONTINUOUS
370
50
 62
4
100
AcDbLine
 10
34.740501
 20
-3.188337
 30
0.0
 11
34.877598
 21
-3.171621
 31
0.0
  0
LINE
  5
903
330
1F
100
AcDbEntity
  8
1
  6
CONTINUOUS
370
50
 62
4
100
AcDbLine
 10
34.603397
 20
-3.205301
 30
0.0
 11
34.740501
 21
-3.188337
 31
0.0
  0
LINE
  5
904
330
1F
100
AcDbEntity
  8
1
  6
CONTINUOUS
370
50
 62
4
100
AcDbLine
 10
34.466286
 20
-3.222514
 30
0.0
 11
34.603397
 21
-3.205301
 31
0.0
  0
LINE
  5
905
330
1F
100
AcDbEntity
  8
1
  6
CONTINUOUS
370
50
 62
4
100
AcDbLine
 10
16.049032
 20
-5.154464
 30
0.0
 11
16.093332
 21
-5.148861999999999
 31
0.0
  0
LINE
  5
906
330
1F
100
AcDbEntity
  8
1
  6
CONTINUOUS
370
50
 62
4
100
AcDbLine
 10
34.329174
 20
-3.239973
 30
0.0
 11
34.466286
 21
-3.222514
 31
0.0
  0
LINE
  5
907
330
1F
100
AcDbEntity
  8
1
  6
CONTINUOUS
370
50
 62
4
100
AcDbLine
 10
34.191666
 20
-3.25773
 30
0.0
 11
34.329174
 21
-3.239973
 31
0.0
  0
LINE
  5
908
330
1F
100
AcDbEntity
  8
1
  6
CONTINUOUS
370
50
 62
4
100
AcDbLine
 10
17.014427
 20
-5.437774
 30
0.0
 11
17.243816
 21
-5.407808999999999
 31
0.0
  0
LINE
  5
909
330
1F
100
AcDbEntity
  8
1
  6
CONTINUOUS
370
50
 62
4
100
AcDbLine
 10
34.06281999999999
 20
-3.274592
 30
0.0
 11
34.191666
 21
-3.25773
 31
0.0
  0
LINE
  5
90A
330
1F
100
AcDbEntity
  8
1
  6
CONTINUOUS
370
50
 62
4
100
AcDbLine
 10
33.934021
 20
-3.291666
 30
0.0
 11
34.06281999999999
 21
-3.274592
 31
0.0
  0
LINE
  5
90B
330
1F
100
AcDbEntity
  8
1
  6
CONTINUOUS
370
50
 62
4
100
AcDbLine
 10
21.944483
 20
4.902547999999999
 30
0.0
 11
22.097939
 21
4.923068
 31
0.0
  0
LINE
  5
90C
330
1F
100
AcDbEntity
  8
1
  6
CONTINUOUS
370
50
 62
4
100
AcDbLine
 10
19.938175
 20
-4.961627
 30
0.0
 11
20.236555
 21
-4.921628
 31
0.0
  0
LINE
  5
90D
330
1F
100
AcDbEntity
  8
1
  6
CONTINUOUS
370
50
 62
4
100
AcDbLine
 10
33.79834
 20
-3.309886
 30
0.0
 11
33.934021
 21
-3.291666
 31
0.0
  0
LINE
  5
90E
330
1F
100
AcDbEntity
  8
1
  6
CONTINUOUS
370
50
 62
4
100
AcDbLine
 10
45.314182
 20
4.338134
 30
0.0
 11
46.072315
 21
4.440262
 31
0.0
  0
LINE
  5
90F
330
1F
100
AcDbEntity
  8
1
  6
CONTINUOUS
370
50
 62
4
100
AcDbLine
 10
33.662251
 20
-3.328404
 30
0.0
 11
33.79834
 21
-3.309886
 31
0.0
  0
LINE
  5
910
330
1F
100
AcDbEntity
  8
1
  6
CONTINUOUS
370
50
 62
4
100
AcDbLine
 10
33.526176
 20
-3.347164
 30
0.0
 11
33.662251
 21
-3.328404
 31
0.0
  0
LINE
  5
911
330
1F
100
AcDbEntity
  8
1
  6
CONTINUOUS
370
50
 62
4
100
AcDbLine
 10
22.533094
 20
4.729998999999999
 30
0.0
 11
22.808775
 21
4.768232999999999
 31
0.0
  0
LINE
  5
912
330
1F
100
AcDbEntity
  8
1
  6
CONTINUOUS
370
50
 62
4
100
AcDbLine
 10
33.390106
 20
-3.366169
 30
0.0
 11
33.526176
 21
-3.347164
 31
0.0
  0
LINE
  5
913
330
1F
100
AcDbEntity
  8
1
  6
CONTINUOUS
370
50
 62
4
100
AcDbLine
 10
44.69186
 20
-4.866823999999999
 30
0.0
 11
44.977322
 21
-4.826747
 31
0.0
  0
LINE
  5
914
330
1F
100
AcDbEntity
  8
1
  6
CONTINUOUS
370
50
 62
4
100
AcDbLine
 10
33.254036
 20
-3.38542
 30
0.0
 11
33.390106
 21
-3.366169
 31
0.0
  0
LINE
  5
915
330
1F
100
AcDbEntity
  8
1
  6
CONTINUOUS
370
50
 62
4
100
AcDbLine
 10
33.11797
 20
-3.40492
 30
0.0
 11
33.254036
 21
-3.38542
 31
0.0
  0
LINE
  5
916
330
1F
100
AcDbEntity
  8
1
  6
CONTINUOUS
370
50
 62
4
100
AcDbLine
 10
18.728109
 20
-4.165922
 30
0.0
 11
18.860023
 21
-4.146822999999999
 31
0.0
  0
LINE
  5
917
330
1F
100
AcDbEntity
  8
1
  6
CONTINUOUS
370
50
 62
4
100
AcDbLine
 10
32.981903
 20
-3.42467
 30
0.0
 11
33.11797
 21
-3.40492
 31
0.0
  0
LINE
  5
918
330
1F
100
AcDbEntity
  8
1
  6
CONTINUOUS
370
50
 62
4
100
AcDbLine
 10
19.643703
 20
-5.004500999999999
 30
0.0
 11
19.938175
 21
-4.961627
 31
0.0
  0
LINE
  5
919
330
1F
100
AcDbEntity
  8
1
  6
CONTINUOUS
370
50
 62
4
100
AcDbLine
 10
32.845703
 20
-3.444692
 30
0.0
 11
32.981903
 21
-3.42467
 31
0.0
  0
LINE
  5
91A
330
1F
100
AcDbEntity
  8
1
  6
CONTINUOUS
370
50
 62
4
100
AcDbLine
 10
16.138863
 20
-5.144343
 30
0.0
 11
16.370956
 21
-5.110011
 31
0.0
  0
LINE
  5
91B
330
1F
100
AcDbEntity
  8
1
  6
CONTINUOUS
370
50
 62
4
100
AcDbLine
 10
32.712807
 20
-3.464475
 30
0.0
 11
32.845703
 21
-3.444692
 31
0.0
  0
LINE
  5
91C
330
1F
100
AcDbEntity
  8
1
  6
CONTINUOUS
370
50
 62
4
100
AcDbLine
 10
32.579926
 20
-3.484501
 30
0.0
 11
32.712807
 21
-3.464475
 31
0.0
  0
LINE
  5
91D
330
1F
100
AcDbEntity
  8
1
  6
CONTINUOUS
370
50
 62
4
100
AcDbLine
 10
17.243816
 20
-5.407808999999999
 30
0.0
 11
17.481773
 21
-5.371935
 31
0.0
  0
LINE
  5
91E
330
1F
100
AcDbEntity
  8
1
  6
CONTINUOUS
370
50
 62
4
100
AcDbLine
 10
32.444958
 20
-3.505095
 30
0.0
 11
32.579926
 21
-3.484501
 31
0.0
  0
LINE
  5
91F
330
1F
100
AcDbEntity
  8
1
  6
CONTINUOUS
370
50
 62
4
100
AcDbLine
 10
43.524075
 20
4.81161
 30
0.0
 11
43.818478
 21
4.856655
 31
0.0
  0
LINE
  5
920
330
1F
100
AcDbEntity
  8
1
  6
CONTINUOUS
370
50
 62
4
100
AcDbLine
 10
32.309883
 20
-3.525964
 30
0.0
 11
32.444958
 21
-3.505095
 31
0.0
  0
LINE
  5
921
330
1F
100
AcDbEntity
  8
1
  6
CONTINUOUS
370
50
 62
4
100
AcDbLine
 10
16.006147
 20
-5.161121
 30
0.0
 11
16.049032
 21
-5.154464
 31
0.0
  0
LINE
  5
922
330
1F
100
AcDbEntity
  8
1
  6
CONTINUOUS
370
50
 62
4
100
AcDbLine
 10
19.353539
 20
-5.049644
 30
0.0
 11
19.643703
 21
-5.004500999999999
 31
0.0
  0
LINE
  5
923
330
1F
100
AcDbEntity
  8
1
  6
CONTINUOUS
370
50
 62
4
100
AcDbLine
 10
32.174816
 20
-3.547095
 30
0.0
 11
32.309883
 21
-3.525964
 31
0.0
  0
LINE
  5
924
330
1F
100
AcDbEntity
  8
1
  6
CONTINUOUS
370
50
 62
4
100
AcDbLine
 10
32.039749
 20
-3.568489
 30
0.0
 11
32.174816
 21
-3.547095
 31
0.0
  0
LINE
  5
925
330
1F
100
AcDbEntity
  8
1
  6
CONTINUOUS
370
50
 62
4
100
AcDbLine
 10
22.262951
 20
4.687171
 30
0.0
 11
22.533094
 21
4.729998999999999
 31
0.0
  0
LINE
  5
926
330
1F
100
AcDbEntity
  8
1
  6
CONTINUOUS
370
50
 62
4
100
AcDbLine
 10
31.90469
 20
-3.590149
 30
0.0
 11
32.039749
 21
-3.568489
 31
0.0
  0
LINE
  5
927
330
1F
100
AcDbEntity
  8
1
  6
CONTINUOUS
370
50
 62
4
100
AcDbLine
 10
22.097939
 20
4.923068
 30
0.0
 11
22.242571
 21
4.946269
 31
0.0
  0
LINE
  5
928
330
1F
100
AcDbEntity
  8
1
  6
CONTINUOUS
370
50
 62
4
100
AcDbLine
 10
31.769632
 20
-3.61208
 30
0.0
 11
31.90469
 21
-3.590149
 31
0.0
  0
LINE
  5
929
330
1F
100
AcDbEntity
  8
1
  6
CONTINUOUS
370
50
 62
4
100
AcDbLine
 10
19.068071
 20
-5.096454
 30
0.0
 11
19.353539
 21
-5.049644
 31
0.0
  0
LINE
  5
92A
330
1F
100
AcDbEntity
  8
1
  6
CONTINUOUS
370
50
 62
4
100
AcDbLine
 10
31.634577
 20
-3.634284
 30
0.0
 11
31.769632
 21
-3.61208
 31
0.0
  0
LINE
  5
92B
330
1F
100
AcDbEntity
  8
1
  6
CONTINUOUS
370
50
 62
4
100
AcDbLine
 10
17.481773
 20
-5.371935
 30
0.0
 11
17.728453
 21
-5.331303
 31
0.0
  0
LINE
  5
92C
330
1F
100
AcDbEntity
  8
1
  6
CONTINUOUS
370
50
 62
4
100
AcDbLine
 10
31.499521
 20
-3.656765
 30
0.0
 11
31.634577
 21
-3.634284
 31
0.0
  0
LINE
  5
92D
330
1F
100
AcDbEntity
  8
1
  6
CONTINUOUS
370
50
 62
4
100
AcDbLine
 10
44.556042
 20
4.210715
 30
0.0
 11
45.314182
 21
4.338134
 31
0.0
  0
LINE
  5
92E
330
1F
100
AcDbEntity
  8
1
  6
CONTINUOUS
370
50
 62
4
100
AcDbLine
 10
31.362764
 20
-3.679815
 30
0.0
 11
31.499521
 21
-3.656765
 31
0.0
  0
LINE
  5
92F
330
1F
100
AcDbEntity
  8
1
  6
CONTINUOUS
370
50
 62
4
100
AcDbLine
 10
31.225704
 20
-3.703206
 30
0.0
 11
31.362764
 21
-3.679815
 31
0.0
  0
LINE
  5
930
330
1F
100
AcDbEntity
  8
1
  6
CONTINUOUS
370
50
 62
4
100
AcDbLine
 10
18.787699
 20
-5.144323
 30
0.0
 11
19.068071
 21
-5.096454
 31
0.0
  0
LINE
  5
931
330
1F
100
AcDbEntity
  8
1
  6
CONTINUOUS
370
50
 62
4
100
AcDbLine
 10
31.095009
 20
-3.725785
 30
0.0
 11
31.225704
 21
-3.703206
 31
0.0
  0
LINE
  5
932
330
1F
100
AcDbEntity
  8
1
  6
CONTINUOUS
370
50
 62
4
100
AcDbLine
 10
17.728453
 20
-5.331303
 30
0.0
 11
17.982668
 21
-5.287207
 31
0.0
  0
LINE
  5
933
330
1F
100
AcDbEntity
  8
1
  6
CONTINUOUS
370
50
 62
4
100
AcDbLine
 10
30.964334
 20
-3.748632
 30
0.0
 11
31.095009
 21
-3.725785
 31
0.0
  0
LINE
  5
934
330
1F
100
AcDbEntity
  8
1
  6
CONTINUOUS
370
50
 62
4
100
AcDbLine
 10
18.512815
 20
-5.192648
 30
0.0
 11
18.787699
 21
-5.144323
 31
0.0
  0
LINE
  5
935
330
1F
100
AcDbEntity
  8
1
  6
CONTINUOUS
370
50
 62
4
100
AcDbLine
 10
30.83366
 20
-3.771751
 30
0.0
 11
30.964334
 21
-3.748632
 31
0.0
  0
LINE
  5
936
330
1F
100
AcDbEntity
  8
1
  6
CONTINUOUS
370
50
 62
4
100
AcDbLine
 10
23.1
 20
-5.302014
 30
0.0
 11
23.176994
 21
-5.288380999999999
 31
0.0
  0
LINE
  5
937
330
1F
100
AcDbEntity
  8
1
  6
CONTINUOUS
370
50
 62
4
100
AcDbLine
 10
17.982668
 20
-5.287207
 30
0.0
 11
18.24415
 21
-5.240663
 31
0.0
  0
LINE
  5
938
330
1F
100
AcDbEntity
  8
1
  6
CONTINUOUS
370
50
 62
4
100
AcDbLine
 10
18.24415
 20
-5.240663
 30
0.0
 11
18.512815
 21
-5.192648
 31
0.0
  0
LINE
  5
939
330
1F
100
AcDbEntity
  8
1
  6
CONTINUOUS
370
50
 62
4
100
AcDbLine
 10
30.702984
 20
-3.795146
 30
0.0
 11
30.83366
 21
-3.771751
 31
0.0
  0
LINE
  5
93A
330
1F
100
AcDbEntity
  8
1
  6
CONTINUOUS
370
50
 62
4
100
AcDbLine
 10
16.370956
 20
-5.110011
 30
0.0
 11
16.597013
 21
-5.069503999999999
 31
0.0
  0
LINE
  5
93B
330
1F
100
AcDbEntity
  8
1
  6
CONTINUOUS
370
50
 62
4
100
AcDbLine
 10
21.998339
 20
4.639591999999999
 30
0.0
 11
22.262951
 21
4.687171
 31
0.0
  0
LINE
  5
93C
330
1F
100
AcDbEntity
  8
1
  6
CONTINUOUS
370
50
 62
4
100
AcDbLine
 10
30.572319
 20
-3.818817
 30
0.0
 11
30.702984
 21
-3.795146
 31
0.0
  0
LINE
  5
93D
330
1F
100
AcDbEntity
  8
1
  6
CONTINUOUS
370
50
 62
4
100
AcDbLine
 10
23.176994
 20
-5.288380999999999
 30
0.0
 11
23.253948
 21
-5.274376
 31
0.0
  0
LINE
  5
93E
330
1F
100
AcDbEntity
  8
1
  6
CONTINUOUS
370
50
 62
4
100
AcDbLine
 10
30.441654
 20
-3.842769
 30
0.0
 11
30.572319
 21
-3.818817
 31
0.0
  0
LINE
  5
93F
330
1F
100
AcDbEntity
  8
1
  6
CONTINUOUS
370
50
 62
4
100
AcDbLine
 10
30.310999
 20
-3.867001
 30
0.0
 11
30.441654
 21
-3.842769
 31
0.0
  0
LINE
  5
940
330
1F
100
AcDbEntity
  8
1
  6
CONTINUOUS
370
50
 62
4
100
AcDbLine
 10
15.964868
 20
-5.168806
 30
0.0
 11
16.006147
 21
-5.161121
 31
0.0
  0
LINE
  5
941
330
1F
100
AcDbEntity
  8
1
  6
CONTINUOUS
370
50
 62
4
100
AcDbLine
 10
23.253948
 20
-5.274376
 30
0.0
 11
23.330858
 21
-5.26
 31
0.0
  0
LINE
  5
942
330
1F
100
AcDbEntity
  8
1
  6
CONTINUOUS
370
50
 62
4
100
AcDbLine
 10
30.180342
 20
-3.891517
 30
0.0
 11
30.310999
 21
-3.867001
 31
0.0
  0
LINE
  5
943
330
1F
100
AcDbEntity
  8
1
  6
CONTINUOUS
370
50
 62
4
100
AcDbLine
 10
22.242571
 20
4.946269
 30
0.0
 11
22.377628
 21
4.971665
 31
0.0
  0
LINE
  5
944
330
1F
100
AcDbEntity
  8
1
  6
CONTINUOUS
370
50
 62
4
100
AcDbLine
 10
30.026772
 20
-3.920698
 30
0.0
 11
30.180342
 21
-3.891517
 31
0.0
  0
LINE
  5
945
330
1F
100
AcDbEntity
  8
1
  6
CONTINUOUS
370
50
 62
4
100
AcDbLine
 10
23.330858
 20
-5.26
 30
0.0
 11
23.407722
 21
-5.245251
 31
0.0
  0
LINE
  5
946
330
1F
100
AcDbEntity
  8
1
  6
CONTINUOUS
370
50
 62
4
100
AcDbLine
 10
29.871368
 20
-3.950631
 30
0.0
 11
30.026772
 21
-3.920698
 31
0.0
  0
LINE
  5
947
330
1F
100
AcDbEntity
  8
1
  6
CONTINUOUS
370
50
 62
4
100
AcDbLine
 10
29.747358
 20
-3.974734
 30
0.0
 11
29.871368
 21
-3.950631
 31
0.0
  0
LINE
  5
948
330
1F
100
AcDbEntity
  8
1
  6
CONTINUOUS
370
50
 62
4
100
AcDbLine
 10
29.623411
 20
-3.998852
 30
0.0
 11
29.747358
 21
-3.974734
 31
0.0
  0
LINE
  5
949
330
1F
100
AcDbEntity
  8
1
  6
CONTINUOUS
370
50
 62
4
100
AcDbLine
 10
29.499464
 20
-4.022993
 30
0.0
 11
29.623411
 21
-3.998852
 31
0.0
  0
LINE
  5
94A
330
1F
100
AcDbEntity
  8
1
  6
CONTINUOUS
370
50
 62
4
100
AcDbLine
 10
29.375511
 20
-4.047154
 30
0.0
 11
29.499464
 21
-4.022993
 31
0.0
  0
LINE
  5
94B
330
1F
100
AcDbEntity
  8
1
  6
CONTINUOUS
370
50
 62
4
100
AcDbLine
 10
29.251545
 20
-4.071338
 30
0.0
 11
29.375511
 21
-4.047154
 31
0.0
  0
LINE
  5
94C
330
1F
100
AcDbEntity
  8
1
  6
CONTINUOUS
370
50
 62
4
100
AcDbLine
 10
29.127575
 20
-4.095542
 30
0.0
 11
29.251545
 21
-4.071338
 31
0.0
  0
LINE
  5
94D
330
1F
100
AcDbEntity
  8
1
  6
CONTINUOUS
370
50
 62
4
100
AcDbLine
 10
29.003603
 20
-4.119765
 30
0.0
 11
29.127575
 21
-4.095542
 31
0.0
  0
LINE
  5
94E
330
1F
100
AcDbEntity
  8
1
  6
CONTINUOUS
370
50
 62
4
100
AcDbLine
 10
28.879631
 20
-4.144007
 30
0.0
 11
29.003603
 21
-4.119765
 31
0.0
  0
LINE
  5
94F
330
1F
100
AcDbEntity
  8
1
  6
CONTINUOUS
370
50
 62
4
100
AcDbLine
 10
28.699949
 20
-4.179176
 30
0.0
 11
28.879631
 21
-4.144007
 31
0.0
  0
LINE
  5
950
330
1F
100
AcDbEntity
  8
1
  6
CONTINUOUS
370
50
 62
4
100
AcDbLine
 10
28.517006
 20
-4.215025
 30
0.0
 11
28.699949
 21
-4.179176
 31
0.0
  0
LINE
  5
951
330
1F
100
AcDbEntity
  8
1
  6
CONTINUOUS
370
50
 62
4
100
AcDbLine
 10
28.39535
 20
-4.238888
 30
0.0
 11
28.517006
 21
-4.215025
 31
0.0
  0
LINE
  5
952
330
1F
100
AcDbEntity
  8
1
  6
CONTINUOUS
370
50
 62
4
100
AcDbLine
 10
28.273783
 20
-4.262754
 30
0.0
 11
28.39535
 21
-4.238888
 31
0.0
  0
LINE
  5
953
330
1F
100
AcDbEntity
  8
1
  6
CONTINUOUS
370
50
 62
4
100
AcDbLine
 10
28.152216
 20
-4.286640999999999
 30
0.0
 11
28.273783
 21
-4.262754
 31
0.0
  0
LINE
  5
954
330
1F
100
AcDbEntity
  8
1
  6
CONTINUOUS
370
50
 62
4
100
AcDbLine
 10
18.628613
 20
-4.185483
 30
0.0
 11
18.728109
 21
-4.165922
 31
0.0
  0
LINE
  5
955
330
1F
100
AcDbEntity
  8
1
  6
CONTINUOUS
370
50
 62
4
100
AcDbLine
 10
28.030649
 20
-4.310549
 30
0.0
 11
28.152216
 21
-4.286640999999999
 31
0.0
  0
LINE
  5
956
330
1F
100
AcDbEntity
  8
1
  6
CONTINUOUS
370
50
 62
4
100
AcDbLine
 10
27.909077
 20
-4.334480999999999
 30
0.0
 11
28.030649
 21
-4.310549
 31
0.0
  0
LINE
  5
957
330
1F
100
AcDbEntity
  8
1
  6
CONTINUOUS
370
50
 62
4
100
AcDbLine
 10
23.407722
 20
-5.245251
 30
0.0
 11
23.484539
 21
-5.230127
 31
0.0
  0
LINE
  5
958
330
1F
100
AcDbEntity
  8
1
  6
CONTINUOUS
370
50
 62
4
100
AcDbLine
 10
27.787504
 20
-4.358438
 30
0.0
 11
27.909077
 21
-4.334480999999999
 31
0.0
  0
LINE
  5
959
330
1F
100
AcDbEntity
  8
1
  6
CONTINUOUS
370
50
 62
4
100
AcDbLine
 10
27.665934
 20
-4.382419
 30
0.0
 11
27.787504
 21
-4.358438
 31
0.0
  0
LINE
  5
95A
330
1F
100
AcDbEntity
  8
1
  6
CONTINUOUS
370
50
 62
4
100
AcDbLine
 10
27.543808
 20
-4.406536
 30
0.0
 11
27.665934
 21
-4.382419
 31
0.0
  0
LINE
  5
95B
330
1F
100
AcDbEntity
  8
1
  6
CONTINUOUS
370
50
 62
4
100
AcDbLine
 10
27.448324
 20
-4.425412
 30
0.0
 11
27.543808
 21
-4.406536
 31
0.0
  0
LINE
  5
95C
330
1F
100
AcDbEntity
  8
1
  6
CONTINUOUS
370
50
 62
4
100
AcDbLine
 10
27.352867
 20
-4.4443
 30
0.0
 11
27.448324
 21
-4.425412
 31
0.0
  0
LINE
  5
95D
330
1F
100
AcDbEntity
  8
1
  6
CONTINUOUS
370
50
 62
4
100
AcDbLine
 10
44.102116
 20
-3.642056
 30
0.0
 11
44.301723
 21
-3.602541
 31
0.0
  0
LINE
  5
95E
330
1F
100
AcDbEntity
  8
1
  6
CONTINUOUS
370
50
 62
4
100
AcDbLine
 10
27.25741
 20
-4.463207
 30
0.0
 11
27.352867
 21
-4.4443
 31
0.0
  0
LINE
  5
95F
330
1F
100
AcDbEntity
  8
1
  6
CONTINUOUS
370
50
 62
4
100
AcDbLine
 10
27.161955
 20
-4.482133
 30
0.0
 11
27.25741
 21
-4.463207
 31
0.0
  0
LINE
  5
960
330
1F
100
AcDbEntity
  8
1
  6
CONTINUOUS
370
50
 62
4
100
AcDbLine
 10
27.041534
 20
-4.506038
 30
0.0
 11
27.161955
 21
-4.482133
 31
0.0
  0
LINE
  5
961
330
1F
100
AcDbEntity
  8
1
  6
CONTINUOUS
370
50
 62
4
100
AcDbLine
 10
26.920591
 20
-4.53008
 30
0.0
 11
27.041534
 21
-4.506038
 31
0.0
  0
LINE
  5
962
330
1F
100
AcDbEntity
  8
1
  6
CONTINUOUS
370
50
 62
4
100
AcDbLine
 10
26.799658
 20
-4.554155
 30
0.0
 11
26.920591
 21
-4.53008
 31
0.0
  0
LINE
  5
963
330
1F
100
AcDbEntity
  8
1
  6
CONTINUOUS
370
50
 62
4
100
AcDbLine
 10
26.678726
 20
-4.578266999999999
 30
0.0
 11
26.799658
 21
-4.554155
 31
0.0
  0
LINE
  5
964
330
1F
100
AcDbEntity
  8
1
  6
CONTINUOUS
370
50
 62
4
100
AcDbLine
 10
26.557795
 20
-4.602416
 30
0.0
 11
26.678726
 21
-4.578266999999999
 31
0.0
  0
LINE
  5
965
330
1F
100
AcDbEntity
  8
1
  6
CONTINUOUS
370
50
 62
4
100
AcDbLine
 10
26.436865
 20
-4.626605
 30
0.0
 11
26.557795
 21
-4.602416
 31
0.0
  0
LINE
  5
966
330
1F
100
AcDbEntity
  8
1
  6
CONTINUOUS
370
50
 62
4
100
AcDbLine
 10
26.315935
 20
-4.650834
 30
0.0
 11
26.436865
 21
-4.626605
 31
0.0
  0
LINE
  5
967
330
1F
100
AcDbEntity
  8
1
  6
CONTINUOUS
370
50
 62
4
100
AcDbLine
 10
26.194656
 20
-4.675176
 30
0.0
 11
26.315935
 21
-4.650834
 31
0.0
  0
LINE
  5
968
330
1F
100
AcDbEntity
  8
1
  6
CONTINUOUS
370
50
 62
4
100
AcDbLine
 10
26.097939
 20
-4.694618999999999
 30
0.0
 11
26.194656
 21
-4.675176
 31
0.0
  0
LINE
  5
969
330
1F
100
AcDbEntity
  8
1
  6
CONTINUOUS
370
50
 62
4
100
AcDbLine
 10
26.001232
 20
-4.714089
 30
0.0
 11
26.097939
 21
-4.694618999999999
 31
0.0
  0
LINE
  5
96A
330
1F
100
AcDbEntity
  8
1
  6
CONTINUOUS
370
50
 62
4
100
AcDbLine
 10
25.904526
 20
-4.733587
 30
0.0
 11
26.001232
 21
-4.714089
 31
0.0
  0
LINE
  5
96B
330
1F
100
AcDbEntity
  8
1
  6
CONTINUOUS
370
50
 62
4
100
AcDbLine
 10
43.797901
 20
4.057683
 30
0.0
 11
44.556042
 21
4.210715
 31
0.0
  0
LINE
  5
96C
330
1F
100
AcDbEntity
  8
1
  6
CONTINUOUS
370
50
 62
4
100
AcDbLine
 10
23.484539
 20
-5.230127
 30
0.0
 11
23.560942
 21
-5.214701
 31
0.0
  0
LINE
  5
96D
330
1F
100
AcDbEntity
  8
1
  6
CONTINUOUS
370
50
 62
4
100
AcDbLine
 10
25.807821
 20
-4.753115
 30
0.0
 11
25.904526
 21
-4.733587
 31
0.0
  0
LINE
  5
96E
330
1F
100
AcDbEntity
  8
1
  6
CONTINUOUS
370
50
 62
4
100
AcDbLine
 10
25.689554
 20
-4.777037
 30
0.0
 11
25.807821
 21
-4.753115
 31
0.0
  0
LINE
  5
96F
330
1F
100
AcDbEntity
  8
1
  6
CONTINUOUS
370
50
 62
4
100
AcDbLine
 10
21.739252
 20
4.587102
 30
0.0
 11
21.998339
 21
4.639591999999999
 31
0.0
  0
LINE
  5
970
330
1F
100
AcDbEntity
  8
1
  6
CONTINUOUS
370
50
 62
4
100
AcDbLine
 10
25.571012
 20
-4.801061
 30
0.0
 11
25.689554
 21
-4.777037
 31
0.0
  0
LINE
  5
971
330
1F
100
AcDbEntity
  8
1
  6
CONTINUOUS
370
50
 62
4
100
AcDbLine
 10
25.452475
 20
-4.825131
 30
0.0
 11
25.571012
 21
-4.801061
 31
0.0
  0
LINE
  5
972
330
1F
100
AcDbEntity
  8
1
  6
CONTINUOUS
370
50
 62
4
100
AcDbLine
 10
25.333935
 20
-4.849247999999999
 30
0.0
 11
25.452475
 21
-4.825131
 31
0.0
  0
LINE
  5
973
330
1F
100
AcDbEntity
  8
1
  6
CONTINUOUS
370
50
 62
4
100
AcDbLine
 10
25.215408
 20
-4.873411
 30
0.0
 11
25.333935
 21
-4.849247999999999
 31
0.0
  0
LINE
  5
974
330
1F
100
AcDbEntity
  8
1
  6
CONTINUOUS
370
50
 62
4
100
AcDbLine
 10
25.096882
 20
-4.897621
 30
0.0
 11
25.215408
 21
-4.873411
 31
0.0
  0
LINE
  5
975
330
1F
100
AcDbEntity
  8
1
  6
CONTINUOUS
370
50
 62
4
100
AcDbLine
 10
24.978355
 20
-4.921879
 30
0.0
 11
25.096882
 21
-4.897621
 31
0.0
  0
LINE
  5
976
330
1F
100
AcDbEntity
  8
1
  6
CONTINUOUS
370
50
 62
4
100
AcDbLine
 10
23.560942
 20
-5.214702
 30
0.0
 11
23.672539
 21
-5.191821
 31
0.0
  0
LINE
  5
977
330
1F
100
AcDbEntity
  8
1
  6
CONTINUOUS
370
50
 62
4
100
AcDbLine
 10
24.859703
 20
-4.946211
 30
0.0
 11
24.978355
 21
-4.921879
 31
0.0
  0
LINE
  5
978
330
1F
100
AcDbEntity
  8
1
  6
CONTINUOUS
370
50
 62
4
100
AcDbLine
 10
24.758196
 20
-4.967065
 30
0.0
 11
24.859703
 21
-4.946211
 31
0.0
  0
LINE
  5
979
330
1F
100
AcDbEntity
  8
1
  6
CONTINUOUS
370
50
 62
4
100
AcDbLine
 10
24.656689
 20
-4.987953999999999
 30
0.0
 11
24.758196
 21
-4.967065
 31
0.0
  0
LINE
  5
97A
330
1F
100
AcDbEntity
  8
1
  6
CONTINUOUS
370
50
 62
4
100
AcDbLine
 10
24.555193
 20
-5.008875
 30
0.0
 11
24.656689
 21
-4.987953999999999
 31
0.0
  0
LINE
  5
97B
330
1F
100
AcDbEntity
  8
1
  6
CONTINUOUS
370
50
 62
4
100
AcDbLine
 10
23.672539
 20
-5.191821
 30
0.0
 11
23.784136
 21
-5.168791
 31
0.0
  0
LINE
  5
97C
330
1F
100
AcDbEntity
  8
1
  6
CONTINUOUS
370
50
 62
4
100
AcDbLine
 10
24.453697
 20
-5.029831
 30
0.0
 11
24.555193
 21
-5.008875
 31
0.0
  0
LINE
  5
97D
330
1F
100
AcDbEntity
  8
1
  6
CONTINUOUS
370
50
 62
4
100
AcDbLine
 10
24.342144
 20
-5.052902
 30
0.0
 11
24.453697
 21
-5.029831
 31
0.0
  0
LINE
  5
97E
330
1F
100
AcDbEntity
  8
1
  6
CONTINUOUS
370
50
 62
4
100
AcDbLine
 10
24.230539
 20
-5.076023
 30
0.0
 11
24.342144
 21
-5.052902
 31
0.0
  0
LINE
  5
97F
330
1F
100
AcDbEntity
  8
1
  6
CONTINUOUS
370
50
 62
4
100
AcDbLine
 10
24.118935
 20
-5.099184
 30
0.0
 11
24.230539
 21
-5.076023
 31
0.0
  0
LINE
  5
980
330
1F
100
AcDbEntity
  8
1
  6
CONTINUOUS
370
50
 62
4
100
AcDbLine
 10
23.784136
 20
-5.168791
 30
0.0
 11
23.895733
 21
-5.145613
 31
0.0
  0
LINE
  5
981
330
1F
100
AcDbEntity
  8
1
  6
CONTINUOUS
370
50
 62
4
100
AcDbLine
 10
24.00733
 20
-5.122381
 30
0.0
 11
24.118935
 21
-5.099184
 31
0.0
  0
LINE
  5
982
330
1F
100
AcDbEntity
  8
1
  6
CONTINUOUS
370
50
 62
4
100
AcDbLine
 10
23.895733
 20
-5.145613
 30
0.0
 11
24.00733
 21
-5.122381
 31
0.0
  0
LINE
  5
983
330
1F
100
AcDbEntity
  8
1
  6
CONTINUOUS
370
50
 62
4
100
AcDbLine
 10
16.597013
 20
-5.069503999999999
 30
0.0
 11
16.81686
 21
-5.022447
 31
0.0
  0
LINE
  5
984
330
1F
100
AcDbEntity
  8
1
  6
CONTINUOUS
370
50
 62
4
100
AcDbLine
 10
22.377628
 20
4.971665
 30
0.0
 11
22.502356
 21
4.998771
 31
0.0
  0
LINE
  5
985
330
1F
100
AcDbEntity
  8
1
  6
CONTINUOUS
370
50
 62
4
100
AcDbLine
 10
43.22908
 20
4.746897
 30
0.0
 11
43.524075
 21
4.81161
 31
0.0
  0
LINE
  5
986
330
1F
100
AcDbEntity
  8
1
  6
CONTINUOUS
370
50
 62
4
100
AcDbLine
 10
15.925451
 20
-5.177474
 30
0.0
 11
15.964868
 21
-5.168806
 31
0.0
  0
LINE
  5
987
330
1F
100
AcDbEntity
  8
1
  6
CONTINUOUS
370
50
 62
4
100
AcDbLine
 10
44.977322
 20
-4.826747
 30
0.0
 11
45.258911
 21
-4.764254
 31
0.0
  0
LINE
  5
988
330
1F
100
AcDbEntity
  8
1
  6
CONTINUOUS
370
50
 62
4
100
AcDbLine
 10
47.627209
 20
1.431723
 30
0.0
 11
47.654778
 21
1.43794
 31
0.0
  0
LINE
  5
989
330
1F
100
AcDbEntity
  8
1
  6
CONTINUOUS
370
50
 62
4
100
AcDbLine
 10
47.599659
 20
1.425503
 30
0.0
 11
47.627209
 21
1.431723
 31
0.0
  0
LINE
  5
98A
330
1F
100
AcDbEntity
  8
1
  6
CONTINUOUS
370
50
 62
4
100
AcDbLine
 10
47.572136
 20
1.419279
 30
0.0
 11
47.599659
 21
1.425503
 31
0.0
  0
LINE
  5
98B
330
1F
100
AcDbEntity
  8
1
  6
CONTINUOUS
370
50
 62
4
100
AcDbLine
 10
47.54464
 20
1.413051
 30
0.0
 11
47.572136
 21
1.419279
 31
0.0
  0
LINE
  5
98C
330
1F
100
AcDbEntity
  8
1
  6
CONTINUOUS
370
50
 62
4
100
AcDbLine
 10
47.517174
 20
1.406819
 30
0.0
 11
47.54464
 21
1.413051
 31
0.0
  0
LINE
  5
98D
330
1F
100
AcDbEntity
  8
1
  6
CONTINUOUS
370
50
 62
4
100
AcDbLine
 10
21.485685
 20
4.529541
 30
0.0
 11
21.739252
 21
4.587102
 31
0.0
  0
LINE
  5
98E
330
1F
100
AcDbEntity
  8
1
  6
CONTINUOUS
370
50
 62
4
100
AcDbLine
 10
47.489735
 20
1.400585
 30
0.0
 11
47.517174
 21
1.406819
 31
0.0
  0
LINE
  5
98F
330
1F
100
AcDbEntity
  8
1
  6
CONTINUOUS
370
50
 62
4
100
AcDbLine
 10
47.462334
 20
1.394344
 30
0.0
 11
47.489735
 21
1.400585
 31
0.0
  0
LINE
  5
990
330
1F
100
AcDbEntity
  8
1
  6
CONTINUOUS
370
50
 62
4
100
AcDbLine
 10
43.039749
 20
3.878439
 30
0.0
 11
43.797901
 21
4.057683
 31
0.0
  0
LINE
  5
991
330
1F
100
AcDbEntity
  8
1
  6
CONTINUOUS
370
50
 62
4
100
AcDbLine
 10
22.502356
 20
4.998771
 30
0.0
 11
22.615606
 21
5.026996
 31
0.0
  0
LINE
  5
992
330
1F
100
AcDbEntity
  8
1
  6
CONTINUOUS
370
50
 62
4
100
AcDbLine
 10
18.557178
 20
-4.20331
 30
0.0
 11
18.628613
 21
-4.185483
 31
0.0
  0
LINE
  5
993
330
1F
100
AcDbEntity
  8
1
  6
CONTINUOUS
370
50
 62
4
100
AcDbLine
 10
16.81686
 20
-5.022447
 30
0.0
 11
17.030331
 21
-4.968462
 31
0.0
  0
LINE
  5
994
330
1F
100
AcDbEntity
  8
1
  6
CONTINUOUS
370
50
 62
4
100
AcDbLine
 10
21.237631
 20
4.46675
 30
0.0
 11
21.485685
 21
4.529541
 31
0.0
  0
LINE
  5
995
330
1F
100
AcDbEntity
  8
1
  6
CONTINUOUS
370
50
 62
4
100
AcDbLine
 10
15.888432
 20
-5.186980999999999
 30
0.0
 11
15.925451
 21
-5.177474
 31
0.0
  0
LINE
  5
996
330
1F
100
AcDbEntity
  8
1
  6
CONTINUOUS
370
50
 62
4
100
AcDbLine
 10
42.28160099999999
 20
3.672034
 30
0.0
 11
43.039749
 21
3.878439
 31
0.0
  0
LINE
  5
997
330
1F
100
AcDbEntity
  8
1
  6
CONTINUOUS
370
50
 62
4
100
AcDbLine
 10
20.995083
 20
4.398571
 30
0.0
 11
21.237631
 21
4.46675
 31
0.0
  0
LINE
  5
998
330
1F
100
AcDbEntity
  8
1
  6
CONTINUOUS
370
50
 62
4
100
AcDbLine
 10
42.933998
 20
4.663327
 30
0.0
 11
43.22908
 21
4.746897
 31
0.0
  0
LINE
  5
999
330
1F
100
AcDbEntity
  8
1
  6
CONTINUOUS
370
50
 62
4
100
AcDbLine
 10
22.615606
 20
5.026996
 30
0.0
 11
22.716251
 21
5.055757
 31
0.0
  0
LINE
  5
99A
330
1F
100
AcDbEntity
  8
1
  6
CONTINUOUS
370
50
 62
4
100
AcDbLine
 10
44.301723
 20
-3.602541
 30
0.0
 11
44.496933
 21
-3.544813
 31
0.0
  0
LINE
  5
99B
330
1F
100
AcDbEntity
  8
1
  6
CONTINUOUS
370
50
 62
4
100
AcDbLine
 10
17.030331
 20
-4.968462
 30
0.0
 11
17.237251
 21
-4.907172
 31
0.0
  0
LINE
  5
99C
330
1F
100
AcDbEntity
  8
1
  6
CONTINUOUS
370
50
 62
4
100
AcDbLine
 10
15.853979
 20
-5.197239
 30
0.0
 11
15.888432
 21
-5.186980999999999
 31
0.0
  0
LINE
  5
99D
330
1F
100
AcDbEntity
  8
1
  6
CONTINUOUS
370
50
 62
4
100
AcDbLine
 10
45.258911
 20
-4.764254
 30
0.0
 11
45.53608699999999
 21
-4.678999999999999
 31
0.0
  0
LINE
  5
99E
330
1F
100
AcDbEntity
  8
1
  6
CONTINUOUS
370
50
 62
4
100
AcDbLine
 10
18.496761
 20
-4.22197
 30
0.0
 11
18.557178
 21
-4.20331
 31
0.0
  0
LINE
  5
99F
330
1F
100
AcDbEntity
  8
1
  6
CONTINUOUS
370
50
 62
4
100
AcDbLine
 10
41.523457
 20
3.43749
 30
0.0
 11
42.28160099999999
 21
3.672034
 31
0.0
  0
LINE
  5
9A0
330
1F
100
AcDbEntity
  8
1
  6
CONTINUOUS
370
50
 62
4
100
AcDbLine
 10
20.758036
 20
4.324841999999999
 30
0.0
 11
20.995083
 21
4.398571
 31
0.0
  0
LINE
  5
9A1
330
1F
100
AcDbEntity
  8
1
  6
CONTINUOUS
370
50
 62
4
100
AcDbLine
 10
22.716251
 20
5.055757
 30
0.0
 11
22.803791
 21
5.084651
 31
0.0
  0
LINE
  5
9A2
330
1F
100
AcDbEntity
  8
1
  6
CONTINUOUS
370
50
 62
4
100
AcDbLine
 10
42.329411
 20
4.462604
 30
0.0
 11
42.933998
 21
4.663327
 31
0.0
  0
LINE
  5
9A3
330
1F
100
AcDbEntity
  8
1
  6
CONTINUOUS
370
50
 62
4
100
AcDbLine
 10
40.765316
 20
3.183559
 30
0.0
 11
41.523457
 21
3.43749
 31
0.0
  0
LINE
  5
9A4
330
1F
100
AcDbEntity
  8
1
  6
CONTINUOUS
370
50
 62
4
100
AcDbLine
 10
20.526482
 20
4.245405
 30
0.0
 11
20.758036
 21
4.324841999999999
 31
0.0
  0
LINE
  5
9A5
330
1F
100
AcDbEntity
  8
1
  6
CONTINUOUS
370
50
 62
4
100
AcDbLine
 10
15.822211
 20
-5.208168
 30
0.0
 11
15.853979
 21
-5.197239
 31
0.0
  0
LINE
  5
9A6
330
1F
100
AcDbEntity
  8
1
  6
CONTINUOUS
370
50
 62
4
100
AcDbLine
 10
17.237251
 20
-4.907172
 30
0.0
 11
17.437452
 21
-4.838198999999999
 31
0.0
  0
LINE
  5
9A7
330
1F
100
AcDbEntity
  8
1
  6
CONTINUOUS
370
50
 62
4
100
AcDbLine
 10
40.007183
 20
2.914513
 30
0.0
 11
40.765316
 21
3.183559
 31
0.0
  0
LINE
  5
9A8
330
1F
100
AcDbEntity
  8
1
  6
CONTINUOUS
370
50
 62
4
100
AcDbLine
 10
41.733704
 20
4.243368
 30
0.0
 11
42.329411
 21
4.462604
 31
0.0
  0
LINE
  5
9A9
330
1F
100
AcDbEntity
  8
1
  6
CONTINUOUS
370
50
 62
4
100
AcDbLine
 10
20.300417
 20
4.160101
 30
0.0
 11
20.526482
 21
4.245405
 31
0.0
  0
LINE
  5
9AA
330
1F
100
AcDbEntity
  8
1
  6
CONTINUOUS
370
50
 62
4
100
AcDbLine
 10
22.803791
 20
5.084651
 30
0.0
 11
22.878
 21
5.113396
 31
0.0
  0
LINE
  5
9AB
330
1F
100
AcDbEntity
  8
1
  6
CONTINUOUS
370
50
 62
4
100
AcDbLine
 10
44.496933
 20
-3.544813
 30
0.0
 11
44.687454
 21
-3.470012
 31
0.0
  0
LINE
  5
9AC
330
1F
100
AcDbEntity
  8
1
  6
CONTINUOUS
370
50
 62
4
100
AcDbLine
 10
41.137657
 20
4.007007
 30
0.0
 11
41.733704
 21
4.243368
 31
0.0
  0
LINE
  5
9AD
330
1F
100
AcDbEntity
  8
1
  6
CONTINUOUS
370
50
 62
4
100
AcDbLine
 10
15.793245
 20
-5.219687
 30
0.0
 11
15.822211
 21
-5.208168
 31
0.0
  0
LINE
  5
9AE
330
1F
100
AcDbEntity
  8
1
  6
CONTINUOUS
370
50
 62
4
100
AcDbLine
 10
45.53608699999999
 20
-4.678999999999999
 30
0.0
 11
45.807472
 21
-4.571009
 31
0.0
  0
LINE
  5
9AF
330
1F
100
AcDbEntity
  8
1
  6
CONTINUOUS
370
50
 62
4
100
AcDbLine
 10
17.437452
 20
-4.838198999999999
 30
0.0
 11
17.630766
 21
-4.761166999999999
 31
0.0
  0
LINE
  5
9B0
330
1F
100
AcDbEntity
  8
1
  6
CONTINUOUS
370
50
 62
4
100
AcDbLine
 10
20.16172
 20
4.103224
 30
0.0
 11
20.300417
 21
4.160101
 31
0.0
  0
LINE
  5
9B1
330
1F
100
AcDbEntity
  8
1
  6
CONTINUOUS
370
50
 62
4
100
AcDbLine
 10
40.533897
 20
3.755599
 30
0.0
 11
41.137657
 21
4.007007
 31
0.0
  0
LINE
  5
9B2
330
1F
100
AcDbEntity
  8
1
  6
CONTINUOUS
370
50
 62
4
100
AcDbLine
 10
39.928345
 20
3.491931
 30
0.0
 11
40.533897
 21
3.755599
 31
0.0
  0
LINE
  5
9B3
330
1F
100
AcDbEntity
  8
1
  6
CONTINUOUS
370
50
 62
4
100
AcDbLine
 10
20.026596
 20
4.043652
 30
0.0
 11
20.16172
 21
4.103224
 31
0.0
  0
LINE
  5
9B4
330
1F
100
AcDbEntity
  8
1
  6
CONTINUOUS
370
50
 62
4
100
AcDbLine
 10
39.320934
 20
3.216262
 30
0.0
 11
39.928345
 21
3.491931
 31
0.0
  0
LINE
  5
9B5
330
1F
100
AcDbEntity
  8
1
  6
CONTINUOUS
370
50
 62
4
100
AcDbLine
 10
17.630766
 20
-4.761166999999999
 30
0.0
 11
17.817337
 21
-4.675511999999999
 31
0.0
  0
LINE
  5
9B6
330
1F
100
AcDbEntity
  8
1
  6
CONTINUOUS
370
50
 62
4
100
AcDbLine
 10
15.767418
 20
-5.231599999999999
 30
0.0
 11
15.793245
 21
-5.219687
 31
0.0
  0
LINE
  5
9B7
330
1F
100
AcDbEntity
  8
1
  6
CONTINUOUS
370
50
 62
4
100
AcDbLine
 10
38.710022
 20
2.927676
 30
0.0
 11
39.320934
 21
3.216262
 31
0.0
  0
LINE
  5
9B8
330
1F
100
AcDbEntity
  8
1
  6
CONTINUOUS
370
50
 62
4
100
AcDbLine
 10
22.878
 20
5.113396
 30
0.0
 11
22.941767
 21
5.143585
 31
0.0
  0
LINE
  5
9B9
330
1F
100
AcDbEntity
  8
1
  6
CONTINUOUS
370
50
 62
4
100
AcDbLine
 10
19.895151
 20
3.981393
 30
0.0
 11
20.026596
 21
4.043652
 31
0.0
  0
LINE
  5
9BA
330
1F
100
AcDbEntity
  8
1
  6
CONTINUOUS
370
50
 62
4
100
AcDbLine
 10
44.687454
 20
-3.470012
 30
0.0
 11
44.872456
 21
-3.379554
 31
0.0
  0
LINE
  5
9BB
330
1F
100
AcDbEntity
  8
1
  6
CONTINUOUS
370
50
 62
4
100
AcDbLine
 10
45.807472
 20
-4.571009
 30
0.0
 11
46.072315
 21
-4.440262
 31
0.0
  0
LINE
  5
9BC
330
1F
100
AcDbEntity
  8
1
  6
CONTINUOUS
370
50
 62
4
100
AcDbLine
 10
19.76749
 20
3.916459
 30
0.0
 11
19.895151
 21
3.981393
 31
0.0
  0
LINE
  5
9BD
330
1F
100
AcDbEntity
  8
1
  6
CONTINUOUS
370
50
 62
4
100
AcDbLine
 10
23.075481
 20
5.218535
 30
0.0
 11
23.09
 21
5.225979
 31
0.0
  0
LINE
  5
9BE
330
1F
100
AcDbEntity
  8
1
  6
CONTINUOUS
370
50
 62
4
100
AcDbLine
 10
23.060904
 20
5.210999
 30
0.0
 11
23.075481
 21
5.218535
 31
0.0
  0
LINE
  5
9BF
330
1F
100
AcDbEntity
  8
1
  6
CONTINUOUS
370
50
 62
4
100
AcDbLine
 10
23.046263
 20
5.203371
 30
0.0
 11
23.060904
 21
5.210999
 31
0.0
  0
LINE
  5
9C0
330
1F
100
AcDbEntity
  8
1
  6
CONTINUOUS
370
50
 62
4
100
AcDbLine
 10
23.031559
 20
5.19565
 30
0.0
 11
23.046263
 21
5.203371
 31
0.0
  0
LINE
  5
9C1
330
1F
100
AcDbEntity
  8
1
  6
CONTINUOUS
370
50
 62
4
100
AcDbLine
 10
17.817337
 20
-4.675511999999999
 30
0.0
 11
17.996965
 21
-4.580811
 31
0.0
  0
LINE
  5
9C2
330
1F
100
AcDbEntity
  8
1
  6
CONTINUOUS
370
50
 62
4
100
AcDbLine
 10
23.016794
 20
5.187838
 30
0.0
 11
23.031559
 21
5.19565
 31
0.0
  0
LINE
  5
9C3
330
1F
100
AcDbEntity
  8
1
  6
CONTINUOUS
370
50
 62
4
100
AcDbLine
 10
23.001966
 20
5.179935
 30
0.0
 11
23.016794
 21
5.187838
 31
0.0
  0
LINE
  5
9C4
330
1F
100
AcDbEntity
  8
1
  6
CONTINUOUS
370
50
 62
4
100
AcDbLine
 10
22.987076
 20
5.171942
 30
0.0
 11
23.001966
 21
5.179935
 31
0.0
  0
LINE
  5
9C5
330
1F
100
AcDbEntity
  8
1
  6
CONTINUOUS
370
50
 62
4
100
AcDbLine
 10
15.744881
 20
-5.243747
 30
0.0
 11
15.767418
 21
-5.231599999999999
 31
0.0
  0
LINE
  5
9C6
330
1F
100
AcDbEntity
  8
1
  6
CONTINUOUS
370
50
 62
4
100
AcDbLine
 10
-0.01
 20
-6.34995
 30
0.0
 11
1.59
 21
-5.47995
 31
0.0
  0
LINE
  5
9C7
330
1F
100
AcDbEntity
  8
1
  6
CONTINUOUS
370
50
 62
4
100
AcDbLine
 10
23.09
 20
5.225181
 30
0.0
 11
23.091209
 21
5.225839
 31
0.0
  0
LINE
  5
9C8
330
1F
100
AcDbEntity
  8
1
  6
CONTINUOUS
370
50
 62
4
100
AcDbLine
 10
19.643719
 20
3.848857
 30
0.0
 11
19.76749
 21
3.916459
 31
0.0
  0
LINE
  5
9C9
330
1F
100
AcDbEntity
  8
1
  6
CONTINUOUS
370
50
 62
4
100
AcDbLine
 10
23.091209
 20
5.225839
 30
0.0
 11
23.092415
 21
5.226499
 31
0.0
  0
LINE
  5
9CA
330
1F
100
AcDbEntity
  8
1
  6
CONTINUOUS
370
50
 62
4
100
AcDbLine
 10
23.092415
 20
5.226499
 30
0.0
 11
23.093613
 21
5.227158
 31
0.0
  0
LINE
  5
9CB
330
1F
100
AcDbEntity
  8
1
  6
CONTINUOUS
370
50
 62
4
100
AcDbLine
 10
22.941767
 20
5.143585
 30
0.0
 11
22.950245
 21
5.148251999999999
 31
0.0
  0
LINE
  5
9CC
330
1F
100
AcDbEntity
  8
1
  6
CONTINUOUS
370
50
 62
4
100
AcDbLine
 10
23.093613
 20
5.227158
 30
0.0
 11
23.094803
 21
5.227818
 31
0.0
  0
LINE
  5
9CD
330
1F
100
AcDbEntity
  8
1
  6
CONTINUOUS
370
50
 62
4
100
AcDbLine
 10
23.094803
 20
5.227818
 30
0.0
 11
23.095989
 21
5.228479999999999
 31
0.0
  0
LINE
  5
9CE
330
1F
100
AcDbEntity
  8
1
  6
CONTINUOUS
370
50
 62
4
100
AcDbLine
 10
23.095989
 20
5.228479999999999
 30
0.0
 11
23.097168
 21
5.229140999999999
 31
0.0
  0
LINE
  5
9CF
330
1F
100
AcDbEntity
  8
1
  6
CONTINUOUS
370
50
 62
4
100
AcDbLine
 10
23.097168
 20
5.229140999999999
 30
0.0
 11
23.097643
 21
5.229409
 31
0.0
  0
LINE
  5
9D0
330
1F
100
AcDbEntity
  8
1
  6
CONTINUOUS
370
50
 62
4
100
AcDbLine
 10
23.097643
 20
5.229409
 30
0.0
 11
23.098116
 21
5.229676
 31
0.0
  0
LINE
  5
9D1
330
1F
100
AcDbEntity
  8
1
  6
CONTINUOUS
370
50
 62
4
100
AcDbLine
 10
23.098116
 20
5.229676
 30
0.0
 11
23.098589
 21
5.229944
 31
0.0
  0
LINE
  5
9D2
330
1F
100
AcDbEntity
  8
1
  6
CONTINUOUS
370
50
 62
4
100
AcDbLine
 10
23.098589
 20
5.229944
 30
0.0
 11
23.099531
 21
5.23048
 31
0.0
  0
LINE
  5
9D3
330
1F
100
AcDbEntity
  8
1
  6
CONTINUOUS
370
50
 62
4
100
AcDbLine
 10
23.099531
 20
5.23048
 30
0.0
 11
23.1
 21
5.230748
 31
0.0
  0
LINE
  5
9D4
330
1F
100
AcDbEntity
  8
1
  6
CONTINUOUS
370
50
 62
4
100
AcDbLine
 10
46.072315
 20
-4.440262
 30
0.0
 11
46.259464
 21
-4.332339999999999
 31
0.0
  0
LINE
  5
9D5
330
1F
100
AcDbEntity
  8
1
  6
CONTINUOUS
370
50
 62
4
100
AcDbLine
 10
22.950245
 20
5.148251999999999
 30
0.0
 11
22.958382
 21
5.152947
 31
0.0
  0
LINE
  5
9D6
330
1F
100
AcDbEntity
  8
1
  6
CONTINUOUS
370
50
 62
4
100
AcDbLine
 10
44.872456
 20
-3.379554
 30
0.0
 11
45.05042599999999
 21
-3.275421
 31
0.0
  0
LINE
  5
9D7
330
1F
100
AcDbEntity
  8
1
  6
CONTINUOUS
370
50
 62
4
100
AcDbLine
 10
19.523941
 20
3.778597
 30
0.0
 11
19.643719
 21
3.848857
 31
0.0
  0
LINE
  5
9D8
330
1F
100
AcDbEntity
  8
1
  6
CONTINUOUS
370
50
 62
4
100
AcDbLine
 10
17.996965
 20
-4.580811
 30
0.0
 11
18.169058
 21
-4.476842
 31
0.0
  0
LINE
  5
9D9
330
1F
100
AcDbEntity
  8
1
  6
CONTINUOUS
370
50
 62
4
100
AcDbLine
 10
22.958382
 20
5.152947
 30
0.0
 11
22.966154
 21
5.157666
 31
0.0
  0
LINE
  5
9DA
330
1F
100
AcDbEntity
  8
1
  6
CONTINUOUS
370
50
 62
4
100
AcDbLine
 10
19.408262
 20
3.705688
 30
0.0
 11
19.523941
 21
3.778597
 31
0.0
  0
LINE
  5
9DB
330
1F
100
AcDbEntity
  8
1
  6
CONTINUOUS
370
50
 62
4
100
AcDbLine
 10
15.725591
 20
-5.256044999999999
 30
0.0
 11
15.744881
 21
-5.243747
 31
0.0
  0
LINE
  5
9DC
330
1F
100
AcDbEntity
  8
1
  6
CONTINUOUS
370
50
 62
4
100
AcDbLine
 10
22.966154
 20
5.157666
 30
0.0
 11
22.973541
 21
5.162407
 31
0.0
  0
LINE
  5
9DD
330
1F
100
AcDbEntity
  8
1
  6
CONTINUOUS
370
50
 62
4
100
AcDbLine
 10
46.259464
 20
-4.332339999999999
 30
0.0
 11
46.436615
 21
-4.21819
 31
0.0
  0
LINE
  5
9DE
330
1F
100
AcDbEntity
  8
1
  6
CONTINUOUS
370
50
 62
4
100
AcDbLine
 10
47.660137
 20
2.42505
 30
0.0
 11
47.696789
 21
2.449601
 31
0.0
  0
LINE
  5
9DF
330
1F
100
AcDbEntity
  8
1
  6
CONTINUOUS
370
50
 62
4
100
AcDbLine
 10
19.296789
 20
3.630141
 30
0.0
 11
19.408262
 21
3.705688
 31
0.0
  0
LINE
  5
9E0
330
1F
100
AcDbEntity
  8
1
  6
CONTINUOUS
370
50
 62
4
100
AcDbLine
 10
45.05042599999999
 20
-3.275421
 30
0.0
 11
45.221107
 21
-3.15915
 31
0.0
  0
LINE
  5
9E1
330
1F
100
AcDbEntity
  8
1
  6
CONTINUOUS
370
50
 62
4
100
AcDbLine
 10
22.973541
 20
5.162407
 30
0.0
 11
22.980522
 21
5.167167
 31
0.0
  0
LINE
  5
9E2
330
1F
100
AcDbEntity
  8
1
  6
CONTINUOUS
370
50
 62
4
100
AcDbLine
 10
18.169058
 20
-4.476842
 30
0.0
 11
18.333014
 21
-4.363384
 31
0.0
  0
LINE
  5
9E3
330
1F
100
AcDbEntity
  8
1
  6
CONTINUOUS
370
50
 62
4
100
AcDbLine
 10
46.436615
 20
-4.21819
 30
0.0
 11
46.603573
 21
-4.09884
 31
0.0
  0
LINE
  5
9E4
330
1F
100
AcDbEntity
  8
1
  6
CONTINUOUS
370
50
 62
4
100
AcDbLine
 10
22.980522
 20
5.167167
 30
0.0
 11
22.987076
 21
5.171942
 31
0.0
  0
LINE
  5
9E5
330
1F
100
AcDbEntity
  8
1
  6
CONTINUOUS
370
50
 62
4
100
AcDbLine
 10
19.189625
 20
3.551964
 30
0.0
 11
19.296789
 21
3.630141
 31
0.0
  0
LINE
  5
9E6
330
1F
100
AcDbEntity
  8
1
  6
CONTINUOUS
370
50
 62
4
100
AcDbLine
 10
15.709506
 20
-5.268415999999999
 30
0.0
 11
15.725591
 21
-5.256044999999999
 31
0.0
  0
LINE
  5
9E7
330
1F
100
AcDbEntity
  8
1
  6
CONTINUOUS
370
50
 62
4
100
AcDbLine
 10
45.221107
 20
-3.15915
 30
0.0
 11
45.384285
 21
-3.032257
 31
0.0
  0
LINE
  5
9E8
330
1F
100
AcDbEntity
  8
1
  6
CONTINUOUS
370
50
 62
4
100
AcDbLine
 10
19.086878
 20
3.471167
 30
0.0
 11
19.189625
 21
3.551964
 31
0.0
  0
LINE
  5
9E9
330
1F
100
AcDbEntity
  8
1
  6
CONTINUOUS
370
50
 62
4
100
AcDbLine
 10
46.603573
 20
-4.09884
 30
0.0
 11
46.760155
 21
-3.975319
 31
0.0
  0
LINE
  5
9EA
330
1F
100
AcDbEntity
  8
1
  6
CONTINUOUS
370
50
 62
4
100
AcDbLine
 10
18.333014
 20
-4.363384
 30
0.0
 11
18.488239
 21
-4.240216
 31
0.0
  0
LINE
  5
9EB
330
1F
100
AcDbEntity
  8
1
  6
CONTINUOUS
370
50
 62
4
100
AcDbLine
 10
18.989004
 20
3.388069
 30
0.0
 11
19.086878
 21
3.471167
 31
0.0
  0
LINE
  5
9EC
330
1F
100
AcDbEntity
  8
1
  6
CONTINUOUS
370
50
 62
4
100
AcDbLine
 10
46.760155
 20
-3.975319
 30
0.0
 11
46.906166
 21
-3.848655
 31
0.0
  0
LINE
  5
9ED
330
1F
100
AcDbEntity
  8
1
  6
CONTINUOUS
370
50
 62
4
100
AcDbLine
 10
45.384285
 20
-3.032257
 30
0.0
 11
45.540264
 21
-2.895795
 31
0.0
  0
LINE
  5
9EE
330
1F
100
AcDbEntity
  8
1
  6
CONTINUOUS
370
50
 62
4
100
AcDbLine
 10
18.488239
 20
-4.240216
 30
0.0
 11
18.634138
 21
-4.107116
 31
0.0
  0
LINE
  5
9EF
330
1F
100
AcDbEntity
  8
1
  6
CONTINUOUS
370
50
 62
4
100
AcDbLine
 10
18.89662
 20
3.303219
 30
0.0
 11
18.989004
 21
3.388069
 31
0.0
  0
LINE
  5
9F0
330
1F
100
AcDbEntity
  8
1
  6
CONTINUOUS
370
50
 62
4
100
AcDbLine
 10
46.906166
 20
-3.848655
 30
0.0
 11
47.041412
 21
-3.719877
 31
0.0
  0
LINE
  5
9F1
330
1F
100
AcDbEntity
  8
1
  6
CONTINUOUS
370
50
 62
4
100
AcDbLine
 10
15.696585
 20
-5.280779
 30
0.0
 11
15.709506
 21
-5.268415999999999
 31
0.0
  0
LINE
  5
9F2
330
1F
100
AcDbEntity
  8
1
  6
CONTINUOUS
370
50
 62
4
100
AcDbLine
 10
45.540264
 20
-2.895795
 30
0.0
 11
45.691471
 21
-2.74847
 31
0.0
  0
LINE
  5
9F3
330
1F
100
AcDbEntity
  8
1
  6
CONTINUOUS
370
50
 62
4
100
AcDbLine
 10
18.809765
 20
3.216728
 30
0.0
 11
18.89662
 21
3.303219
 31
0.0
  0
LINE
  5
9F4
330
1F
100
AcDbEntity
  8
1
  6
CONTINUOUS
370
50
 62
4
100
AcDbLine
 10
47.041412
 20
-3.719877
 30
0.0
 11
47.165707
 21
-3.590013
 31
0.0
  0
LINE
  5
9F5
330
1F
100
AcDbEntity
  8
1
  6
CONTINUOUS
370
50
 62
4
100
AcDbLine
 10
18.634138
 20
-4.107116
 30
0.0
 11
18.765871
 21
-3.96866
 31
0.0
  0
LINE
  5
9F6
330
1F
100
AcDbEntity
  8
1
  6
CONTINUOUS
370
50
 62
4
100
AcDbLine
 10
45.691471
 20
-2.74847
 30
0.0
 11
45.83815
 21
-2.590386
 31
0.0
  0
LINE
  5
9F7
330
1F
100
AcDbEntity
  8
1
  6
CONTINUOUS
370
50
 62
4
100
AcDbLine
 10
18.728472
 20
3.128703
 30
0.0
 11
18.809765
 21
3.216728
 31
0.0
  0
LINE
  5
9F8
330
1F
100
AcDbEntity
  8
1
  6
CONTINUOUS
370
50
 62
4
100
AcDbLine
 10
47.165707
 20
-3.590013
 30
0.0
 11
47.278805
 21
-3.460159
 31
0.0
  0
LINE
  5
9F9
330
1F
100
AcDbEntity
  8
1
  6
CONTINUOUS
370
50
 62
4
100
AcDbLine
 10
18.652775
 20
3.039251
 30
0.0
 11
18.728472
 21
3.128703
 31
0.0
  0
LINE
  5
9FA
330
1F
100
AcDbEntity
  8
1
  6
CONTINUOUS
370
50
 62
4
100
AcDbLine
 10
45.83815
 20
-2.590386
 30
0.0
 11
45.98016699999999
 21
-2.421944
 31
0.0
  0
LINE
  5
9FB
330
1F
100
AcDbEntity
  8
1
  6
CONTINUOUS
370
50
 62
4
100
AcDbLine
 10
18.765871
 20
-3.96866
 30
0.0
 11
18.887718
 21
-3.820569
 31
0.0
  0
LINE
  5
9FC
330
1F
100
AcDbEntity
  8
1
  6
CONTINUOUS
370
50
 62
4
100
AcDbLine
 10
15.687209
 20
-5.292428
 30
0.0
 11
15.696585
 21
-5.280779
 31
0.0
  0
LINE
  5
9FD
330
1F
100
AcDbEntity
  8
1
  6
CONTINUOUS
370
50
 62
4
100
AcDbLine
 10
47.278805
 20
-3.460159
 30
0.0
 11
47.379467
 21
-3.332821
 31
0.0
  0
LINE
  5
9FE
330
1F
100
AcDbEntity
  8
1
  6
CONTINUOUS
370
50
 62
4
100
AcDbLine
 10
18.582708
 20
2.948478
 30
0.0
 11
18.652775
 21
3.039251
 31
0.0
  0
LINE
  5
9FF
330
1F
100
AcDbEntity
  8
1
  6
CONTINUOUS
370
50
 62
4
100
AcDbLine
 10
45.98016699999999
 20
-2.421944
 30
0.0
 11
46.117393
 21
-2.243542
 31
0.0
  0
LINE
  5
A00
330
1F
100
AcDbEntity
  8
1
  6
CONTINUOUS
370
50
 62
4
100
AcDbLine
 10
18.887718
 20
-3.820569
 30
0.0
 11
18.998602
 21
-3.663523
 31
0.0
  0
LINE
  5
A01
330
1F
100
AcDbEntity
  8
1
  6
CONTINUOUS
370
50
 62
4
100
AcDbLine
 10
46.117393
 20
-2.243542
 30
0.0
 11
46.249702
 21
-2.055582
 31
0.0
  0
LINE
  5
A02
330
1F
100
AcDbEntity
  8
1
  6
CONTINUOUS
370
50
 62
4
100
AcDbLine
 10
18.518305
 20
2.856493
 30
0.0
 11
18.582708
 21
2.948478
 31
0.0
  0
LINE
  5
A03
330
1F
100
AcDbEntity
  8
1
  6
CONTINUOUS
370
50
 62
4
100
AcDbLine
 10
46.249702
 20
-2.055582
 30
0.0
 11
46.376896
 21
-1.858586
 31
0.0
  0
LINE
  5
A04
330
1F
100
AcDbEntity
  8
1
  6
CONTINUOUS
370
50
 62
4
100
AcDbLine
 10
47.696789
 20
2.449601
 30
0.0
 11
47.721149
 21
2.487539
 31
0.0
  0
LINE
  5
A05
330
1F
100
AcDbEntity
  8
1
  6
CONTINUOUS
370
50
 62
4
100
AcDbLine
 10
18.459597
 20
2.7634
 30
0.0
 11
18.518305
 21
2.856493
 31
0.0
  0
LINE
  5
A06
330
1F
100
AcDbEntity
  8
1
  6
CONTINUOUS
370
50
 62
4
100
AcDbLine
 10
18.998602
 20
-3.663523
 30
0.0
 11
19.098124
 21
-3.497633
 31
0.0
  0
LINE
  5
A07
330
1F
100
AcDbEntity
  8
1
  6
CONTINUOUS
370
50
 62
4
100
AcDbLine
 10
46.376896
 20
-1.858586
 30
0.0
 11
46.497116
 21
-1.656158
 31
0.0
  0
LINE
  5
A08
330
1F
100
AcDbEntity
  8
1
  6
CONTINUOUS
370
50
 62
4
100
AcDbLine
 10
15.680536
 20
-5.304084
 30
0.0
 11
15.687209
 21
-5.292428
 31
0.0
  0
LINE
  5
A09
330
1F
100
AcDbEntity
  8
1
  6
CONTINUOUS
370
50
 62
4
100
AcDbLine
 10
18.406607
 20
2.669281
 30
0.0
 11
18.459597
 21
2.7634
 31
0.0
  0
LINE
  5
A0A
330
1F
100
AcDbEntity
  8
1
  6
CONTINUOUS
370
50
 62
4
100
AcDbLine
 10
46.497116
 20
-1.656158
 30
0.0
 11
46.609787
 21
-1.450202
 31
0.0
  0
LINE
  5
A0B
330
1F
100
AcDbEntity
  8
1
  6
CONTINUOUS
370
50
 62
4
100
AcDbLine
 10
46.609787
 20
-1.450202
 30
0.0
 11
46.71516399999999
 21
-1.241243
 31
0.0
  0
LINE
  5
A0C
330
1F
100
AcDbEntity
  8
1
  6
CONTINUOUS
370
50
 62
4
100
AcDbLine
 10
19.098124
 20
-3.497633
 30
0.0
 11
19.186094
 21
-3.322765
 31
0.0
  0
LINE
  5
A0D
330
1F
100
AcDbEntity
  8
1
  6
CONTINUOUS
370
50
 62
4
100
AcDbLine
 10
18.358755
 20
2.572869
 30
0.0
 11
18.406607
 21
2.669281
 31
0.0
  0
LINE
  5
A0E
330
1F
100
AcDbEntity
  8
1
  6
CONTINUOUS
370
50
 62
4
100
AcDbLine
 10
46.71516399999999
 20
-1.241243
 30
0.0
 11
46.813496
 21
-1.029803
 31
0.0
  0
LINE
  5
A0F
330
1F
100
AcDbEntity
  8
1
  6
CONTINUOUS
370
50
 62
4
100
AcDbLine
 10
18.316107
 20
2.473546
 30
0.0
 11
18.358755
 21
2.572869
 31
0.0
  0
LINE
  5
A10
330
1F
100
AcDbEntity
  8
1
  6
CONTINUOUS
370
50
 62
4
100
AcDbLine
 10
46.813496
 20
-1.029803
 30
0.0
 11
46.905041
 21
-0.8164089999999999
 31
0.0
  0
LINE
  5
A11
330
1F
100
AcDbEntity
  8
1
  6
CONTINUOUS
370
50
 62
4
100
AcDbLine
 10
19.186094
 20
-3.322765
 30
0.0
 11
19.262325
 21
-3.138783
 31
0.0
  0
LINE
  5
A12
330
1F
100
AcDbEntity
  8
1
  6
CONTINUOUS
370
50
 62
4
100
AcDbLine
 10
46.905041
 20
-0.8164089999999999
 30
0.0
 11
46.990047
 21
-0.601583
 31
0.0
  0
LINE
  5
A13
330
1F
100
AcDbEntity
  8
1
  6
CONTINUOUS
370
50
 62
4
100
AcDbLine
 10
46.990047
 20
-0.601583
 30
0.0
 11
47.068771
 21
-0.385858
 31
0.0
  0
LINE
  5
A14
330
1F
100
AcDbEntity
  8
1
  6
CONTINUOUS
370
50
 62
4
100
AcDbLine
 10
18.279211
 20
2.371512
 30
0.0
 11
18.316107
 21
2.473546
 31
0.0
  0
LINE
  5
A15
330
1F
100
AcDbEntity
  8
1
  6
CONTINUOUS
370
50
 62
4
100
AcDbLine
 10
15.676617
 20
-5.315699
 30
0.0
 11
15.680536
 21
-5.304084
 31
0.0
  0
LINE
  5
A16
330
1F
100
AcDbEntity
  8
1
  6
CONTINUOUS
370
50
 62
4
100
AcDbLine
 10
47.068771
 20
-0.385858
 30
0.0
 11
47.141075
 21
-0.170568
 31
0.0
  0
LINE
  5
A17
330
1F
100
AcDbEntity
  8
1
  6
CONTINUOUS
370
50
 62
4
100
AcDbLine
 10
19.262325
 20
-3.138783
 30
0.0
 11
19.326626
 21
-2.945556
 31
0.0
  0
LINE
  5
A18
330
1F
100
AcDbEntity
  8
1
  6
CONTINUOUS
370
50
 62
4
100
AcDbLine
 10
47.141075
 20
-0.170568
 30
0.0
 11
47.202778
 21
0.028765
 31
0.0
  0
LINE
  5
A19
330
1F
100
AcDbEntity
  8
1
  6
CONTINUOUS
370
50
 62
4
100
AcDbLine
 10
18.248615
 20
2.266968
 30
0.0
 11
18.279211
 21
2.371512
 31
0.0
  0
LINE
  5
A1A
330
1F
100
AcDbEntity
  8
1
  6
CONTINUOUS
370
50
 62
4
100
AcDbLine
 10
47.202778
 20
0.028765
 30
0.0
 11
47.258949
 21
0.226336
 31
0.0
  0
LINE
  5
A1B
330
1F
100
AcDbEntity
  8
1
  6
CONTINUOUS
370
50
 62
4
100
AcDbLine
 10
47.258949
 20
0.226336
 30
0.0
 11
47.309757
 21
0.421704
 31
0.0
  0
LINE
  5
A1C
330
1F
100
AcDbEntity
  8
1
  6
CONTINUOUS
370
50
 62
4
100
AcDbLine
 10
19.326626
 20
-2.945556
 30
0.0
 11
19.378798
 21
-2.743003
 31
0.0
  0
LINE
  5
A1D
330
1F
100
AcDbEntity
  8
1
  6
CONTINUOUS
370
50
 62
4
100
AcDbLine
 10
47.721149
 20
2.487539
 30
0.0
 11
47.733601
 21
2.537715
 31
0.0
  0
LINE
  5
A1E
330
1F
100
AcDbEntity
  8
1
  6
CONTINUOUS
370
50
 62
4
100
AcDbLine
 10
47.309757
 20
0.421704
 30
0.0
 11
47.355324
 21
0.614455
 31
0.0
  0
LINE
  5
A1F
330
1F
100
AcDbEntity
  8
1
  6
CONTINUOUS
370
50
 62
4
100
AcDbLine
 10
18.224867
 20
2.160113
 30
0.0
 11
18.248615
 21
2.266968
 31
0.0
  0
LINE
  5
A20
330
1F
100
AcDbEntity
  8
1
  6
CONTINUOUS
370
50
 62
4
100
AcDbLine
 10
47.355324
 20
0.614455
 30
0.0
 11
47.395771
 21
0.804172
 31
0.0
  0
LINE
  5
A21
330
1F
100
AcDbEntity
  8
1
  6
CONTINUOUS
370
50
 62
4
100
AcDbLine
 10
47.395771
 20
0.804172
 30
0.0
 11
47.431221
 21
0.9904419999999999
 31
0.0
  0
LINE
  5
A22
330
1F
100
AcDbEntity
  8
1
  6
CONTINUOUS
370
50
 62
4
100
AcDbLine
 10
19.378798
 20
-2.743003
 30
0.0
 11
19.418339
 21
-2.533469
 31
0.0
  0
LINE
  5
A23
330
1F
100
AcDbEntity
  8
1
  6
CONTINUOUS
370
50
 62
4
100
AcDbLine
 10
47.431221
 20
0.9904419999999999
 30
0.0
 11
47.4618
 21
1.172848
 31
0.0
  0
LINE
  5
A24
330
1F
100
AcDbEntity
  8
1
  6
CONTINUOUS
370
50
 62
4
100
AcDbLine
 10
18.208513
 20
2.051149
 30
0.0
 11
18.224867
 21
2.160113
 31
0.0
  0
LINE
  5
A25
330
1F
100
AcDbEntity
  8
1
  6
CONTINUOUS
370
50
 62
4
100
AcDbLine
 10
19.418339
 20
-2.533469
 30
0.0
 11
19.445448
 21
-2.318531
 31
0.0
  0
LINE
  5
A26
330
1F
100
AcDbEntity
  8
1
  6
CONTINUOUS
370
50
 62
4
100
AcDbLine
 10
15.675502
 20
-5.327228
 30
0.0
 11
15.676617
 21
-5.315699
 31
0.0
  0
LINE
  5
A27
330
1F
100
AcDbEntity
  8
1
  6
CONTINUOUS
370
50
 62
4
100
AcDbLine
 10
18.200157
 20
1.940732
 30
0.0
 11
18.208513
 21
2.051149
 31
0.0
  0
LINE
  5
A28
330
1F
100
AcDbEntity
  8
1
  6
CONTINUOUS
370
50
 62
4
100
AcDbLine
 10
19.445448
 20
-2.318531
 30
0.0
 11
19.460661
 21
-2.098575
 31
0.0
  0
LINE
  5
A29
330
1F
100
AcDbEntity
  8
1
  6
CONTINUOUS
370
50
 62
4
100
AcDbLine
 10
23.090004
 20
5.225191
 30
0.0
 11
23.09001
 21
5.225433
 31
0.0
  0
LINE
  5
A2A
330
1F
100
AcDbEntity
  8
1
  6
CONTINUOUS
370
50
 62
4
100
AcDbLine
 10
23.090004
 20
5.225191
 30
0.0
 11
23.09001
 21
5.225433
 31
0.0
  0
LINE
  5
A2B
330
1F
100
AcDbEntity
  8
1
  6
CONTINUOUS
370
50
 62
4
100
AcDbLine
 10
23.090036
 20
-5.229053
 30
0.0
 11
23.090214
 21
-5.218986
 31
0.0
  0
LINE
  5
A2C
330
1F
100
AcDbEntity
  8
1
  6
CONTINUOUS
370
50
 62
4
100
AcDbLine
 10
23.090036
 20
-5.229053
 30
0.0
 11
23.090214
 21
-5.218983
 31
0.0
  0
LINE
  5
A2D
330
1F
100
AcDbEntity
  8
1
  6
CONTINUOUS
370
50
 62
4
100
AcDbLine
 10
19.460661
 20
-2.098575
 30
0.0
 11
19.464512
 21
-1.87399
 31
0.0
  0
LINE
  5
A2E
330
1F
100
AcDbEntity
  8
1
  6
CONTINUOUS
370
50
 62
4
100
AcDbLine
 10
47.733601
 20
2.537715
 30
0.0
 11
47.734535
 21
2.598633
 31
0.0
  0
LINE
  5
A2F
330
1F
100
AcDbEntity
  8
1
  6
CONTINUOUS
370
50
 62
4
100
AcDbLine
 10
23.09001
 20
5.225433
 30
0.0
 11
23.090015
 21
5.225836
 31
0.0
  0
LINE
  5
A30
330
1F
100
AcDbEntity
  8
1
  6
CONTINUOUS
370
50
 62
4
100
AcDbLine
 10
23.09001
 20
5.225433
 30
0.0
 11
23.090015
 21
5.225836999999999
 31
0.0
  0
LINE
  5
A31
330
1F
100
AcDbEntity
  8
1
  6
CONTINUOUS
370
50
 62
4
100
AcDbLine
 10
23.090015
 20
5.225836
 30
0.0
 11
23.090021
 21
5.226399
 31
0.0
  0
LINE
  5
A32
330
1F
100
AcDbEntity
  8
1
  6
CONTINUOUS
370
50
 62
4
100
AcDbLine
 10
23.090015
 20
5.225836999999999
 30
0.0
 11
23.090021
 21
5.2264
 31
0.0
  0
LINE
  5
A33
330
1F
100
AcDbEntity
  8
1
  6
CONTINUOUS
370
50
 62
4
100
AcDbLine
 10
47.659512
 20
2.354457
 30
0.0
 11
47.660137
 21
2.42505
 31
0.0
  0
LINE
  5
A34
330
1F
100
AcDbEntity
  8
1
  6
CONTINUOUS
370
50
 62
4
100
AcDbLine
 10
23.090021
 20
5.226399
 30
0.0
 11
23.090027
 21
5.227123
 31
0.0
  0
LINE
  5
A35
330
1F
100
AcDbEntity
  8
1
  6
CONTINUOUS
370
50
 62
4
100
AcDbLine
 10
23.090021
 20
5.2264
 30
0.0
 11
23.090027
 21
5.227124
 31
0.0
  0
LINE
  5
A36
330
1F
100
AcDbEntity
  8
1
  6
CONTINUOUS
370
50
 62
4
100
AcDbLine
 10
47.658913
 20
2.279644
 30
0.0
 11
47.659512
 21
2.354457
 31
0.0
  0
LINE
  5
A37
330
1F
100
AcDbEntity
  8
1
  6
CONTINUOUS
370
50
 62
4
100
AcDbLine
 10
47.65834
 20
2.200723
 30
0.0
 11
47.658913
 21
2.279644
 31
0.0
  0
LINE
  5
A38
330
1F
100
AcDbEntity
  8
1
  6
CONTINUOUS
370
50
 62
4
100
AcDbLine
 10
23.090027
 20
5.227123
 30
0.0
 11
23.090033
 21
5.228008
 31
0.0
  0
LINE
  5
A39
330
1F
100
AcDbEntity
  8
1
  6
CONTINUOUS
370
50
 62
4
100
AcDbLine
 10
23.090027
 20
5.227124
 30
0.0
 11
23.090033
 21
5.228009
 31
0.0
  0
LINE
  5
A3A
330
1F
100
AcDbEntity
  8
1
  6
CONTINUOUS
370
50
 62
4
100
AcDbLine
 10
47.657791
 20
2.117811
 30
0.0
 11
47.65834
 21
2.200723
 31
0.0
  0
LINE
  5
A3B
330
1F
100
AcDbEntity
  8
1
  6
CONTINUOUS
370
50
 62
4
100
AcDbLine
 10
23.090214
 20
-5.218986
 30
0.0
 11
23.090395
 21
-5.191078
 31
0.0
  0
LINE
  5
A3C
330
1F
100
AcDbEntity
  8
1
  6
CONTINUOUS
370
50
 62
4
100
AcDbLine
 10
23.090214
 20
-5.218983
 30
0.0
 11
23.090395
 21
-5.191072999999999
 31
0.0
  0
LINE
  5
A3D
330
1F
100
AcDbEntity
  8
1
  6
CONTINUOUS
370
50
 62
4
100
AcDbLine
 10
47.657272
 20
2.031021
 30
0.0
 11
47.657791
 21
2.117811
 31
0.0
  0
LINE
  5
A3E
330
1F
100
AcDbEntity
  8
1
  6
CONTINUOUS
370
50
 62
4
100
AcDbLine
 10
47.65678
 20
1.940467
 30
0.0
 11
47.657272
 21
2.031021
 31
0.0
  0
LINE
  5
A3F
330
1F
100
AcDbEntity
  8
1
  6
CONTINUOUS
370
50
 62
4
100
AcDbLine
 10
47.656319
 20
1.846265
 30
0.0
 11
47.65678
 21
1.940467
 31
0.0
  0
LINE
  5
A40
330
1F
100
AcDbEntity
  8
1
  6
CONTINUOUS
370
50
 62
4
100
AcDbLine
 10
47.655884
 20
1.748651
 30
0.0
 11
47.656319
 21
1.846265
 31
0.0
  0
LINE
  5
A41
330
1F
100
AcDbEntity
  8
1
  6
CONTINUOUS
370
50
 62
4
100
AcDbLine
 10
23.090395
 20
-5.191072999999999
 30
0.0
 11
23.09058
 21
-5.145489
 31
0.0
  0
LINE
  5
A42
330
1F
100
AcDbEntity
  8
1
  6
CONTINUOUS
370
50
 62
4
100
AcDbLine
 10
23.090395
 20
-5.191078
 30
0.0
 11
23.09058
 21
-5.145487
 31
0.0
  0
LINE
  5
A43
330
1F
100
AcDbEntity
  8
1
  6
CONTINUOUS
370
50
 62
4
100
AcDbLine
 10
47.655483
 20
1.64796
 30
0.0
 11
47.655884
 21
1.748651
 31
0.0
  0
LINE
  5
A44
330
1F
100
AcDbEntity
  8
1
  6
CONTINUOUS
370
50
 62
4
100
AcDbLine
 10
47.655113
 20
1.54434
 30
0.0
 11
47.655483
 21
1.64796
 31
0.0
  0
LINE
  5
A45
330
1F
100
AcDbEntity
  8
1
  6
CONTINUOUS
370
50
 62
4
100
AcDbLine
 10
47.654778
 20
1.43794
 30
0.0
 11
47.655113
 21
1.54434
 31
0.0
  0
LINE
  5
A46
330
1F
100
AcDbEntity
  8
1
  6
CONTINUOUS
370
50
 62
4
100
AcDbLine
 10
23.09058
 20
-5.145489
 30
0.0
 11
23.090771
 21
-5.082394
 31
0.0
  0
LINE
  5
A47
330
1F
100
AcDbEntity
  8
1
  6
CONTINUOUS
370
50
 62
4
100
AcDbLine
 10
23.09058
 20
-5.145487
 30
0.0
 11
23.090771
 21
-5.082368
 31
0.0
  0
LINE
  5
A48
330
1F
100
AcDbEntity
  8
1
  6
CONTINUOUS
370
50
 62
4
100
AcDbLine
 10
23.090033
 20
5.228009
 30
0.0
 11
23.090036
 21
5.229053
 31
0.0
  0
LINE
  5
A49
330
1F
100
AcDbEntity
  8
1
  6
CONTINUOUS
370
50
 62
4
100
AcDbLine
 10
23.090033
 20
5.228008
 30
0.0
 11
23.090036
 21
5.229053
 31
0.0
  0
LINE
  5
A4A
330
1F
100
AcDbEntity
  8
1
  6
CONTINUOUS
370
50
 62
4
100
AcDbLine
 10
47.462246
 20
1.363292
 30
0.0
 11
47.462334
 21
1.394344
 31
0.0
  0
LINE
  5
A4B
330
1F
100
AcDbEntity
  8
1
  6
CONTINUOUS
370
50
 62
4
100
AcDbLine
 10
47.462166
 20
1.332037
 30
0.0
 11
47.462246
 21
1.363292
 31
0.0
  0
LINE
  5
A4C
330
1F
100
AcDbEntity
  8
1
  6
CONTINUOUS
370
50
 62
4
100
AcDbLine
 10
47.462086
 20
1.300583
 30
0.0
 11
47.462166
 21
1.332037
 31
0.0
  0
LINE
  5
A4D
330
1F
100
AcDbEntity
  8
1
  6
CONTINUOUS
370
50
 62
4
100
AcDbLine
 10
47.46200899999999
 20
1.268934
 30
0.0
 11
47.462086
 21
1.300583
 31
0.0
  0
LINE
  5
A4E
330
1F
100
AcDbEntity
  8
1
  6
CONTINUOUS
370
50
 62
4
100
AcDbLine
 10
23.090771
 20
-5.082394
 30
0.0
 11
23.090965
 21
-5.001955
 31
0.0
  0
LINE
  5
A4F
330
1F
100
AcDbEntity
  8
1
  6
CONTINUOUS
370
50
 62
4
100
AcDbLine
 10
23.090771
 20
-5.082368
 30
0.0
 11
23.090965
 21
-5.001879
 31
0.0
  0
LINE
  5
A50
330
1F
100
AcDbEntity
  8
1
  6
CONTINUOUS
370
50
 62
4
100
AcDbLine
 10
47.461864
 20
1.205064
 30
0.0
 11
47.461937
 21
1.237093
 31
0.0
  0
LINE
  5
A51
330
1F
100
AcDbEntity
  8
1
  6
CONTINUOUS
370
50
 62
4
100
AcDbLine
 10
47.461937
 20
1.237093
 30
0.0
 11
47.46200899999999
 21
1.268934
 31
0.0
  0
LINE
  5
A52
330
1F
100
AcDbEntity
  8
1
  6
CONTINUOUS
370
50
 62
4
100
AcDbLine
 10
47.461796
 20
1.17285
 30
0.0
 11
47.461864
 21
1.205064
 31
0.0
  0
LINE
  5
A53
330
1F
100
AcDbEntity
  8
1
  6
CONTINUOUS
370
50
 62
4
100
AcDbLine
 10
23.090965
 20
-5.001955
 30
0.0
 11
23.091164
 21
-4.904335
 31
0.0
  0
LINE
  5
A54
330
1F
100
AcDbEntity
  8
1
  6
CONTINUOUS
370
50
 62
4
100
AcDbLine
 10
23.090965
 20
-5.001879
 30
0.0
 11
23.091164
 21
-4.904175
 31
0.0
  0
LINE
  5
A55
330
1F
100
AcDbEntity
  8
1
  6
CONTINUOUS
370
50
 62
4
100
AcDbLine
 10
23.091164
 20
-4.904335
 30
0.0
 11
23.091322
 21
-4.816009
 31
0.0
  0
LINE
  5
A56
330
1F
100
AcDbEntity
  8
1
  6
CONTINUOUS
370
50
 62
4
100
AcDbLine
 10
23.091164
 20
-4.904175
 30
0.0
 11
23.091349
 21
-4.799491
 31
0.0
  0
LINE
  5
A57
330
1F
100
AcDbEntity
  8
1
  6
CONTINUOUS
370
50
 62
4
100
AcDbLine
 10
23.091322
 20
-4.816009
 30
0.0
 11
23.09148
 21
-4.717759
 31
0.0
  0
LINE
  5
A58
330
1F
100
AcDbEntity
  8
1
  6
CONTINUOUS
370
50
 62
4
100
AcDbLine
 10
23.091349
 20
-4.799491
 30
0.0
 11
23.091536
 21
-4.681207
 31
0.0
  0
LINE
  5
A59
330
1F
100
AcDbEntity
  8
1
  6
CONTINUOUS
370
50
 62
4
100
AcDbLine
 10
23.09148
 20
-4.717759
 30
0.0
 11
23.09164
 21
-4.609845
 31
0.0
  0
LINE
  5
A5A
330
1F
100
AcDbEntity
  8
1
  6
CONTINUOUS
370
50
 62
4
100
AcDbLine
 10
23.091536
 20
-4.681207
 30
0.0
 11
23.091724
 21
-4.549663
 31
0.0
  0
LINE
  5
A5B
330
1F
100
AcDbEntity
  8
1
  6
CONTINUOUS
370
50
 62
4
100
AcDbLine
 10
23.09164
 20
-4.609845
 30
0.0
 11
23.091801
 21
-4.492487
 31
0.0
  0
LINE
  5
A5C
330
1F
100
AcDbEntity
  8
1
  6
CONTINUOUS
370
50
 62
4
100
AcDbLine
 10
23.091724
 20
-4.549663
 30
0.0
 11
23.091913
 21
-4.405196
 31
0.0
  0
LINE
  5
A5D
330
1F
100
AcDbEntity
  8
1
  6
CONTINUOUS
370
50
 62
4
100
AcDbLine
 10
23.091801
 20
-4.492487
 30
0.0
 11
23.091963
 21
-4.365904
 31
0.0
  0
LINE
  5
A5E
330
1F
100
AcDbEntity
  8
1
  6
CONTINUOUS
370
50
 62
4
100
AcDbLine
 10
23.091913
 20
-4.405196
 30
0.0
 11
23.092104
 21
-4.248145
 31
0.0
  0
LINE
  5
A5F
330
1F
100
AcDbEntity
  8
1
  6
CONTINUOUS
370
50
 62
4
100
AcDbLine
 10
23.091963
 20
-4.365904
 30
0.0
 11
23.092125
 21
-4.230315
 31
0.0
  0
LINE
  5
A60
330
1F
100
AcDbEntity
  8
1
  6
CONTINUOUS
370
50
 62
4
100
AcDbLine
 10
23.092104
 20
-4.248145
 30
0.0
 11
23.092295
 21
-4.078848
 31
0.0
  0
LINE
  5
A61
330
1F
100
AcDbEntity
  8
1
  6
CONTINUOUS
370
50
 62
4
100
AcDbLine
 10
23.092125
 20
-4.230315
 30
0.0
 11
23.092287
 21
-4.085939
 31
0.0
  0
LINE
  5
A62
330
1F
100
AcDbEntity
  8
1
  6
CONTINUOUS
370
50
 62
4
100
AcDbLine
 10
23.092287
 20
-4.085939
 30
0.0
 11
23.092449
 21
-3.932996
 31
0.0
  0
LINE
  5
A63
330
1F
100
AcDbEntity
  8
1
  6
CONTINUOUS
370
50
 62
4
100
AcDbLine
 10
23.092295
 20
-4.078848
 30
0.0
 11
23.092484
 21
-3.897743
 31
0.0
  0
LINE
  5
A64
330
1F
100
AcDbEntity
  8
1
  6
CONTINUOUS
370
50
 62
4
100
AcDbLine
 10
23.092449
 20
-3.932996
 30
0.0
 11
23.092609
 21
-3.771775
 31
0.0
  0
LINE
  5
A65
330
1F
100
AcDbEntity
  8
1
  6
CONTINUOUS
370
50
 62
4
100
AcDbLine
 10
23.092484
 20
-3.897743
 30
0.0
 11
23.092672
 21
-3.705974
 31
0.0
  0
LINE
  5
A66
330
1F
100
AcDbEntity
  8
1
  6
CONTINUOUS
370
50
 62
4
100
AcDbLine
 10
23.092609
 20
-3.771775
 30
0.0
 11
23.09277
 21
-3.60311
 31
0.0
  0
LINE
  5
A67
330
1F
100
AcDbEntity
  8
1
  6
CONTINUOUS
370
50
 62
4
100
AcDbLine
 10
23.092672
 20
-3.705974
 30
0.0
 11
23.092859
 21
-3.504201
 31
0.0
  0
LINE
  5
A68
330
1F
100
AcDbEntity
  8
1
  6
CONTINUOUS
370
50
 62
4
100
AcDbLine
 10
23.094772
 20
1.115084
 30
0.0
 11
23.094879
 21
1.232652
 31
0.0
  0
LINE
  5
A69
330
1F
100
AcDbEntity
  8
1
  6
CONTINUOUS
370
50
 62
4
100
AcDbLine
 10
23.094772
 20
1.115084
 30
0.0
 11
23.094879
 21
1.232712
 31
0.0
  0
LINE
  5
A6A
330
1F
100
AcDbEntity
  8
1
  6
CONTINUOUS
370
50
 62
4
100
AcDbLine
 10
23.09277
 20
-3.60311
 30
0.0
 11
23.092926
 21
-3.427453
 31
0.0
  0
LINE
  5
A6B
330
1F
100
AcDbEntity
  8
1
  6
CONTINUOUS
370
50
 62
4
100
AcDbLine
 10
23.092859
 20
-3.504201
 30
0.0
 11
23.093042
 21
-3.292939
 31
0.0
  0
LINE
  5
A6C
330
1F
100
AcDbEntity
  8
1
  6
CONTINUOUS
370
50
 62
4
100
AcDbLine
 10
23.092926
 20
-3.427453
 30
0.0
 11
23.093082
 21
-3.245129
 31
0.0
  0
LINE
  5
A6D
330
1F
100
AcDbEntity
  8
1
  6
CONTINUOUS
370
50
 62
4
100
AcDbLine
 10
23.093042
 20
-3.292939
 30
0.0
 11
23.093222
 21
-3.072699
 31
0.0
  0
LINE
  5
A6E
330
1F
100
AcDbEntity
  8
1
  6
CONTINUOUS
370
50
 62
4
100
AcDbLine
 10
23.093082
 20
-3.245129
 30
0.0
 11
23.093235
 21
-3.056466
 31
0.0
  0
LINE
  5
A6F
330
1F
100
AcDbEntity
  8
1
  6
CONTINUOUS
370
50
 62
4
100
AcDbLine
 10
23.093235
 20
-3.056466
 30
0.0
 11
23.093384
 21
-2.86179
 31
0.0
  0
LINE
  5
A70
330
1F
100
AcDbEntity
  8
1
  6
CONTINUOUS
370
50
 62
4
100
AcDbLine
 10
23.093222
 20
-3.072699
 30
0.0
 11
23.093397
 21
-2.843996
 31
0.0
  0
LINE
  5
A71
330
1F
100
AcDbEntity
  8
1
  6
CONTINUOUS
370
50
 62
4
100
AcDbLine
 10
23.093384
 20
-2.86179
 30
0.0
 11
23.093529
 21
-2.661428
 31
0.0
  0
LINE
  5
A72
330
1F
100
AcDbEntity
  8
1
  6
CONTINUOUS
370
50
 62
4
100
AcDbLine
 10
23.093397
 20
-2.843996
 30
0.0
 11
23.093567
 21
-2.607341
 31
0.0
  0
LINE
  5
A73
330
1F
100
AcDbEntity
  8
1
  6
CONTINUOUS
370
50
 62
4
100
AcDbLine
 10
23.093529
 20
-2.661428
 30
0.0
 11
23.09367
 21
-2.455708
 31
0.0
  0
LINE
  5
A74
330
1F
100
AcDbEntity
  8
1
  6
CONTINUOUS
370
50
 62
4
100
AcDbLine
 10
23.093567
 20
-2.607341
 30
0.0
 11
23.093731
 21
-2.363456
 31
0.0
  0
LINE
  5
A75
330
1F
100
AcDbEntity
  8
1
  6
CONTINUOUS
370
50
 62
4
100
AcDbLine
 10
23.09367
 20
-2.455708
 30
0.0
 11
23.093805
 21
-2.245005
 31
0.0
  0
LINE
  5
A76
330
1F
100
AcDbEntity
  8
1
  6
CONTINUOUS
370
50
 62
4
100
AcDbLine
 10
23.093731
 20
-2.363456
 30
0.0
 11
23.093887
 21
-2.113939
 31
0.0
  0
LINE
  5
A77
330
1F
100
AcDbEntity
  8
1
  6
CONTINUOUS
370
50
 62
4
100
AcDbLine
 10
23.093805
 20
-2.245005
 30
0.0
 11
23.093937
 21
-2.030377
 31
0.0
  0
LINE
  5
A78
330
1F
100
AcDbEntity
  8
1
  6
CONTINUOUS
370
50
 62
4
100
AcDbLine
 10
23.094879
 20
1.232712
 30
0.0
 11
23.094952
 21
1.358194
 31
0.0
  0
LINE
  5
A79
330
1F
100
AcDbEntity
  8
1
  6
CONTINUOUS
370
50
 62
4
100
AcDbLine
 10
23.093887
 20
-2.113939
 30
0.0
 11
23.094034
 21
-1.85955
 31
0.0
  0
LINE
  5
A7A
330
1F
100
AcDbEntity
  8
1
  6
CONTINUOUS
370
50
 62
4
100
AcDbLine
 10
23.094879
 20
1.232652
 30
0.0
 11
23.09495
 21
1.357936
 31
0.0
  0
LINE
  5
A7B
330
1F
100
AcDbEntity
  8
1
  6
CONTINUOUS
370
50
 62
4
100
AcDbLine
 10
23.093937
 20
-2.030377
 30
0.0
 11
23.094059
 21
-1.81244
 31
0.0
  0
LINE
  5
A7C
330
1F
100
AcDbEntity
  8
1
  6
CONTINUOUS
370
50
 62
4
100
AcDbLine
 10
23.094034
 20
-1.85955
 30
0.0
 11
23.094172
 21
-1.600912
 31
0.0
  0
LINE
  5
A7D
330
1F
100
AcDbEntity
  8
1
  6
CONTINUOUS
370
50
 62
4
100
AcDbLine
 10
23.094059
 20
-1.81244
 30
0.0
 11
23.094175
 21
-1.59158
 31
0.0
  0
LINE
  5
A7E
330
1F
100
AcDbEntity
  8
1
  6
CONTINUOUS
370
50
 62
4
100
AcDbLine
 10
23.094175
 20
-1.59158
 30
0.0
 11
23.094284
 21
-1.368187
 31
0.0
  0
LINE
  5
A7F
330
1F
100
AcDbEntity
  8
1
  6
CONTINUOUS
370
50
 62
4
100
AcDbLine
 10
23.094172
 20
-1.600912
 30
0.0
 11
23.094297
 21
-1.338647
 31
0.0
  0
LINE
  5
A80
330
1F
100
AcDbEntity
  8
1
  6
CONTINUOUS
370
50
 62
4
100
AcDbLine
 10
23.094284
 20
-1.368187
 30
0.0
 11
23.094383
 21
-1.142649
 31
0.0
  0
LINE
  5
A81
330
1F
100
AcDbEntity
  8
1
  6
CONTINUOUS
370
50
 62
4
100
AcDbLine
 10
23.094297
 20
-1.338647
 30
0.0
 11
23.094412
 21
-1.073379
 31
0.0
  0
LINE
  5
A82
330
1F
100
AcDbEntity
  8
1
  6
CONTINUOUS
370
50
 62
4
100
AcDbLine
 10
23.094383
 20
-1.142649
 30
0.0
 11
23.094473
 21
-0.915353
 31
0.0
  0
LINE
  5
A83
330
1F
100
AcDbEntity
  8
1
  6
CONTINUOUS
370
50
 62
4
100
AcDbLine
 10
23.094412
 20
-1.073379
 30
0.0
 11
23.094513
 21
-0.80573
 31
0.0
  0
LINE
  5
A84
330
1F
100
AcDbEntity
  8
1
  6
CONTINUOUS
370
50
 62
4
100
AcDbLine
 10
23.094473
 20
-0.915353
 30
0.0
 11
23.094553
 21
-0.686688
 31
0.0
  0
LINE
  5
A85
330
1F
100
AcDbEntity
  8
1
  6
CONTINUOUS
370
50
 62
4
100
AcDbLine
 10
23.094513
 20
-0.80573
 30
0.0
 11
23.094601
 21
-0.5366339999999999
 31
0.0
  0
LINE
  5
A86
330
1F
100
AcDbEntity
  8
1
  6
CONTINUOUS
370
50
 62
4
100
AcDbLine
 10
23.094553
 20
-0.686688
 30
0.0
 11
23.094624
 21
-0.457264
 31
0.0
  0
LINE
  5
A87
330
1F
100
AcDbEntity
  8
1
  6
CONTINUOUS
370
50
 62
4
100
AcDbLine
 10
23.094601
 20
-0.5366339999999999
 30
0.0
 11
23.094671
 21
-0.267814
 31
0.0
  0
LINE
  5
A88
330
1F
100
AcDbEntity
  8
1
  6
CONTINUOUS
370
50
 62
4
100
AcDbLine
 10
23.09495
 20
1.357936
 30
0.0
 11
23.094984
 21
1.490444
 31
0.0
  0
LINE
  5
A89
330
1F
100
AcDbEntity
  8
1
  6
CONTINUOUS
370
50
 62
4
100
AcDbLine
 10
23.094952
 20
1.358194
 30
0.0
 11
23.094986
 21
1.491058
 31
0.0
  0
LINE
  5
A8A
330
1F
100
AcDbEntity
  8
1
  6
CONTINUOUS
370
50
 62
4
100
AcDbLine
 10
23.094624
 20
-0.457264
 30
0.0
 11
23.094681
 21
-0.228217
 31
0.0
  0
LINE
  5
A8B
330
1F
100
AcDbEntity
  8
1
  6
CONTINUOUS
370
50
 62
4
100
AcDbLine
 10
23.094671
 20
-0.267814
 30
0.0
 11
23.094728
 21
0.0
 31
0.0
  0
LINE
  5
A8C
330
1F
100
AcDbEntity
  8
1
  6
CONTINUOUS
370
50
 62
4
100
AcDbLine
 10
23.094681
 20
-0.228217
 30
0.0
 11
23.094727
 21
0.0
 31
0.0
  0
LINE
  5
A8D
330
1F
100
AcDbEntity
  8
1
  6
CONTINUOUS
370
50
 62
4
100
AcDbLine
 10
23.094727
 20
0.0
 30
0.0
 11
23.094753
 21
0.162317
 31
0.0
  0
LINE
  5
A8E
330
1F
100
AcDbEntity
  8
1
  6
CONTINUOUS
370
50
 62
4
100
AcDbLine
 10
23.094728
 20
0.0
 30
0.0
 11
23.094753
 21
0.162273
 31
0.0
  0
LINE
  5
A8F
330
1F
100
AcDbEntity
  8
1
  6
CONTINUOUS
370
50
 62
4
100
AcDbLine
 10
23.094753
 20
0.162273
 30
0.0
 11
23.094772
 21
0.323795
 31
0.0
  0
LINE
  5
A90
330
1F
100
AcDbEntity
  8
1
  6
CONTINUOUS
370
50
 62
4
100
AcDbLine
 10
23.094753
 20
0.162317
 30
0.0
 11
23.094772
 21
0.323867
 31
0.0
  0
LINE
  5
A91
330
1F
100
AcDbEntity
  8
1
  6
CONTINUOUS
370
50
 62
4
100
AcDbLine
 10
23.094772
 20
0.323795
 30
0.0
 11
23.094786
 21
0.484419
 31
0.0
  0
LINE
  5
A92
330
1F
100
AcDbEntity
  8
1
  6
CONTINUOUS
370
50
 62
4
100
AcDbLine
 10
23.094772
 20
0.323867
 30
0.0
 11
23.094786
 21
0.484506
 31
0.0
  0
LINE
  5
A93
330
1F
100
AcDbEntity
  8
1
  6
CONTINUOUS
370
50
 62
4
100
AcDbLine
 10
23.094786
 20
0.484506
 30
0.0
 11
23.094791
 21
0.6440899999999999
 31
0.0
  0
LINE
  5
A94
330
1F
100
AcDbEntity
  8
1
  6
CONTINUOUS
370
50
 62
4
100
AcDbLine
 10
23.094786
 20
0.484419
 30
0.0
 11
23.094791
 21
0.644004
 31
0.0
  0
LINE
  5
A95
330
1F
100
AcDbEntity
  8
1
  6
CONTINUOUS
370
50
 62
4
100
AcDbLine
 10
-0.01
 20
-6.34995
 30
0.0
 11
-0.01
 21
6.34995
 31
0.0
  0
LINE
  5
A96
330
1F
100
AcDbEntity
  8
1
  6
CONTINUOUS
370
50
 62
4
100
AcDbLine
 10
1.59
 20
-5.47995
 30
0.0
 11
1.59
 21
5.47995
 31
0.0
  0
LINE
  5
A97
330
1F
100
AcDbEntity
  8
1
  6
CONTINUOUS
370
50
 62
4
100
AcDbLine
 10
23.09
 20
4.802035
 30
0.0
 11
23.09
 21
5.229032999999999
 31
0.0
  0
LINE
  5
A98
330
1F
100
AcDbEntity
  8
1
  6
CONTINUOUS
370
50
 62
4
100
AcDbLine
 10
23.09
 20
-5.229032999999999
 30
0.0
 11
23.09
 21
-5.228893999999999
 31
0.0
  0
LINE
  5
A99
330
1F
100
AcDbEntity
  8
1
  6
CONTINUOUS
370
50
 62
4
100
AcDbLine
 10
23.09
 20
-5.228893999999999
 30
0.0
 11
23.09
 21
-5.228656
 31
0.0
  0
LINE
  5
A9A
330
1F
100
AcDbEntity
  8
1
  6
CONTINUOUS
370
50
 62
4
100
AcDbLine
 10
23.09
 20
-5.228656
 30
0.0
 11
23.09
 21
-5.228319
 31
0.0
  0
LINE
  5
A9B
330
1F
100
AcDbEntity
  8
1
  6
CONTINUOUS
370
50
 62
4
100
AcDbLine
 10
23.09
 20
-5.228319
 30
0.0
 11
23.09
 21
-5.227882999999999
 31
0.0
  0
LINE
  5
A9C
330
1F
100
AcDbEntity
  8
1
  6
CONTINUOUS
370
50
 62
4
100
AcDbLine
 10
23.09
 20
-5.227882999999999
 30
0.0
 11
23.09
 21
-5.227347
 31
0.0
  0
LINE
  5
A9D
330
1F
100
AcDbEntity
  8
1
  6
CONTINUOUS
370
50
 62
4
100
AcDbLine
 10
23.09
 20
-5.227347
 30
0.0
 11
23.09
 21
-5.226713
 31
0.0
  0
LINE
  5
A9E
330
1F
100
AcDbEntity
  8
1
  6
CONTINUOUS
370
50
 62
4
100
AcDbLine
 10
23.09
 20
-5.226713
 30
0.0
 11
23.09
 21
-5.225979
 31
0.0
  0
LINE
  5
A9F
330
1F
100
AcDbEntity
  8
1
  6
CONTINUOUS
370
50
 62
4
100
AcDbLine
 10
23.094791
 20
0.644004
 30
0.0
 11
23.094791
 21
0.802477
 31
0.0
  0
LINE
  5
AA0
330
1F
100
AcDbEntity
  8
1
  6
CONTINUOUS
370
50
 62
4
100
AcDbLine
 10
23.1
 20
5.230748
 30
0.0
 11
23.1
 21
5.302014
 31
0.0
  0
LINE
  5
AA1
330
1F
100
AcDbEntity
  8
1
  6
CONTINUOUS
370
50
 62
4
100
AcDbLine
 10
23.1
 20
4.869715999999999
 30
0.0
 11
23.1
 21
4.871148
 31
0.0
  0
LINE
  5
AA2
330
1F
100
AcDbEntity
  8
1
  6
CONTINUOUS
370
50
 62
4
100
AcDbLine
 10
23.1
 20
-3.884312
 30
0.0
 11
23.1
 21
-0.027763
 31
0.0
  0
LINE
  5
AA3
330
1F
100
AcDbEntity
  8
1
  6
CONTINUOUS
370
50
 62
4
100
AcDbLine
 10
23.1
 20
4.437132
 30
0.0
 11
23.1
 21
4.869715999999999
 31
0.0
  0
LINE
  5
AA4
330
1F
100
AcDbEntity
  8
1
  6
CONTINUOUS
370
50
 62
4
100
AcDbLine
 10
23.1
 20
3.867593
 30
0.0
 11
23.1
 21
4.017069
 31
0.0
  0
LINE
  5
AA5
330
1F
100
AcDbEntity
  8
1
  6
CONTINUOUS
370
50
 62
4
100
AcDbLine
 10
23.1
 20
3.713631
 30
0.0
 11
23.1
 21
3.867593
 31
0.0
  0
LINE
  5
AA6
330
1F
100
AcDbEntity
  8
1
  6
CONTINUOUS
370
50
 62
4
100
AcDbLine
 10
23.1
 20
3.555766
 30
0.0
 11
23.1
 21
3.713631
 31
0.0
  0
LINE
  5
AA7
330
1F
100
AcDbEntity
  8
1
  6
CONTINUOUS
370
50
 62
4
100
AcDbLine
 10
23.1
 20
3.39458
 30
0.0
 11
23.1
 21
3.555766
 31
0.0
  0
LINE
  5
AA8
330
1F
100
AcDbEntity
  8
1
  6
CONTINUOUS
370
50
 62
4
100
AcDbLine
 10
23.1
 20
3.230655
 30
0.0
 11
23.1
 21
3.39458
 31
0.0
  0
LINE
  5
AA9
330
1F
100
AcDbEntity
  8
1
  6
CONTINUOUS
370
50
 62
4
100
AcDbLine
 10
23.1
 20
3.064675
 30
0.0
 11
23.1
 21
3.230655
 31
0.0
  0
LINE
  5
AAA
330
1F
100
AcDbEntity
  8
1
  6
CONTINUOUS
370
50
 62
4
100
AcDbLine
 10
23.1
 20
2.898079
 30
0.0
 11
23.1
 21
3.064675
 31
0.0
  0
LINE
  5
AAB
330
1F
100
AcDbEntity
  8
1
  6
CONTINUOUS
370
50
 62
4
100
AcDbLine
 10
23.1
 20
2.731667
 30
0.0
 11
23.1
 21
2.898079
 31
0.0
  0
LINE
  5
AAC
330
1F
100
AcDbEntity
  8
1
  6
CONTINUOUS
370
50
 62
4
100
AcDbLine
 10
23.1
 20
2.566047
 30
0.0
 11
23.1
 21
2.731667
 31
0.0
  0
LINE
  5
AAD
330
1F
100
AcDbEntity
  8
1
  6
CONTINUOUS
370
50
 62
4
100
AcDbLine
 10
23.1
 20
2.401825
 30
0.0
 11
23.1
 21
2.566047
 31
0.0
  0
LINE
  5
AAE
330
1F
100
AcDbEntity
  8
1
  6
CONTINUOUS
370
50
 62
4
100
AcDbLine
 10
23.1
 20
2.239609
 30
0.0
 11
23.1
 21
2.401825
 31
0.0
  0
LINE
  5
AAF
330
1F
100
AcDbEntity
  8
1
  6
CONTINUOUS
370
50
 62
4
100
AcDbLine
 10
23.1
 20
2.080331
 30
0.0
 11
23.1
 21
2.239609
 31
0.0
  0
LINE
  5
AB0
330
1F
100
AcDbEntity
  8
1
  6
CONTINUOUS
370
50
 62
4
100
AcDbLine
 10
23.1
 20
1.925157
 30
0.0
 11
23.1
 21
2.080331
 31
0.0
  0
LINE
  5
AB1
330
1F
100
AcDbEntity
  8
1
  6
CONTINUOUS
370
50
 62
4
100
AcDbLine
 10
23.1
 20
1.774658
 30
0.0
 11
23.1
 21
1.925157
 31
0.0
  0
LINE
  5
AB2
330
1F
100
AcDbEntity
  8
1
  6
CONTINUOUS
370
50
 62
4
100
AcDbLine
 10
23.1
 20
1.629394
 30
0.0
 11
23.1
 21
1.774658
 31
0.0
  0
LINE
  5
AB3
330
1F
100
AcDbEntity
  8
1
  6
CONTINUOUS
370
50
 62
4
100
AcDbLine
 10
23.1
 20
1.490199
 30
0.0
 11
23.1
 21
1.629394
 31
0.0
  0
LINE
  5
AB4
330
1F
100
AcDbEntity
  8
1
  6
CONTINUOUS
370
50
 62
4
100
AcDbLine
 10
23.1
 20
1.357955
 30
0.0
 11
23.1
 21
1.490199
 31
0.0
  0
LINE
  5
AB5
330
1F
100
AcDbEntity
  8
1
  6
CONTINUOUS
370
50
 62
4
100
AcDbLine
 10
23.1
 20
1.233134
 30
0.0
 11
23.1
 21
1.357955
 31
0.0
  0
LINE
  5
AB6
330
1F
100
AcDbEntity
  8
1
  6
CONTINUOUS
370
50
 62
4
100
AcDbLine
 10
23.1
 20
1.116208
 30
0.0
 11
23.1
 21
1.233134
 31
0.0
  0
LINE
  5
AB7
330
1F
100
AcDbEntity
  8
1
  6
CONTINUOUS
370
50
 62
4
100
AcDbLine
 10
23.1
 20
4.377123
 30
0.0
 11
23.1
 21
4.437132
 31
0.0
  0
LINE
  5
AB8
330
1F
100
AcDbEntity
  8
1
  6
CONTINUOUS
370
50
 62
4
100
AcDbLine
 10
23.1
 20
4.317114
 30
0.0
 11
23.1
 21
4.377123
 31
0.0
  0
LINE
  5
AB9
330
1F
100
AcDbEntity
  8
1
  6
CONTINUOUS
370
50
 62
4
100
AcDbLine
 10
23.1
 20
4.257105
 30
0.0
 11
23.1
 21
4.317114
 31
0.0
  0
LINE
  5
ABA
330
1F
100
AcDbEntity
  8
1
  6
CONTINUOUS
370
50
 62
4
100
AcDbLine
 10
23.1
 20
4.197096
 30
0.0
 11
23.1
 21
4.257105
 31
0.0
  0
LINE
  5
ABB
330
1F
100
AcDbEntity
  8
1
  6
CONTINUOUS
370
50
 62
4
100
AcDbLine
 10
23.1
 20
4.137087
 30
0.0
 11
23.1
 21
4.197096
 31
0.0
  0
LINE
  5
ABC
330
1F
100
AcDbEntity
  8
1
  6
CONTINUOUS
370
50
 62
4
100
AcDbLine
 10
23.1
 20
4.077078
 30
0.0
 11
23.1
 21
4.137087
 31
0.0
  0
LINE
  5
ABD
330
1F
100
AcDbEntity
  8
1
  6
CONTINUOUS
370
50
 62
4
100
AcDbLine
 10
23.1
 20
4.017069
 30
0.0
 11
23.1
 21
4.077078
 31
0.0
  0
LINE
  5
ABE
330
1F
100
AcDbEntity
  8
1
  6
CONTINUOUS
370
50
 62
4
100
AcDbLine
 10
23.1
 20
1.016986
 30
0.0
 11
23.1
 21
1.116208
 31
0.0
  0
LINE
  5
ABF
330
1F
100
AcDbEntity
  8
1
  6
CONTINUOUS
370
50
 62
4
100
AcDbLine
 10
23.1
 20
0.916476
 30
0.0
 11
23.1
 21
1.016986
 31
0.0
  0
LINE
  5
AC0
330
1F
100
AcDbEntity
  8
1
  6
CONTINUOUS
370
50
 62
4
100
AcDbLine
 10
23.1
 20
0.814781
 30
0.0
 11
23.1
 21
0.916476
 31
0.0
  0
LINE
  5
AC1
330
1F
100
AcDbEntity
  8
1
  6
CONTINUOUS
370
50
 62
4
100
AcDbLine
 10
23.1
 20
0.712009
 30
0.0
 11
23.1
 21
0.814781
 31
0.0
  0
LINE
  5
AC2
330
1F
100
AcDbEntity
  8
1
  6
CONTINUOUS
370
50
 62
4
100
AcDbLine
 10
23.1
 20
0.608265
 30
0.0
 11
23.1
 21
0.712009
 31
0.0
  0
LINE
  5
AC3
330
1F
100
AcDbEntity
  8
1
  6
CONTINUOUS
370
50
 62
4
100
AcDbLine
 10
23.1
 20
0.5036539999999999
 30
0.0
 11
23.1
 21
0.608265
 31
0.0
  0
LINE
  5
AC4
330
1F
100
AcDbEntity
  8
1
  6
CONTINUOUS
370
50
 62
4
100
AcDbLine
 10
23.1
 20
0.398281
 30
0.0
 11
23.1
 21
0.5036539999999999
 31
0.0
  0
LINE
  5
AC5
330
1F
100
AcDbEntity
  8
1
  6
CONTINUOUS
370
50
 62
4
100
AcDbLine
 10
23.1
 20
0.292253
 30
0.0
 11
23.1
 21
0.398281
 31
0.0
  0
LINE
  5
AC6
330
1F
100
AcDbEntity
  8
1
  6
CONTINUOUS
370
50
 62
4
100
AcDbLine
 10
23.1
 20
0.185707
 30
0.0
 11
23.1
 21
0.292253
 31
0.0
  0
LINE
  5
AC7
330
1F
100
AcDbEntity
  8
1
  6
CONTINUOUS
370
50
 62
4
100
AcDbLine
 10
23.1
 20
0.078985
 30
0.0
 11
23.1
 21
0.185707
 31
0.0
  0
LINE
  5
AC8
330
1F
100
AcDbEntity
  8
1
  6
CONTINUOUS
370
50
 62
4
100
AcDbLine
 10
23.1
 20
-0.027763
 30
0.0
 11
23.1
 21
0.078985
 31
0.0
  0
LINE
  5
AC9
330
1F
100
AcDbEntity
  8
1
  6
CONTINUOUS
370
50
 62
4
100
AcDbLine
 10
23.1
 20
-4.106777999999999
 30
0.0
 11
23.1
 21
-3.884312
 31
0.0
  0
LINE
  5
ACA
330
1F
100
AcDbEntity
  8
1
  6
CONTINUOUS
370
50
 62
4
100
AcDbLine
 10
23.1
 20
-4.312425999999999
 30
0.0
 11
23.1
 21
-4.106777999999999
 31
0.0
  0
LINE
  5
ACB
330
1F
100
AcDbEntity
  8
1
  6
CONTINUOUS
370
50
 62
4
100
AcDbLine
 10
23.1
 20
-4.500595
 30
0.0
 11
23.1
 21
-4.312425999999999
 31
0.0
  0
LINE
  5
ACC
330
1F
100
AcDbEntity
  8
1
  6
CONTINUOUS
370
50
 62
4
100
AcDbLine
 10
23.1
 20
-4.670675999999999
 30
0.0
 11
23.1
 21
-4.500595
 31
0.0
  0
LINE
  5
ACD
330
1F
100
AcDbEntity
  8
1
  6
CONTINUOUS
370
50
 62
4
100
AcDbLine
 10
23.1
 20
-4.822061
 30
0.0
 11
23.1
 21
-4.670675999999999
 31
0.0
  0
LINE
  5
ACE
330
1F
100
AcDbEntity
  8
1
  6
CONTINUOUS
370
50
 62
4
100
AcDbLine
 10
23.1
 20
-4.954142
 30
0.0
 11
23.1
 21
-4.822061
 31
0.0
  0
LINE
  5
ACF
330
1F
100
AcDbEntity
  8
1
  6
CONTINUOUS
370
50
 62
4
100
AcDbLine
 10
23.1
 20
-5.066047
 30
0.0
 11
23.1
 21
-4.954142
 31
0.0
  0
LINE
  5
AD0
330
1F
100
AcDbEntity
  8
1
  6
CONTINUOUS
370
50
 62
4
100
AcDbLine
 10
23.1
 20
-5.157087
 30
0.0
 11
23.1
 21
-5.066047
 31
0.0
  0
LINE
  5
AD1
330
1F
100
AcDbEntity
  8
1
  6
CONTINUOUS
370
50
 62
4
100
AcDbLine
 10
23.1
 20
-5.226969
 30
0.0
 11
23.1
 21
-5.157087
 31
0.0
  0
LINE
  5
AD2
330
1F
100
AcDbEntity
  8
1
  6
CONTINUOUS
370
50
 62
4
100
AcDbLine
 10
23.1
 20
-5.275383
 30
0.0
 11
23.1
 21
-5.226969
 31
0.0
  0
LINE
  5
AD3
330
1F
100
AcDbEntity
  8
1
  6
CONTINUOUS
370
50
 62
4
100
AcDbLine
 10
23.1
 20
-5.302014
 30
0.0
 11
23.1
 21
-5.275383
 31
0.0
  0
LINE
  5
AD4
330
1F
100
AcDbEntity
  8
1
  6
CONTINUOUS
370
50
 62
4
100
AcDbLine
 10
42.305477
 20
-3.777347
 30
0.0
 11
42.305477
 21
-3.713592
 31
0.0
  0
LINE
  5
AD5
330
1F
100
AcDbEntity
  8
1
  6
CONTINUOUS
370
50
 62
4
100
AcDbLine
 10
42.933998
 20
-4.663327
 30
0.0
 11
42.933998
 21
-4.100514
 31
0.0
  0
LINE
  5
AD6
330
1F
100
AcDbEntity
  8
1
  6
CONTINUOUS
370
50
 62
4
100
AcDbLine
 10
43.901424
 20
-4.202821999999999
 30
0.0
 11
43.901424
 21
-3.662026
 31
0.0
  0
ELLIPSE
  5
AD7
330
1F
100
AcDbEntity
  8
1
  6
CONTINUOUS
370
50
 62
4
100
AcDbEllipse
 10
20.637462
 20
-8.847805
 30
0.0
 11
-5.452728779616669
 21
2.564013468675647
 31
0.0
210
0.0
220
0.0
230
1.0
 40
0.6154889062547122
 41
5.011553069631734
 42
5.511815528798526
  0
ELLIPSE
  5
AD8
330
1F
100
AcDbEntity
  8
1
  6
CONTINUOUS
370
50
 62
4
100
AcDbEllipse
 10
20.637462
 20
-8.847805
 30
0.0
 11
-5.452728779616669
 21
2.564013468675647
 31
0.0
210
0.0
220
0.0
230
1.0
 40
0.6154889062547122
 41
5.850163609997071
 42
5.99457605451321
  0
ELLIPSE
  5
AD9
330
1F
100
AcDbEntity
  8
1
  6
CONTINUOUS
370
50
 62
4
100
AcDbEllipse
 10
20.98293
 20
-8.113119
 30
0.0
 11
-5.19218699403612
 21
2.441500012683014
 31
0.0
210
0.0
220
0.0
230
1.0
 40
0.6154889732696672
 41
4.614265567179832
 42
4.882164532970936
  0
ELLIPSE
  5
ADA
330
1F
100
AcDbEntity
  8
1
  6
CONTINUOUS
370
50
 62
4
100
AcDbEllipse
 10
20.98293
 20
-8.113119
 30
0.0
 11
-5.19218699403612
 21
2.441500012683014
 31
0.0
210
0.0
220
0.0
230
1.0
 40
0.6154889732696672
 41
4.59166686637414
 42
4.593669344485202
  0
ELLIPSE
  5
ADB
330
1F
100
AcDbEntity
  8
1
  6
CONTINUOUS
370
50
 62
4
100
AcDbEllipse
 10
20.98293
 20
8.113119
 30
0.0
 11
5.192186994036122
 21
2.441500012683009
 31
0.0
210
0.0
220
0.0
230
1.0
 40
0.6154889732696671
 41
4.789387709595014
 42
4.810512393589546
  0
ELLIPSE
  5
ADC
330
1F
100
AcDbEntity
  8
1
  6
CONTINUOUS
370
50
 62
4
100
AcDbEllipse
 10
20.98293
 20
8.113119
 30
0.0
 11
5.192186994036122
 21
2.441500012683009
 31
0.0
210
0.0
220
0.0
230
1.0
 40
0.6154889732696671
 41
4.831108616284178
 42
4.83311109439524
  0
ELLIPSE
  5
ADD
330
1F
100
AcDbEntity
  8
1
  6
CONTINUOUS
370
50
 62
4
100
AcDbEllipse
 10
23.425924
 20
-2.917755
 30
0.0
 11
-5.471646064393354
 21
2.572908863058641
 31
0.0
210
0.0
220
0.0
230
1.0
 40
0.6154889980450784
 41
5.051359288772804
 42
5.909836207933831
  0
ELLIPSE
  5
ADE
330
1F
100
AcDbEntity
  8
1
  6
CONTINUOUS
370
50
 62
4
100
AcDbEllipse
 10
24.023175
 20
-1.647619
 30
0.0
 11
-7.554654066414187
 21
3.552392858761062
 31
0.0
210
0.0
220
0.0
230
1.0
 40
0.6154889621794695
 41
5.111763549082395
 42
5.487200889790754
  0
ARC
  5
ADF
330
1F
100
AcDbEntity
  8
1
  6
CONTINUOUS
370
50
 62
4
100
AcDbCircle
 10
42.934
 20
0.0
 30
0.0
 40
5.556
100
AcDbArc
 50
323.1776059638821
 51
36.822394036118
  0
ELLIPSE
  5
AE0
330
1F
100
AcDbEntity
  8
1
  6
CONTINUOUS
370
50
 62
4
100
AcDbEllipse
 10
43.281854
 20
-1.121323
 30
0.0
 11
5.137416905324367
 21
1.593716305191232
 31
0.0
210
0.0
220
0.0
230
0.9999999999999998
 40
0.5367403676611345
 41
6.119153025743747
 42
6.692384944280064
  0
ELLIPSE
  5
AE1
330
1F
100
AcDbEntity
  8
1
  6
CONTINUOUS
370
50
 62
4
100
AcDbEllipse
 10
43.31571
 20
-1.114048
 30
0.0
 11
4.949297847038579
 21
1.535358493078182
 31
0.0
210
0.0
220
0.0
230
1.0
 40
0.5367403843415428
 41
6.134889862717515
 42
6.716229927790548
  0
ELLIPSE
  5
AE2
330
1F
100
AcDbEntity
  8
1
  6
CONTINUOUS
370
50
 62
4
100
AcDbEllipse
 10
44.325416
 20
0.297897
 30
0.0
 11
-1.006730756211354
 21
4.702234052194245
 31
0.0
210
0.0
220
0.0
230
0.9999999999999999
 40
0.8593932251390639
 41
2.556780130810437
 42
4.468234026317973
  0
ELLIPSE
  5
AE3
330
1F
100
AcDbEntity
  8
1
  6
CONTINUOUS
370
50
 62
4
100
AcDbEllipse
 10
44.352501
 20
0.295964
 30
0.0
 11
-0.962097887362983
 21
4.493763024115165
 31
0.0
210
0.0
220
0.0
230
1.0
 40
0.859393100601091
 41
2.783856207691538
 42
4.468234060309967
  0
ELLIPSE
  5
AE4
330
1F
100
AcDbEntity
  8
1
  6
CONTINUOUS
370
50
 62
4
100
AcDbEllipse
 10
45.95905
 20
0.181321
 30
0.0
 11
-8.523156970294501
 21
0.8651392926519246
 31
0.0
210
0.0
220
0.0
230
1.0
 40
0.5429963298069833
 41
1.183562523734494
 42
1.382409579484626
  0
ELLIPSE
  5
AE5
330
1F
100
AcDbEntity
  8
1
  6
CONTINUOUS
370
50
 62
4
100
AcDbEllipse
 10
48.500084
 20
-0.000006
 30
0.0
 11
-9.606331978339743
 21
1.016698204658208
 31
0.0
210
0.0
220
0.0
230
1.0
 40
0.5686054775656827
 41
0.9316036454741953
 42
1.014171425985672
  0
LINE
  5
AE6
330
1F
100
AcDbEntity
  8
CUT
  6
CONTINUOUS
370
25
 62
1
100
AcDbLine
 10
23.1
 20
0.0
 30
0.0
 11
48.48999999999999
 21
0.0
 31
0.0
  0
ARC
  5
AE7
330
1F
100
AcDbEntity
  8
CUT
  6
CONTINUOUS
370
25
 62
1
100
AcDbCircle
 10
42.934
 20
0.0
 30
0.0
 40
5.555999999999997
100
AcDbArc
 50
0.0
 51
90.0
  0
LINE
  5
AE8
330
1F
100
AcDbEntity
  8
CUT
  6
CONTINUOUS
370
25
 62
1
100
AcDbLine
 10
42.934
 20
5.556000000000001
 30
0.0
 11
23.09
 21
5.5559
 31
0.0
  0
LINE
  5
AE9
330
1F
100
AcDbEntity
  8
CUT
  6
CONTINUOUS
370
25
 62
1
100
AcDbLine
 10
23.09
 20
5.5559
 30
0.0
 11
23.09
 21
5.5509
 31
0.0
  0
LINE
  5
AEA
330
1F
100
AcDbEntity
  8
CUT
  6
CONTINUOUS
370
25
 62
1
100
AcDbLine
 10
23.09
 20
5.5509
 30
0.0
 11
23.1
 21
0.0
 31
0.0
  0
LINE
  5
AEB
330
1F
100
AcDbEntity
  8
NOCUT
  6
CONTINUOUS
370
25
 62
7
100
AcDbLine
 10
-0.01
 20
0.0
 30
0.0
 11
23.1
 21
0.0
 31
0.0
  0
LINE
  5
AEC
330
1F
100
AcDbEntity
  8
NOCUT
  6
CONTINUOUS
370
25
 62
7
100
AcDbLine
 10
23.1
 20
0.0
 30
0.0
 11
23.09
 21
5.55095
 31
0.0
  0
LINE
  5
AED
330
1F
100
AcDbEntity
  8
NOCUT
  6
CONTINUOUS
370
25
 62
7
100
AcDbLine
 10
23.09
 20
5.55095
 30
0.0
 11
23.09
 21
5.47995
 31
0.0
  0
LINE
  5
AEE
330
1F
100
AcDbEntity
  8
NOCUT
  6
CONTINUOUS
370
25
 62
7
100
AcDbLine
 10
23.09
 20
5.47995
 30
0.0
 11
1.590000000000001
 21
5.47995
 31
0.0
  0
LINE
  5
AEF
330
1F
100
AcDbEntity
  8
NOCUT
  6
CONTINUOUS
370
25
 62
7
100
AcDbLine
 10
1.590000000000001
 20
5.47995
 30
0.0
 11
-0.01
 21
6.34995
 31
0.0
  0
LINE
  5
AF0
330
1F
100
AcDbEntity
  8
NOCUT
  6
CONTINUOUS
370
25
 62
7
100
AcDbLine
 10
-0.01
 20
6.34995
 30
0.0
 11
-0.01
 21
0.0
 31
0.0
  0
LINE
  5
AF1
330
1F
100
AcDbEntity
  8
SK1
  6
CONTINUOUS
370
50
 62
4
100
AcDbLine
 10
-0.01
 20
6.35
 30
0.0
 11
-44.416
 21
6.35
 31
0.0
  0
LINE
  5
AF2
330
1F
100
AcDbEntity
  8
SK1
  6
CONTINUOUS
370
50
 62
4
100
AcDbLine
 10
-44.416
 20
6.35
 30
0.0
 11
-45.21
 21
5.891583886263437
 31
0.0
  0
LINE
  5
AF3
330
1F
100
AcDbEntity
  8
SK1
  6
CONTINUOUS
370
50
 62
4
100
AcDbLine
 10
-45.21
 20
5.891583886263437
 30
0.0
 11
-45.21
 21
-5.891583886263437
 31
0.0
  0
LINE
  5
AF4
330
1F
100
AcDbEntity
  8
SK1
  6
CONTINUOUS
370
50
 62
4
100
AcDbLine
 10
-45.21
 20
-5.891583886263437
 30
0.0
 11
-44.416
 21
-6.35
 31
0.0
  0
LINE
  5
AF5
330
1F
100
AcDbEntity
  8
SK1
  6
CONTINUOUS
370
50
 62
4
100
AcDbLine
 10
-44.416
 20
-6.35
 30
0.0
 11
-0.01
 21
-6.35
 31
0.0
  0
LINE
  5
AF6
330
1F
100
AcDbEntity
  8
SK1
  6
CONTINUOUS
370
50
 62
4
100
AcDbLine
 10
-26.79182500000001
 20
-4.348352022156641
 30
0.0
 11
-26.79182500000001
 21
4.348352022156641
 31
0.0
  0
LINE
  5
AF7
330
1F
100
AcDbEntity
  8
SK1
  6
CONTINUOUS
370
50
 62
4
100
AcDbLine
 10
-26.79182500000001
 20
4.348352022156641
 30
0.0
 11
-18.384425
 21
4.348352022156641
 31
0.0
  0
LINE
  5
AF8
330
1F
100
AcDbEntity
  8
SK1
  6
CONTINUOUS
370
50
 62
4
100
AcDbLine
 10
-18.384425
 20
4.348352022156641
 30
0.0
 11
-18.384425
 21
-4.348352022156641
 31
0.0
  0
LINE
  5
AF9
330
1F
100
AcDbEntity
  8
SK1
  6
CONTINUOUS
370
50
 62
4
100
AcDbLine
 10
-18.384425
 20
-4.348352022156641
 30
0.0
 11
-26.79182500000001
 21
-4.348352022156641
 31
0.0
  0
ARC
  5
AFA
330
1F
100
AcDbEntity
  8
SK1
  6
CONTINUOUS
370
50
 62
4
100
AcDbCircle
 10
-22.1642625
 20
0.0
 30
0.0
 40
6.350000000000005
100
AcDbArc
 50
136.7817042549137
 51
223.2182957450863
  0
ARC
  5
AFB
330
1F
100
AcDbEntity
  8
SK1
  6
CONTINUOUS
370
50
 62
4
100
AcDbCircle
 10
-23.0119875
 20
0.0
 30
0.0
 40
6.350000000000001
100
AcDbArc
 50
316.7817042549137
 51
43.21829574508637
  0
LINE
  5
AFC
330
1F
100
AcDbEntity
  8
SK1
  6
CONTINUOUS
370
50
 62
4
100
AcDbLine
 10
-44.416
 20
6.35
 30
0.0
 11
-44.416
 21
-6.35
 31
0.0
  0
LINE
  5
AFD
330
1F
100
AcDbEntity
  8
SK2
  6
CONTINUOUS
370
25
 62
7
100
AcDbLine
 10
-45.21
 20
5.42623957
 30
0.0
 11
-45.21
 21
19.35
 31
0.0
  0
LINE
  5
AFE
330
1F
100
AcDbEntity
  8
SK2
  6
CONTINUOUS
370
25
 62
7
100
AcDbLine
 10
-0.0099999999999999
 20
19.35
 30
0.0
 11
-0.0100000000000007
 21
6.350000000000001
 31
0.0
  0
LINE
  5
AFF
330
1F
100
AcDbEntity
  8
SK2
  6
CONTINUOUS
370
25
 62
7
100
AcDbLine
 10
-45.21
 20
18.35
 30
0.0
 11
-0.01
 21
18.35
 31
0.0
  0
LINE
  5
B00
330
1F
100
AcDbEntity
  8
SK2
  6
CONTINUOUS
370
25
 62
7
100
AcDbLine
 10
-45.21
 20
18.35
 30
0.0
 11
-40.21
 21
19.35
 31
0.0
  0
LINE
  5
B01
330
1F
100
AcDbEntity
  8
SK2
  6
CONTINUOUS
370
25
 62
7
100
AcDbLine
 10
-40.21
 20
19.35
 30
0.0
 11
-40.21
 21
17.35
 31
0.0
  0
LINE
  5
B02
330
1F
100
AcDbEntity
  8
SK2
  6
CONTINUOUS
370
25
 62
7
100
AcDbLine
 10
-40.21
 20
17.35
 30
0.0
 11
-45.21
 21
18.35
 31
0.0
  0
LINE
  5
B03
330
1F
100
AcDbEntity
  8
SK2
  6
CONTINUOUS
370
25
 62
7
100
AcDbLine
 10
-40.3349277873519
 20
17.37498555747038
 30
0.0
 11
-40.21
 21
17.49991334482228
 31
0.0
  0
LINE
  5
B04
330
1F
100
AcDbEntity
  8
SK2
  6
CONTINUOUS
370
25
 62
7
100
AcDbLine
 10
-40.68848117794519
 20
17.44569623558903
 30
0.0
 11
-40.21
 21
17.92417741353422
 31
0.0
  0
LINE
  5
B05
330
1F
100
AcDbEntity
  8
SK2
  6
CONTINUOUS
370
25
 62
7
100
AcDbLine
 10
-41.04203456853845
 20
17.51640691370769
 30
0.0
 11
-40.21
 21
18.34844148224614
 31
0.0
  0
LINE
  5
B06
330
1F
100
AcDbEntity
  8
SK2
  6
CONTINUOUS
370
25
 62
7
100
AcDbLine
 10
-41.39558795913173
 20
17.58711759182635
 30
0.0
 11
-40.21
 21
18.77270555095808
 31
0.0
  0
LINE
  5
B07
330
1F
100
AcDbEntity
  8
SK2
  6
CONTINUOUS
370
25
 62
7
100
AcDbLine
 10
-41.74914134972501
 20
17.657828269945
 30
0.0
 11
-40.21
 21
19.19696961967001
 31
0.0
  0
LINE
  5
B08
330
1F
100
AcDbEntity
  8
SK2
  6
CONTINUOUS
370
25
 62
7
100
AcDbLine
 10
-42.10269474031828
 20
17.72853894806366
 30
0.0
 11
-40.54904211047743
 21
19.28219157790451
 31
0.0
  0
LINE
  5
B09
330
1F
100
AcDbEntity
  8
SK2
  6
CONTINUOUS
370
25
 62
7
100
AcDbLine
 10
-42.45624813091156
 20
17.79924962618231
 30
0.0
 11
-41.07937219636734
 21
19.17612556072653
 31
0.0
  0
LINE
  5
B0A
330
1F
100
AcDbEntity
  8
SK2
  6
CONTINUOUS
370
25
 62
7
100
AcDbLine
 10
-42.80980152150484
 20
17.86996030430097
 30
0.0
 11
-41.60970228225726
 21
19.07005954354855
 31
0.0
  0
LINE
  5
B0B
330
1F
100
AcDbEntity
  8
SK2
  6
CONTINUOUS
370
25
 62
7
100
AcDbLine
 10
-43.16335491209811
 20
17.94067098241962
 30
0.0
 11
-42.14003236814717
 21
18.96399352637057
 31
0.0
  0
LINE
  5
B0C
330
1F
100
AcDbEntity
  8
SK2
  6
CONTINUOUS
370
25
 62
7
100
AcDbLine
 10
-43.51690830269139
 20
18.01138166053828
 30
0.0
 11
-42.67036245403708
 21
18.85792750919259
 31
0.0
  0
LINE
  5
B0D
330
1F
100
AcDbEntity
  8
SK2
  6
CONTINUOUS
370
25
 62
7
100
AcDbLine
 10
-43.87046169328467
 20
18.08209233865693
 30
0.0
 11
-43.200692539927
 21
18.7518614920146
 31
0.0
  0
LINE
  5
B0E
330
1F
100
AcDbEntity
  8
SK2
  6
CONTINUOUS
370
25
 62
7
100
AcDbLine
 10
-44.22401508387794
 20
18.15280301677559
 30
0.0
 11
-43.73102262581691
 21
18.64579547483662
 31
0.0
  0
LINE
  5
B0F
330
1F
100
AcDbEntity
  8
SK2
  6
CONTINUOUS
370
25
 62
7
100
AcDbLine
 10
-44.57756847447121
 20
18.22351369489424
 30
0.0
 11
-44.26135271170681
 21
18.53972945765864
 31
0.0
  0
LINE
  5
B10
330
1F
100
AcDbEntity
  8
SK2
  6
CONTINUOUS
370
25
 62
7
100
AcDbLine
 10
-44.93112186506449
 20
18.2942243730129
 30
0.0
 11
-44.79168279759674
 21
18.43366344048065
 31
0.0
  0
LINE
  5
B11
330
1F
100
AcDbEntity
  8
SK2
  6
CONTINUOUS
370
25
 62
7
100
AcDbLine
 10
-44.94361792785812
 20
18.40327641442838
 30
0.0
 11
-44.81042689178719
 21
18.27008537835744
 31
0.0
  0
LINE
  5
B12
330
1F
100
AcDbEntity
  8
SK2
  6
CONTINUOUS
370
25
 62
7
100
AcDbLine
 10
-44.59006453726484
 20
18.47398709254703
 30
0.0
 11
-44.28009680589727
 21
18.16401936117945
 31
0.0
  0
LINE
  5
B13
330
1F
100
AcDbEntity
  8
SK2
  6
CONTINUOUS
370
25
 62
7
100
AcDbLine
 10
-44.23651114667157
 20
18.54469777066569
 30
0.0
 11
-43.74976672000736
 21
18.05795334400148
 31
0.0
  0
LINE
  5
B14
330
1F
100
AcDbEntity
  8
SK2
  6
CONTINUOUS
370
25
 62
7
100
AcDbLine
 10
-43.88295775607828
 20
18.61540844878433
 30
0.0
 11
-43.21943663411744
 21
17.95188732682348
 31
0.0
  0
LINE
  5
B15
330
1F
100
AcDbEntity
  8
SK2
  6
CONTINUOUS
370
25
 62
7
100
AcDbLine
 10
-43.52940436548501
 20
18.68611912690299
 30
0.0
 11
-42.68910654822753
 21
17.84582130964551
 31
0.0
  0
LINE
  5
B16
330
1F
100
AcDbEntity
  8
SK2
  6
CONTINUOUS
370
25
 62
7
100
AcDbLine
 10
-43.17585097489174
 20
18.75682980502165
 30
0.0
 11
-42.15877646233761
 21
17.73975529246752
 31
0.0
  0
LINE
  5
B17
330
1F
100
AcDbEntity
  8
SK2
  6
CONTINUOUS
370
25
 62
7
100
AcDbLine
 10
-42.82229758429846
 20
18.8275404831403
 30
0.0
 11
-41.6284463764477
 21
17.63368927528954
 31
0.0
  0
LINE
  5
B18
330
1F
100
AcDbEntity
  8
SK2
  6
CONTINUOUS
370
25
 62
7
100
AcDbLine
 10
-42.46874419370518
 20
18.89825116125896
 30
0.0
 11
-41.09811629055778
 21
17.52762325811156
 31
0.0
  0
LINE
  5
B19
330
1F
100
AcDbEntity
  8
SK2
  6
CONTINUOUS
370
25
 62
7
100
AcDbLine
 10
-42.11519080311191
 20
18.96896183937761
 30
0.0
 11
-40.56778620466787
 21
17.42155724093358
 31
0.0
  0
LINE
  5
B1A
330
1F
100
AcDbEntity
  8
SK2
  6
CONTINUOUS
370
25
 62
7
100
AcDbLine
 10
-41.76163741251863
 20
19.03967251749627
 30
0.0
 11
-40.21
 21
17.48803510497764
 31
0.0
  0
LINE
  5
B1B
330
1F
100
AcDbEntity
  8
SK2
  6
CONTINUOUS
370
25
 62
7
100
AcDbLine
 10
-41.40808402192535
 20
19.11038319561492
 30
0.0
 11
-40.21
 21
17.91229917368958
 31
0.0
  0
LINE
  5
B1C
330
1F
100
AcDbEntity
  8
SK2
  6
CONTINUOUS
370
25
 62
7
100
AcDbLine
 10
-41.05453063133208
 20
19.18109387373358
 30
0.0
 11
-40.21
 21
18.33656324240151
 31
0.0
  0
LINE
  5
B1D
330
1F
100
AcDbEntity
  8
SK2
  6
CONTINUOUS
370
25
 62
7
100
AcDbLine
 10
-40.7009772407388
 20
19.25180455185224
 30
0.0
 11
-40.21
 21
18.76082731111344
 31
0.0
  0
LINE
  5
B1E
330
1F
100
AcDbEntity
  8
SK2
  6
CONTINUOUS
370
25
 62
7
100
AcDbLine
 10
-40.34742385014553
 20
19.3225152299709
 30
0.0
 11
-40.21
 21
19.18509137982537
 31
0.0
  0
LINE
  5
B1F
330
1F
100
AcDbEntity
  8
SK2
  6
CONTINUOUS
370
25
 62
7
100
AcDbLine
 10
-0.01
 20
18.35
 30
0.0
 11
-5.01
 21
17.35
 31
0.0
  0
LINE
  5
B20
330
1F
100
AcDbEntity
  8
SK2
  6
CONTINUOUS
370
25
 62
7
100
AcDbLine
 10
-5.01
 20
17.35
 30
0.0
 11
-5.01
 21
19.35
 31
0.0
  0
LINE
  5
B21
330
1F
100
AcDbEntity
  8
SK2
  6
CONTINUOUS
370
25
 62
7
100
AcDbLine
 10
-5.01
 20
19.35
 30
0.0
 11
-0.01
 21
18.35
 31
0.0
  0
LINE
  5
B22
330
1F
100
AcDbEntity
  8
SK2
  6
CONTINUOUS
370
25
 62
7
100
AcDbLine
 10
-0.4070237791560383
 20
18.2705952441688
 30
0.0
 11
-0.2746825194373589
 21
18.40293650388747
 31
0.0
  0
LINE
  5
B23
330
1F
100
AcDbEntity
  8
SK2
  6
CONTINUOUS
370
25
 62
7
100
AcDbLine
 10
-0.937353865045952
 20
18.16452922699081
 30
0.0
 11
-0.6282359100306348
 21
18.47364718200613
 31
0.0
  0
LINE
  5
B24
330
1F
100
AcDbEntity
  8
SK2
  6
CONTINUOUS
370
25
 62
7
100
AcDbLine
 10
-1.467683950935861
 20
18.05846320981283
 30
0.0
 11
-0.9817893006239078
 21
18.54435786012478
 31
0.0
  0
LINE
  5
B25
330
1F
100
AcDbEntity
  8
SK2
  6
CONTINUOUS
370
25
 62
7
100
AcDbLine
 10
-1.998014036825771
 20
17.95239719263485
 30
0.0
 11
-1.335342691217181
 21
18.61506853824344
 31
0.0
  0
LINE
  5
B26
330
1F
100
AcDbEntity
  8
SK2
  6
CONTINUOUS
370
25
 62
7
100
AcDbLine
 10
-2.52834412271568
 20
17.84633117545686
 30
0.0
 11
-1.688896081810453
 21
18.68577921636209
 31
0.0
  0
LINE
  5
B27
330
1F
100
AcDbEntity
  8
SK2
  6
CONTINUOUS
370
25
 62
7
100
AcDbLine
 10
-3.058674208605589
 20
17.74026515827888
 30
0.0
 11
-2.042449472403726
 21
18.75648989448075
 31
0.0
  0
LINE
  5
B28
330
1F
100
AcDbEntity
  8
SK2
  6
CONTINUOUS
370
25
 62
7
100
AcDbLine
 10
-3.589004294495498
 20
17.6341991411009
 30
0.0
 11
-2.396002862996999
 21
18.8272005725994
 31
0.0
  0
LINE
  5
B29
330
1F
100
AcDbEntity
  8
SK2
  6
CONTINUOUS
370
25
 62
7
100
AcDbLine
 10
-4.119334380385407
 20
17.52813312392292
 30
0.0
 11
-2.749556253590272
 21
18.89791125071806
 31
0.0
  0
LINE
  5
B2A
330
1F
100
AcDbEntity
  8
SK2
  6
CONTINUOUS
370
25
 62
7
100
AcDbLine
 10
-4.649664466275317
 20
17.42206710674494
 30
0.0
 11
-3.103109644183545
 21
18.96862192883671
 31
0.0
  0
LINE
  5
B2B
330
1F
100
AcDbEntity
  8
SK2
  6
CONTINUOUS
370
25
 62
7
100
AcDbLine
 10
-5.01
 20
17.48599564173218
 30
0.0
 11
-3.45666303477682
 21
19.03933260695537
 31
0.0
  0
LINE
  5
B2C
330
1F
100
AcDbEntity
  8
SK2
  6
CONTINUOUS
370
25
 62
7
100
AcDbLine
 10
-5.01
 20
17.91025971044412
 30
0.0
 11
-3.810216425370094
 21
19.11004328507402
 31
0.0
  0
LINE
  5
B2D
330
1F
100
AcDbEntity
  8
SK2
  6
CONTINUOUS
370
25
 62
7
100
AcDbLine
 10
-5.01
 20
18.33452377915604
 30
0.0
 11
-4.163769815963366
 21
19.18075396319268
 31
0.0
  0
LINE
  5
B2E
330
1F
100
AcDbEntity
  8
SK2
  6
CONTINUOUS
370
25
 62
7
100
AcDbLine
 10
-5.01
 20
18.75878784786797
 30
0.0
 11
-4.517323206556639
 21
19.25146464131133
 31
0.0
  0
LINE
  5
B2F
330
1F
100
AcDbEntity
  8
SK2
  6
CONTINUOUS
370
25
 62
7
100
AcDbLine
 10
-5.01
 20
19.1830519165799
 30
0.0
 11
-4.870876597149912
 21
19.32217531942998
 31
0.0
  0
LINE
  5
B30
330
1F
100
AcDbEntity
  8
SK2
  6
CONTINUOUS
370
25
 62
7
100
AcDbLine
 10
-5.01
 20
17.72792206135782
 30
0.0
 11
-4.695064948868482
 21
17.41298701022631
 31
0.0
  0
LINE
  5
B31
330
1F
100
AcDbEntity
  8
SK2
  6
CONTINUOUS
370
25
 62
7
100
AcDbLine
 10
-5.01
 20
18.15218613006975
 30
0.0
 11
-4.341511558275208
 21
17.48369768834496
 31
0.0
  0
LINE
  5
B32
330
1F
100
AcDbEntity
  8
SK2
  6
CONTINUOUS
370
25
 62
7
100
AcDbLine
 10
-5.01
 20
18.57645019878168
 30
0.0
 11
-3.987958167681935
 21
17.55440836646362
 31
0.0
  0
LINE
  5
B33
330
1F
100
AcDbEntity
  8
SK2
  6
CONTINUOUS
370
25
 62
7
100
AcDbLine
 10
-5.01
 20
19.00071426749361
 30
0.0
 11
-3.634404777088661
 21
17.62511904458227
 31
0.0
  0
LINE
  5
B34
330
1F
100
AcDbEntity
  8
SK2
  6
CONTINUOUS
370
25
 62
7
100
AcDbLine
 10
-4.916277079743083
 20
19.33125541594862
 30
0.0
 11
-3.280851386495387
 21
17.69582972270092
 31
0.0
  0
LINE
  5
B35
330
1F
100
AcDbEntity
  8
SK2
  6
CONTINUOUS
370
25
 62
7
100
AcDbLine
 10
-4.385946993853173
 20
19.22518939877063
 30
0.0
 11
-2.927297995902114
 21
17.76654040081958
 31
0.0
  0
LINE
  5
B36
330
1F
100
AcDbEntity
  8
SK2
  6
CONTINUOUS
370
25
 62
7
100
AcDbLine
 10
-3.855616907963262
 20
19.11912338159265
 30
0.0
 11
-2.57374460530884
 21
17.83725107893823
 31
0.0
  0
LINE
  5
B37
330
1F
100
AcDbEntity
  8
SK2
  6
CONTINUOUS
370
25
 62
7
100
AcDbLine
 10
-3.325286822073352
 20
19.01305736441467
 30
0.0
 11
-2.220191214715567
 21
17.90796175705689
 31
0.0
  0
LINE
  5
B38
330
1F
100
AcDbEntity
  8
SK2
  6
CONTINUOUS
370
25
 62
7
100
AcDbLine
 10
-2.794956736183441
 20
18.90699134723669
 30
0.0
 11
-1.866637824122294
 21
17.97867243517554
 31
0.0
  0
LINE
  5
B39
330
1F
100
AcDbEntity
  8
SK2
  6
CONTINUOUS
370
25
 62
7
100
AcDbLine
 10
-2.264626650293532
 20
18.80092533005871
 30
0.0
 11
-1.51308443352902
 21
18.0493831132942
 31
0.0
  0
LINE
  5
B3A
330
1F
100
AcDbEntity
  8
SK2
  6
CONTINUOUS
370
25
 62
7
100
AcDbLine
 10
-1.734296564403621
 20
18.69485931288073
 30
0.0
 11
-1.159531042935747
 21
18.12009379141285
 31
0.0
  0
LINE
  5
B3B
330
1F
100
AcDbEntity
  8
SK2
  6
CONTINUOUS
370
25
 62
7
100
AcDbLine
 10
-1.203966478513711
 20
18.58879329570274
 30
0.0
 11
-0.8059776523424733
 21
18.19080446953151
 31
0.0
  0
LINE
  5
B3C
330
1F
100
AcDbEntity
  8
SK2
  6
CONTINUOUS
370
25
 62
7
100
AcDbLine
 10
-0.6736363926237999
 20
18.48272727852476
 30
0.0
 11
-0.4524242617491997
 21
18.26151514765016
 31
0.0
  0
LINE
  5
B3D
330
1F
100
AcDbEntity
  8
SK2
  6
CONTINUOUS
370
25
 62
7
100
AcDbLine
 10
-0.1433063067338894
 20
18.37666126134678
 30
0.0
 11
-0.0988708711559262
 21
18.33222582576882
 31
0.0
  0
TEXT
  5
B3E
330
1F
100
AcDbEntity
  8
SK2
  6
CONTINUOUS
370
25
 62
7
100
AcDbText
 10
-27.86
 20
19.85
 30
0.0
 40
3.5
  1
45.2
 72
     1
 11
-22.61
 21
19.85
 31
0.0
100
AcDbText
  0
LINE
  5
B3F
330
1F
100
AcDbEntity
  8
SK2
  6
CONTINUOUS
370
25
 62
7
100
AcDbLine
 10
-57.2100002
 20
-6.350001
 30
0.0
 11
-58.21000000000008
 21
-6.350001
 31
0.0
  0
LINE
  5
B40
330
1F
100
AcDbEntity
  8
SK2
  6
CONTINUOUS
370
25
 62
7
100
AcDbLine
 10
-45.21
 20
-6.350001
 30
0.0
 11
-57.20999980000001
 21
-6.350001
 31
0.0
  0
LINE
  5
B41
330
1F
100
AcDbEntity
  8
SK2
  6
CONTINUOUS
370
25
 62
7
100
AcDbLine
 10
-58.21
 20
6.35
 30
0.0
 11
-45.21
 21
6.35
 31
0.0
  0
LINE
  5
B42
330
1F
100
AcDbEntity
  8
SK2
  6
CONTINUOUS
370
25
 62
7
100
AcDbLine
 10
-57.21
 20
-13.35
 30
0.0
 11
-57.21
 21
28.75
 31
0.0
  0
LINE
  5
B43
330
1F
100
AcDbEntity
  8
SK2
  6
CONTINUOUS
370
25
 62
7
100
AcDbLine
 10
-57.21
 20
-6.35
 30
0.0
 11
-56.21
 21
-11.35
 31
0.0
  0
LINE
  5
B44
330
1F
100
AcDbEntity
  8
SK2
  6
CONTINUOUS
370
25
 62
7
100
AcDbLine
 10
-56.21
 20
-11.35
 30
0.0
 11
-58.21
 21
-11.35
 31
0.0
  0
LINE
  5
B45
330
1F
100
AcDbEntity
  8
SK2
  6
CONTINUOUS
370
25
 62
7
100
AcDbLine
 10
-58.21
 20
-11.35
 30
0.0
 11
-57.21
 21
-6.35
 31
0.0
  0
LINE
  5
B46
330
1F
100
AcDbEntity
  8
SK2
  6
CONTINUOUS
370
25
 62
7
100
AcDbLine
 10
-56.33199128346435
 20
-11.35
 30
0.0
 11
-56.2303318805774
 21
-11.24834059711305
 31
0.0
  0
LINE
  5
B47
330
1F
100
AcDbEntity
  8
SK2
  6
CONTINUOUS
370
25
 62
7
100
AcDbLine
 10
-56.75625535217628
 20
-11.35
 30
0.0
 11
-56.30104255869605
 21
-10.89478720651978
 31
0.0
  0
LINE
  5
B48
330
1F
100
AcDbEntity
  8
SK2
  6
CONTINUOUS
370
25
 62
7
100
AcDbLine
 10
-57.18051942088821
 20
-11.35
 30
0.0
 11
-56.3717532368147
 21
-10.5412338159265
 31
0.0
  0
LINE
  5
B49
330
1F
100
AcDbEntity
  8
SK2
  6
CONTINUOUS
370
25
 62
7
100
AcDbLine
 10
-57.60478348960014
 20
-11.35
 30
0.0
 11
-56.44246391493336
 21
-10.18768042533322
 31
0.0
  0
LINE
  5
B4A
330
1F
100
AcDbEntity
  8
SK2
  6
CONTINUOUS
370
25
 62
7
100
AcDbLine
 10
-58.02904755831207
 20
-11.35
 30
0.0
 11
-56.51317459305201
 21
-9.834127034739943
 31
0.0
  0
LINE
  5
B4B
330
1F
100
AcDbEntity
  8
SK2
  6
CONTINUOUS
370
25
 62
7
100
AcDbLine
 10
-58.14917209324399
 20
-11.04586046621999
 30
0.0
 11
-56.58388527117067
 21
-9.480573644146666
 31
0.0
  0
LINE
  5
B4C
330
1F
100
AcDbEntity
  8
SK2
  6
CONTINUOUS
370
25
 62
7
100
AcDbLine
 10
-58.04310607606601
 20
-10.51553038033008
 30
0.0
 11
-56.65459594928933
 21
-9.127020253553397
 31
0.0
  0
LINE
  5
B4D
330
1F
100
AcDbEntity
  8
SK2
  6
CONTINUOUS
370
25
 62
7
100
AcDbLine
 10
-57.93704005888802
 20
-9.985200294440162
 30
0.0
 11
-56.72530662740798
 21
-8.77346686296012
 31
0.0
  0
LINE
  5
B4E
330
1F
100
AcDbEntity
  8
SK2
  6
CONTINUOUS
370
25
 62
7
100
AcDbLine
 10
-57.83097404171004
 20
-9.454870208550247
 30
0.0
 11
-56.79601730552663
 21
-8.419913472366837
 31
0.0
  0
LINE
  5
B4F
330
1F
100
AcDbEntity
  8
SK2
  6
CONTINUOUS
370
25
 62
7
100
AcDbLine
 10
-57.72490802453206
 20
-8.92454012266034
 30
0.0
 11
-56.86672798364529
 21
-8.066360081773567
 31
0.0
  0
LINE
  5
B50
330
1F
100
AcDbEntity
  8
SK2
  6
CONTINUOUS
370
25
 62
7
100
AcDbLine
 10
-57.61884200735408
 20
-8.394210036770417
 30
0.0
 11
-56.93743866176394
 21
-7.712806691180283
 31
0.0
  0
LINE
  5
B51
330
1F
100
AcDbEntity
  8
SK2
  6
CONTINUOUS
370
25
 62
7
100
AcDbLine
 10
-57.5127759901761
 20
-7.863879950880509
 30
0.0
 11
-57.00814933988259
 21
-7.359253300587007
 31
0.0
  0
LINE
  5
B52
330
1F
100
AcDbEntity
  8
SK2
  6
CONTINUOUS
370
25
 62
7
100
AcDbLine
 10
-57.40670997299811
 20
-7.333549864990587
 30
0.0
 11
-57.07886001800126
 21
-7.005699909993737
 31
0.0
  0
LINE
  5
B53
330
1F
100
AcDbEntity
  8
SK2
  6
CONTINUOUS
370
25
 62
7
100
AcDbLine
 10
-57.30064395582013
 20
-6.803219779100679
 30
0.0
 11
-57.14957069611991
 21
-6.652146519400461
 31
0.0
  0
LINE
  5
B54
330
1F
100
AcDbEntity
  8
SK2
  6
CONTINUOUS
370
25
 62
7
100
AcDbLine
 10
-58.15183181951409
 20
-11.0591590975705
 30
0.0
 11
-57.86099091708459
 21
-11.35
 31
0.0
  0
LINE
  5
B55
330
1F
100
AcDbEntity
  8
SK2
  6
CONTINUOUS
370
25
 62
7
100
AcDbLine
 10
-58.08112114139544
 20
-10.70560570697722
 30
0.0
 11
-57.43672684837266
 21
-11.35
 31
0.0
  0
LINE
  5
B56
330
1F
100
AcDbEntity
  8
SK2
  6
CONTINUOUS
370
25
 62
7
100
AcDbLine
 10
-58.01041046327678
 20
-10.35205231638396
 30
0.0
 11
-57.01246277966074
 21
-11.35
 31
0.0
  0
LINE
  5
B57
330
1F
100
AcDbEntity
  8
SK2
  6
CONTINUOUS
370
25
 62
7
100
AcDbLine
 10
-57.93969978515813
 20
-9.998498925790685
 30
0.0
 11
-56.58819871094881
 21
-11.35
 31
0.0
  0
LINE
  5
B58
330
1F
100
AcDbEntity
  8
SK2
  6
CONTINUOUS
370
25
 62
7
100
AcDbLine
 10
-57.86898910703947
 20
-9.644945535197408
 30
0.0
 11
-56.22151633944079
 21
-11.29241830279609
 31
0.0
  0
LINE
  5
B59
330
1F
100
AcDbEntity
  8
SK2
  6
CONTINUOUS
370
25
 62
7
100
AcDbLine
 10
-57.79827842892082
 20
-9.291392144604124
 30
0.0
 11
-56.32758235661877
 21
-10.76208821690617
 31
0.0
  0
LINE
  5
B5A
330
1F
100
AcDbEntity
  8
SK2
  6
CONTINUOUS
370
25
 62
7
100
AcDbLine
 10
-57.72756775080217
 20
-8.937838754010848
 30
0.0
 11
-56.43364837379675
 21
-10.23175813101626
 31
0.0
  0
LINE
  5
B5B
330
1F
100
AcDbEntity
  8
SK2
  6
CONTINUOUS
370
25
 62
7
100
AcDbLine
 10
-57.65685707268351
 20
-8.584285363417571
 30
0.0
 11
-56.53971439097473
 21
-9.701428045126349
 31
0.0
  0
LINE
  5
B5C
330
1F
100
AcDbEntity
  8
SK2
  6
CONTINUOUS
370
25
 62
7
100
AcDbLine
 10
-57.58614639456485
 20
-8.230731972824294
 30
0.0
 11
-56.64578040815272
 21
-9.171097959236427
 31
0.0
  0
LINE
  5
B5D
330
1F
100
AcDbEntity
  8
SK2
  6
CONTINUOUS
370
25
 62
7
100
AcDbLine
 10
-57.51543571644619
 20
-7.877178582231018
 30
0.0
 11
-56.7518464253307
 21
-8.640767873346505
 31
0.0
  0
LINE
  5
B5E
330
1F
100
AcDbEntity
  8
SK2
  6
CONTINUOUS
370
25
 62
7
100
AcDbLine
 10
-57.44472503832754
 20
-7.523625191637748
 30
0.0
 11
-56.85791244250868
 21
-8.110437787456604
 31
0.0
  0
LINE
  5
B5F
330
1F
100
AcDbEntity
  8
SK2
  6
CONTINUOUS
370
25
 62
7
100
AcDbLine
 10
-57.37401436020889
 20
-7.170071801044465
 30
0.0
 11
-56.96397845968666
 21
-7.580107701566689
 31
0.0
  0
LINE
  5
B60
330
1F
100
AcDbEntity
  8
SK2
  6
CONTINUOUS
370
25
 62
7
100
AcDbLine
 10
-57.30330368209023
 20
-6.816518410451188
 30
0.0
 11
-57.07004447686464
 21
-7.049777615676774
 31
0.0
  0
LINE
  5
B61
330
1F
100
AcDbEntity
  8
SK2
  6
CONTINUOUS
370
25
 62
7
100
AcDbLine
 10
-57.23259300397158
 20
-6.462965019857911
 30
0.0
 11
-57.17611049404263
 21
-6.519447529786866
 31
0.0
  0
LINE
  5
B62
330
1F
100
AcDbEntity
  8
SK2
  6
CONTINUOUS
370
25
 62
7
100
AcDbLine
 10
-57.21
 20
6.35
 30
0.0
 11
-58.21
 21
11.35
 31
0.0
  0
LINE
  5
B63
330
1F
100
AcDbEntity
  8
SK2
  6
CONTINUOUS
370
25
 62
7
100
AcDbLine
 10
-58.21
 20
11.35
 30
0.0
 11
-56.21
 21
11.35
 31
0.0
  0
LINE
  5
B64
330
1F
100
AcDbEntity
  8
SK2
  6
CONTINUOUS
370
25
 62
7
100
AcDbLine
 10
-56.21
 20
11.35
 30
0.0
 11
-57.21
 21
6.35
 31
0.0
  0
LINE
  5
B65
330
1F
100
AcDbEntity
  8
SK2
  6
CONTINUOUS
370
25
 62
7
100
AcDbLine
 10
-57.22493505113153
 20
6.424675255657725
 30
0.0
 11
-57.1875974233027
 21
6.462012883486558
 31
0.0
  0
LINE
  5
B66
330
1F
100
AcDbEntity
  8
SK2
  6
CONTINUOUS
370
25
 62
7
100
AcDbLine
 10
-57.2956457292502
 20
6.778228646250994
 30
0.0
 11
-57.08153140612471
 21
6.99234296937648
 31
0.0
  0
LINE
  5
B67
330
1F
100
AcDbEntity
  8
SK2
  6
CONTINUOUS
370
25
 62
7
100
AcDbLine
 10
-57.36635640736885
 20
7.131782036844278
 30
0.0
 11
-56.97546538894672
 21
7.522673055266402
 31
0.0
  0
LINE
  5
B68
330
1F
100
AcDbEntity
  8
SK2
  6
CONTINUOUS
370
25
 62
7
100
AcDbLine
 10
-57.43706708548751
 20
7.485335427437541
 30
0.0
 11
-56.86939937176873
 21
8.053003141156324
 31
0.0
  0
LINE
  5
B69
330
1F
100
AcDbEntity
  8
SK2
  6
CONTINUOUS
370
25
 62
7
100
AcDbLine
 10
-57.50777776360616
 20
7.83888881803081
 30
0.0
 11
-56.76333335459075
 21
8.583333227046225
 31
0.0
  0
LINE
  5
B6A
330
1F
100
AcDbEntity
  8
SK2
  6
CONTINUOUS
370
25
 62
7
100
AcDbLine
 10
-57.57848844172482
 20
8.192442208624094
 30
0.0
 11
-56.65726733741277
 21
9.11366331293614
 31
0.0
  0
LINE
  5
B6B
330
1F
100
AcDbEntity
  8
SK2
  6
CONTINUOUS
370
25
 62
7
100
AcDbLine
 10
-57.64919911984347
 20
8.545995599217378
 30
0.0
 11
-56.55120132023479
 21
9.643993398826055
 31
0.0
  0
LINE
  5
B6C
330
1F
100
AcDbEntity
  8
SK2
  6
CONTINUOUS
370
25
 62
7
100
AcDbLine
 10
-57.71990979796212
 20
8.899548989810661
 30
0.0
 11
-56.4451353030568
 21
10.17432348471598
 31
0.0
  0
LINE
  5
B6D
330
1F
100
AcDbEntity
  8
SK2
  6
CONTINUOUS
370
25
 62
7
100
AcDbLine
 10
-57.79062047608079
 20
9.253102380403917
 30
0.0
 11
-56.33906928587882
 21
10.70465357060588
 31
0.0
  0
LINE
  5
B6E
330
1F
100
AcDbEntity
  8
SK2
  6
CONTINUOUS
370
25
 62
7
100
AcDbLine
 10
-57.86133115419944
 20
9.6066557709972
 30
0.0
 11
-56.23300326870083
 21
11.2349836564958
 31
0.0
  0
LINE
  5
B6F
330
1F
100
AcDbEntity
  8
SK2
  6
CONTINUOUS
370
25
 62
7
100
AcDbLine
 10
-57.93204183231809
 20
9.960209161590484
 30
0.0
 11
-56.54225099390857
 21
11.35
 31
0.0
  0
LINE
  5
B70
330
1F
100
AcDbEntity
  8
SK2
  6
CONTINUOUS
370
25
 62
7
100
AcDbLine
 10
-58.00275251043675
 20
10.31376255218376
 30
0.0
 11
-56.9665150626205
 21
11.35
 31
0.0
  0
LINE
  5
B71
330
1F
100
AcDbEntity
  8
SK2
  6
CONTINUOUS
370
25
 62
7
100
AcDbLine
 10
-58.0734631885554
 20
10.66731594277703
 30
0.0
 11
-57.39077913133242
 21
11.35
 31
0.0
  0
LINE
  5
B72
330
1F
100
AcDbEntity
  8
SK2
  6
CONTINUOUS
370
25
 62
7
100
AcDbLine
 10
-58.14417386667407
 20
11.0208693333703
 30
0.0
 11
-57.81504320004436
 21
11.35
 31
0.0
  0
LINE
  5
B73
330
1F
100
AcDbEntity
  8
SK2
  6
CONTINUOUS
370
25
 62
7
100
AcDbLine
 10
-57.22961158360954
 20
6.448057918047752
 30
0.0
 11
-57.19692561092696
 21
6.415371945365173
 31
0.0
  0
LINE
  5
B74
330
1F
100
AcDbEntity
  8
SK2
  6
CONTINUOUS
370
25
 62
7
100
AcDbLine
 10
-57.33567760078753
 20
6.978388003937674
 30
0.0
 11
-57.12621493280831
 21
6.768925335958464
 31
0.0
  0
LINE
  5
B75
330
1F
100
AcDbEntity
  8
SK2
  6
CONTINUOUS
370
25
 62
7
100
AcDbLine
 10
-57.44174361796551
 20
7.508718089827582
 30
0.0
 11
-57.05550425468966
 21
7.122478726551741
 31
0.0
  0
LINE
  5
B76
330
1F
100
AcDbEntity
  8
SK2
  6
CONTINUOUS
370
25
 62
7
100
AcDbLine
 10
-57.54780963514349
 20
8.039048175717511
 30
0.0
 11
-56.984793576571
 21
7.476032117145017
 31
0.0
  0
LINE
  5
B77
330
1F
100
AcDbEntity
  8
SK2
  6
CONTINUOUS
370
25
 62
7
100
AcDbLine
 10
-57.65387565232147
 20
8.569378261607419
 30
0.0
 11
-56.91408289845235
 21
7.829585507738294
 31
0.0
  0
LINE
  5
B78
330
1F
100
AcDbEntity
  8
SK2
  6
CONTINUOUS
370
25
 62
7
100
AcDbLine
 10
-57.75994166949946
 20
9.099708347497334
 30
0.0
 11
-56.84337222033368
 21
8.183138898331556
 31
0.0
  0
LINE
  5
B79
330
1F
100
AcDbEntity
  8
SK2
  6
CONTINUOUS
370
25
 62
7
100
AcDbLine
 10
-57.86600768667744
 20
9.630038433387242
 30
0.0
 11
-56.77266154221503
 21
8.536692288924833
 31
0.0
  0
LINE
  5
B7A
330
1F
100
AcDbEntity
  8
SK2
  6
CONTINUOUS
370
25
 62
7
100
AcDbLine
 10
-57.97207370385542
 20
10.16036851927716
 30
0.0
 11
-56.70195086409638
 21
8.890245679518117
 31
0.0
  0
LINE
  5
B7B
330
1F
100
AcDbEntity
  8
SK2
  6
CONTINUOUS
370
25
 62
7
100
AcDbLine
 10
-58.07813972103341
 20
10.69069860516707
 30
0.0
 11
-56.63124018597772
 21
9.243799070111379
 31
0.0
  0
LINE
  5
B7C
330
1F
100
AcDbEntity
  8
SK2
  6
CONTINUOUS
370
25
 62
7
100
AcDbLine
 10
-58.18420573821139
 20
11.22102869105699
 30
0.0
 11
-56.56052950785907
 21
9.59735246070467
 31
0.0
  0
LINE
  5
B7D
330
1F
100
AcDbEntity
  8
SK2
  6
CONTINUOUS
370
25
 62
7
100
AcDbLine
 10
-57.88891297844248
 20
11.35
 30
0.0
 11
-56.48981882974042
 21
9.950905851297946
 31
0.0
  0
LINE
  5
B7E
330
1F
100
AcDbEntity
  8
SK2
  6
CONTINUOUS
370
25
 62
7
100
AcDbLine
 10
-57.46464890973054
 20
11.35
 30
0.0
 11
-56.41910815162176
 21
10.30445924189122
 31
0.0
  0
LINE
  5
B7F
330
1F
100
AcDbEntity
  8
SK2
  6
CONTINUOUS
370
25
 62
7
100
AcDbLine
 10
-57.04038484101861
 20
11.35
 30
0.0
 11
-56.34839747350311
 21
10.6580126324845
 31
0.0
  0
LINE
  5
B80
330
1F
100
AcDbEntity
  8
SK2
  6
CONTINUOUS
370
25
 62
7
100
AcDbLine
 10
-56.61612077230667
 20
11.35
 30
0.0
 11
-56.27768679538445
 21
11.01156602307778
 31
0.0
  0
TEXT
  5
B81
330
1F
100
AcDbEntity
  8
SK2
  6
CONTINUOUS
370
25
 62
7
100
AcDbText
 10
-58.71
 20
17.65833333333332
 30
0.0
 40
3.500000000000004
  1
12.7
 50
90.00000000000001
 72
     1
 11
-58.71
 21
22.325
 31
0.0
100
AcDbText
  0
CIRCLE
  5
B82
330
1F
100
AcDbEntity
  8
SK2
  6
CONTINUOUS
370
25
 62
7
100
AcDbCircle
 10
-60.46
 20
14.275
 30
0.0
 40
1.4
  0
LINE
  5
B83
330
1F
100
AcDbEntity
  8
SK2
  6
CONTINUOUS
370
25
 62
7
100
AcDbLine
 10
-59.06
 20
12.875
 30
0.0
 11
-61.86
 21
15.675
 31
0.0
  0
LINE
  5
B84
330
1F
100
AcDbEntity
  8
2
  6
CONTINUOUS
370
25
 62
7
100
AcDbLine
 10
42.934
 20
-5.555999999999999
 30
0.0
 11
61.49
 21
-5.556000000000002
 31
0.0
  0
LINE
  5
B85
330
1F
100
AcDbEntity
  8
2
  6
CONTINUOUS
370
25
 62
7
100
AcDbLine
 10
61.49
 20
5.555999999999998
 30
0.0
 11
42.934
 21
5.556000000000001
 31
0.0
  0
LINE
  5
B86
330
1F
100
AcDbEntity
  8
2
  6
CONTINUOUS
370
25
 62
7
100
AcDbLine
 10
60.49
 20
-12.556
 30
0.0
 11
60.49
 21
33.906
 31
0.0
  0
LINE
  5
B87
330
1F
100
AcDbEntity
  8
2
  6
CONTINUOUS
370
25
 62
7
100
AcDbLine
 10
60.49
 20
-5.556000000000002
 30
0.0
 11
61.49
 21
-10.556
 31
0.0
  0
LINE
  5
B88
330
1F
100
AcDbEntity
  8
2
  6
CONTINUOUS
370
25
 62
7
100
AcDbLine
 10
61.49
 20
-10.556
 30
0.0
 11
59.49
 21
-10.556
 31
0.0
  0
LINE
  5
B89
330
1F
100
AcDbEntity
  8
2
  6
CONTINUOUS
370
25
 62
7
100
AcDbLine
 10
59.49
 20
-10.556
 30
0.0
 11
60.49
 21
-5.556000000000002
 31
0.0
  0
LINE
  5
B8A
330
1F
100
AcDbEntity
  8
2
  6
CONTINUOUS
370
25
 62
7
100
AcDbLine
 10
61.10140650481311
 20
-10.556
 30
0.0
 11
61.42523441746886
 21
-10.23217208734425
 31
0.0
  0
LINE
  5
B8B
330
1F
100
AcDbEntity
  8
2
  6
CONTINUOUS
370
25
 62
7
100
AcDbLine
 10
60.67714243610118
 20
-10.556
 30
0.0
 11
61.35452373935021
 21
-9.878618696750976
 31
0.0
  0
LINE
  5
B8C
330
1F
100
AcDbEntity
  8
2
  6
CONTINUOUS
370
25
 62
7
100
AcDbLine
 10
60.25287836738925
 20
-10.556
 30
0.0
 11
61.28381306123155
 21
-9.5250653061577
 31
0.0
  0
LINE
  5
B8D
330
1F
100
AcDbEntity
  8
2
  6
CONTINUOUS
370
25
 62
7
100
AcDbLine
 10
59.82861429867732
 20
-10.556
 30
0.0
 11
61.21310238311289
 21
-9.17151191556443
 31
0.0
  0
LINE
  5
B8E
330
1F
100
AcDbEntity
  8
2
  6
CONTINUOUS
370
25
 62
7
100
AcDbLine
 10
59.51141244250866
 20
-10.44893778745673
 30
0.0
 11
61.14239170499423
 21
-8.81795852497116
 31
0.0
  0
LINE
  5
B8F
330
1F
100
AcDbEntity
  8
2
  6
CONTINUOUS
370
25
 62
7
100
AcDbLine
 10
59.61747845968664
 20
-9.918607701566813
 30
0.0
 11
61.07168102687558
 21
-8.464405134377877
 31
0.0
  0
LINE
  5
B90
330
1F
100
AcDbEntity
  8
2
  6
CONTINUOUS
370
25
 62
7
100
AcDbLine
 10
59.72354447686461
 20
-9.388277615676927
 30
0.0
 11
61.00097034875694
 21
-8.110851743784607
 31
0.0
  0
LINE
  5
B91
330
1F
100
AcDbEntity
  8
2
  6
CONTINUOUS
370
25
 62
7
100
AcDbLine
 10
59.82961049404259
 20
-8.857947529787019
 30
0.0
 11
60.93025967063828
 21
-7.757298353191338
 31
0.0
  0
LINE
  5
B92
330
1F
100
AcDbEntity
  8
2
  6
CONTINUOUS
370
25
 62
7
100
AcDbLine
 10
59.93567651122058
 20
-8.32761744389709
 30
0.0
 11
60.85954899251962
 21
-7.403744962598061
 31
0.0
  0
LINE
  5
B93
330
1F
100
AcDbEntity
  8
2
  6
CONTINUOUS
370
25
 62
7
100
AcDbLine
 10
60.04174252839857
 20
-7.797287358007182
 30
0.0
 11
60.78883831440096
 21
-7.050191572004792
 31
0.0
  0
LINE
  5
B94
330
1F
100
AcDbEntity
  8
2
  6
CONTINUOUS
370
25
 62
7
100
AcDbLine
 10
60.14780854557654
 20
-7.266957272117295
 30
0.0
 11
60.71812763628231
 21
-6.696638181411522
 31
0.0
  0
LINE
  5
B95
330
1F
100
AcDbEntity
  8
2
  6
CONTINUOUS
370
25
 62
7
100
AcDbLine
 10
60.25387456275452
 20
-6.736627186227381
 30
0.0
 11
60.64741695816365
 21
-6.343084790818253
 31
0.0
  0
LINE
  5
B96
330
1F
100
AcDbEntity
  8
2
  6
CONTINUOUS
370
25
 62
7
100
AcDbLine
 10
60.3599405799325
 20
-6.206297100337487
 30
0.0
 11
60.576706280045
 21
-5.98953140022499
 31
0.0
  0
LINE
  5
B97
330
1F
100
AcDbEntity
  8
2
  6
CONTINUOUS
370
25
 62
7
100
AcDbLine
 10
60.46600659711048
 20
-5.675967014447572
 30
0.0
 11
60.50599560192635
 21
-5.6359780096317
 31
0.0
  0
LINE
  5
B98
330
1F
100
AcDbEntity
  8
2
  6
CONTINUOUS
370
25
 62
7
100
AcDbLine
 10
59.53510532843062
 20
-10.33047335784689
 30
0.0
 11
59.76063197058373
 21
-10.556
 31
0.0
  0
LINE
  5
B99
330
1F
100
AcDbEntity
  8
2
  6
CONTINUOUS
370
25
 62
7
100
AcDbLine
 10
59.60581600654927
 20
-9.976919967253615
 30
0.0
 11
60.18489603929566
 21
-10.556
 31
0.0
  0
LINE
  5
B9A
330
1F
100
AcDbEntity
  8
2
  6
CONTINUOUS
370
25
 62
7
100
AcDbLine
 10
59.67652668466793
 20
-9.623366576660345
 30
0.0
 11
60.60916010800759
 21
-10.556
 31
0.0
  0
LINE
  5
B9B
330
1F
100
AcDbEntity
  8
2
  6
CONTINUOUS
370
25
 62
7
100
AcDbLine
 10
59.74723736278658
 20
-9.269813186067069
 30
0.0
 11
61.03342417671951
 21
-10.556
 31
0.0
  0
LINE
  5
B9C
330
1F
100
AcDbEntity
  8
2
  6
CONTINUOUS
370
25
 62
7
100
AcDbLine
 10
59.81794804090524
 20
-8.916259795473792
 30
0.0
 11
61.45768824543144
 21
-10.556
 31
0.0
  0
LINE
  5
B9D
330
1F
100
AcDbEntity
  8
2
  6
CONTINUOUS
370
25
 62
7
100
AcDbLine
 10
59.88865871902389
 20
-8.562706404880522
 30
0.0
 11
61.39201192146417
 21
-10.0660596073208
 31
0.0
  0
LINE
  5
B9E
330
1F
100
AcDbEntity
  8
2
  6
CONTINUOUS
370
25
 62
7
100
AcDbLine
 10
59.95936939714255
 20
-8.209153014287246
 30
0.0
 11
61.28594590428619
 21
-9.535729521430895
 31
0.0
  0
LINE
  5
B9F
330
1F
100
AcDbEntity
  8
2
  6
CONTINUOUS
370
25
 62
7
100
AcDbLine
 10
60.0300800752612
 20
-7.855599623693976
 30
0.0
 11
61.1798798871082
 21
-9.005399435540973
 31
0.0
  0
LINE
  5
BA0
330
1F
100
AcDbEntity
  8
2
  6
CONTINUOUS
370
25
 62
7
100
AcDbLine
 10
60.10079075337985
 20
-7.5020462331007
 30
0.0
 11
61.07381386993022
 21
-8.475069349651072
 31
0.0
  0
LINE
  5
BA1
330
1F
100
AcDbEntity
  8
2
  6
CONTINUOUS
370
25
 62
7
100
AcDbLine
 10
60.17150143149851
 20
-7.148492842507416
 30
0.0
 11
60.96774785275223
 21
-7.94473926376115
 31
0.0
  0
LINE
  5
BA2
330
1F
100
AcDbEntity
  8
2
  6
CONTINUOUS
370
25
 62
7
100
AcDbLine
 10
60.24221210961717
 20
-6.794939451914161
 30
0.0
 11
60.86168183557425
 21
-7.414409177871235
 31
0.0
  0
LINE
  5
BA3
330
1F
100
AcDbEntity
  8
2
  6
CONTINUOUS
370
25
 62
7
100
AcDbLine
 10
60.31292278773583
 20
-6.441386061320884
 30
0.0
 11
60.75561581839627
 21
-6.884079091981327
 31
0.0
  0
LINE
  5
BA4
330
1F
100
AcDbEntity
  8
2
  6
CONTINUOUS
370
25
 62
7
100
AcDbLine
 10
60.38363346585448
 20
-6.0878326707276
 30
0.0
 11
60.64954980121828
 21
-6.353749006091405
 31
0.0
  0
LINE
  5
BA5
330
1F
100
AcDbEntity
  8
2
  6
CONTINUOUS
370
25
 62
7
100
AcDbLine
 10
60.45434414397313
 20
-5.734279280134324
 30
0.0
 11
60.5434837840403
 21
-5.823418920201505
 31
0.0
  0
LINE
  5
BA6
330
1F
100
AcDbEntity
  8
2
  6
CONTINUOUS
370
25
 62
7
100
AcDbLine
 10
60.49
 20
5.555999999999998
 30
0.0
 11
59.49
 21
10.556
 31
0.0
  0
LINE
  5
BA7
330
1F
100
AcDbEntity
  8
2
  6
CONTINUOUS
370
25
 62
7
100
AcDbLine
 10
59.49
 20
10.556
 30
0.0
 11
61.49
 21
10.556
 31
0.0
  0
LINE
  5
BA8
330
1F
100
AcDbEntity
  8
2
  6
CONTINUOUS
370
25
 62
7
100
AcDbLine
 10
61.49
 20
10.556
 30
0.0
 11
60.49
 21
5.555999999999998
 31
0.0
  0
LINE
  5
BA9
330
1F
100
AcDbEntity
  8
2
  6
CONTINUOUS
370
25
 62
7
100
AcDbLine
 10
60.45215216307376
 20
5.745239184631195
 30
0.0
 11
60.54677175538936
 21
5.839858776946798
 31
0.0
  0
LINE
  5
BAA
330
1F
100
AcDbEntity
  8
2
  6
CONTINUOUS
370
25
 62
7
100
AcDbLine
 10
60.3814414849551
 20
6.098792575224472
 30
0.0
 11
60.65283777256735
 21
6.370188862836713
 31
0.0
  0
LINE
  5
BAB
330
1F
100
AcDbEntity
  8
2
  6
CONTINUOUS
370
25
 62
7
100
AcDbLine
 10
60.31073080683645
 20
6.452345965817742
 30
0.0
 11
60.75890378974533
 21
6.900518948726614
 31
0.0
  0
LINE
  5
BAC
330
1F
100
AcDbEntity
  8
2
  6
CONTINUOUS
370
25
 62
7
100
AcDbLine
 10
60.24002012871779
 20
6.805899356411018
 30
0.0
 11
60.86496980692331
 21
7.430849034616521
 31
0.0
  0
LINE
  5
BAD
330
1F
100
AcDbEntity
  8
2
  6
CONTINUOUS
370
25
 62
7
100
AcDbLine
 10
60.16930945059913
 20
7.159452747004281
 30
0.0
 11
60.9710358241013
 21
7.961179120506443
 31
0.0
  0
LINE
  5
BAE
330
1F
100
AcDbEntity
  8
2
  6
CONTINUOUS
370
25
 62
7
100
AcDbLine
 10
60.09859877248048
 20
7.513006137597557
 30
0.0
 11
61.07710184127928
 21
8.491509206396351
 31
0.0
  0
LINE
  5
BAF
330
1F
100
AcDbEntity
  8
2
  6
CONTINUOUS
370
25
 62
7
100
AcDbLine
 10
60.02788809436183
 20
7.866559528190834
 30
0.0
 11
61.18316785845725
 21
9.021839292286238
 31
0.0
  0
LINE
  5
BB0
330
1F
100
AcDbEntity
  8
2
  6
CONTINUOUS
370
25
 62
7
100
AcDbLine
 10
59.95717741624318
 20
8.220112918784103
 30
0.0
 11
61.28923387563523
 21
9.552169378176146
 31
0.0
  0
LINE
  5
BB1
330
1F
100
AcDbEntity
  8
2
  6
CONTINUOUS
370
25
 62
7
100
AcDbLine
 10
59.88646673812453
 20
8.573666309377387
 30
0.0
 11
61.39529989281321
 21
10.08249946406605
 31
0.0
  0
LINE
  5
BB2
330
1F
100
AcDbEntity
  8
2
  6
CONTINUOUS
370
25
 62
7
100
AcDbLine
 10
59.81575606000587
 20
8.92721969997065
 30
0.0
 11
61.44453636003524
 21
10.556
 31
0.0
  0
LINE
  5
BB3
330
1F
100
AcDbEntity
  8
2
  6
CONTINUOUS
370
25
 62
7
100
AcDbLine
 10
59.74504538188722
 20
9.280773090563926
 30
0.0
 11
61.02027229132331
 21
10.556
 31
0.0
  0
LINE
  5
BB4
330
1F
100
AcDbEntity
  8
2
  6
CONTINUOUS
370
25
 62
7
100
AcDbLine
 10
59.67433470376857
 20
9.634326481157203
 30
0.0
 11
60.59600822261137
 21
10.556
 31
0.0
  0
LINE
  5
BB5
330
1F
100
AcDbEntity
  8
2
  6
CONTINUOUS
370
25
 62
7
100
AcDbLine
 10
59.60362402564991
 20
9.987879871750472
 30
0.0
 11
60.17174415389944
 21
10.556
 31
0.0
  0
LINE
  5
BB6
330
1F
100
AcDbEntity
  8
2
  6
CONTINUOUS
370
25
 62
7
100
AcDbLine
 10
59.53291334753126
 20
10.34143326234375
 30
0.0
 11
59.7474800851875
 21
10.556
 31
0.0
  0
LINE
  5
BB7
330
1F
100
AcDbEntity
  8
2
  6
CONTINUOUS
370
25
 62
7
100
AcDbLine
 10
60.4577013202348
 20
5.717493398826029
 30
0.0
 11
60.51153245317681
 21
5.663662265884021
 31
0.0
  0
LINE
  5
BB8
330
1F
100
AcDbEntity
  8
2
  6
CONTINUOUS
370
25
 62
7
100
AcDbLine
 10
60.35163530305681
 20
6.247823484715937
 30
0.0
 11
60.58224313129546
 21
6.017215656477291
 31
0.0
  0
LINE
  5
BB9
330
1F
100
AcDbEntity
  8
2
  6
CONTINUOUS
370
25
 62
7
100
AcDbLine
 10
60.24556928587883
 20
6.778153570605845
 30
0.0
 11
60.65295380941411
 21
6.37076904707056
 31
0.0
  0
LINE
  5
BBA
330
1F
100
AcDbEntity
  8
2
  6
CONTINUOUS
370
25
 62
7
100
AcDbLine
 10
60.13950326870084
 20
7.308483656495774
 30
0.0
 11
60.72366448753277
 21
6.724322437663844
 31
0.0
  0
LINE
  5
BBB
330
1F
100
AcDbEntity
  8
2
  6
CONTINUOUS
370
25
 62
7
100
AcDbLine
 10
60.03343725152286
 20
7.838813742385675
 30
0.0
 11
60.79437516565143
 21
7.077875828257106
 31
0.0
  0
LINE
  5
BBC
330
1F
100
AcDbEntity
  8
2
  6
CONTINUOUS
370
25
 62
7
100
AcDbLine
 10
59.92737123434488
 20
8.369143828275575
 30
0.0
 11
60.86508584377008
 21
7.431429218850376
 31
0.0
  0
LINE
  5
BBD
330
1F
100
AcDbEntity
  8
2
  6
CONTINUOUS
370
25
 62
7
100
AcDbLine
 10
59.82130521716689
 20
8.899473914165505
 30
0.0
 11
60.93579652188874
 21
7.784982609443652
 31
0.0
  0
LINE
  5
BBE
330
1F
100
AcDbEntity
  8
2
  6
CONTINUOUS
370
25
 62
7
100
AcDbLine
 10
59.71523919998891
 20
9.429804000055405
 30
0.0
 11
61.00650720000739
 21
8.138536000036929
 31
0.0
  0
LINE
  5
BBF
330
1F
100
AcDbEntity
  8
2
  6
CONTINUOUS
370
25
 62
7
100
AcDbLine
 10
59.60917318281093
 20
9.960134085945334
 30
0.0
 11
61.07721787812606
 21
8.492089390630198
 31
0.0
  0
LINE
  5
BC0
330
1F
100
AcDbEntity
  8
2
  6
CONTINUOUS
370
25
 62
7
100
AcDbLine
 10
59.50310716563295
 20
10.49046417183523
 30
0.0
 11
61.1479285562447
 21
8.845642781223475
 31
0.0
  0
LINE
  5
BC1
330
1F
100
AcDbEntity
  8
2
  6
CONTINUOUS
370
25
 62
7
100
AcDbLine
 10
59.86183540618013
 20
10.556
 30
0.0
 11
61.21863923436336
 21
9.199196171816752
 31
0.0
  0
LINE
  5
BC2
330
1F
100
AcDbEntity
  8
2
  6
CONTINUOUS
370
25
 62
7
100
AcDbLine
 10
60.28609947489204
 20
10.556
 30
0.0
 11
61.28934991248202
 21
9.552749562410021
 31
0.0
  0
LINE
  5
BC3
330
1F
100
AcDbEntity
  8
2
  6
CONTINUOUS
370
25
 62
7
100
AcDbLine
 10
60.71036354360398
 20
10.556
 30
0.0
 11
61.36006059060067
 21
9.906302953003305
 31
0.0
  0
LINE
  5
BC4
330
1F
100
AcDbEntity
  8
2
  6
CONTINUOUS
370
25
 62
7
100
AcDbLine
 10
61.13462761231591
 20
10.556
 30
0.0
 11
61.43077126871932
 21
10.25985634359659
 31
0.0
  0
TEXT
  5
BC5
330
1F
100
AcDbEntity
  8
2
  6
CONTINUOUS
370
25
 62
7
100
AcDbText
 10
58.99
 20
18.08933333333333
 30
0.0
 40
3.5
  1
11.112
 50
89.99999999999997
 72
     1
 11
58.99
 21
24.506
 31
0.0
100
AcDbText
  0
CIRCLE
  5
BC6
330
1F
100
AcDbEntity
  8
2
  6
CONTINUOUS
370
25
 62
7
100
AcDbCircle
 10
57.24
 20
13.306
 30
0.0
 40
1.4
  0
LINE
  5
BC7
330
1F
100
AcDbEntity
  8
2
  6
CONTINUOUS
370
25
 62
7
100
AcDbLine
 10
58.64
 20
11.906
 30
0.0
 11
55.84
 21
14.706
 31
0.0
  0
LINE
  5
BC8
330
1F
100
AcDbEntity
  8
2
  6
CONTINUOUS
370
25
 62
7
100
AcDbLine
 10
23.09
 20
-5.47995
 30
0.0
 11
11.34
 21
-5.479949999999998
 31
0.0
  0
LINE
  5
BC9
330
1F
100
AcDbEntity
  8
2
  6
CONTINUOUS
370
25
 62
7
100
AcDbLine
 10
11.34
 20
5.479950000000001
 30
0.0
 11
23.09
 21
5.47995
 31
0.0
  0
LINE
  5
BCA
330
1F
100
AcDbEntity
  8
2
  6
CONTINUOUS
370
25
 62
7
100
AcDbLine
 10
12.34
 20
-12.47995
 30
0.0
 11
12.34
 21
30.85495
 31
0.0
  0
LINE
  5
BCB
330
1F
100
AcDbEntity
  8
2
  6
CONTINUOUS
370
25
 62
7
100
AcDbLine
 10
12.34
 20
-5.479949999999998
 30
0.0
 11
13.34
 21
-10.47995
 31
0.0
  0
LINE
  5
BCC
330
1F
100
AcDbEntity
  8
2
  6
CONTINUOUS
370
25
 62
7
100
AcDbLine
 10
13.34
 20
-10.47995
 30
0.0
 11
11.34
 21
-10.47995
 31
0.0
  0
LINE
  5
BCD
330
1F
100
AcDbEntity
  8
2
  6
CONTINUOUS
370
25
 62
7
100
AcDbLine
 10
11.34
 20
-10.47995
 30
0.0
 11
12.34
 21
-5.479949999999998
 31
0.0
  0
LINE
  5
BCE
330
1F
100
AcDbEntity
  8
2
  6
CONTINUOUS
370
25
 62
7
100
AcDbLine
 10
13.0914603379729
 20
-10.47995
 30
0.0
 11
13.29857672299549
 21
-10.27283361497741
 31
0.0
  0
LINE
  5
BCF
330
1F
100
AcDbEntity
  8
2
  6
CONTINUOUS
370
25
 62
7
100
AcDbLine
 10
12.66719626926097
 20
-10.47995
 30
0.0
 11
13.22786604487683
 21
-9.919280224384138
 31
0.0
  0
LINE
  5
BD0
330
1F
100
AcDbEntity
  8
2
  6
CONTINUOUS
370
25
 62
7
100
AcDbLine
 10
12.24293220054904
 20
-10.47995
 30
0.0
 11
13.15715536675818
 21
-9.565726833790865
 31
0.0
  0
LINE
  5
BD1
330
1F
100
AcDbEntity
  8
2
  6
CONTINUOUS
370
25
 62
7
100
AcDbLine
 10
11.81866813183712
 20
-10.47995
 30
0.0
 11
13.08644468863952
 21
-9.212173443197594
 31
0.0
  0
LINE
  5
BD2
330
1F
100
AcDbEntity
  8
2
  6
CONTINUOUS
370
25
 62
7
100
AcDbLine
 10
11.39440406312519
 20
-10.47995
 30
0.0
 11
13.01573401052087
 21
-8.85862005260432
 31
0.0
  0
LINE
  5
BD3
330
1F
100
AcDbEntity
  8
2
  6
CONTINUOUS
370
25
 62
7
100
AcDbLine
 10
11.43246500139669
 20
-10.01762499301657
 30
0.0
 11
12.94502333240221
 21
-8.505066662011046
 31
0.0
  0
LINE
  5
BD4
330
1F
100
AcDbEntity
  8
2
  6
CONTINUOUS
370
25
 62
7
100
AcDbLine
 10
11.53853101857467
 20
-9.487294907126662
 30
0.0
 11
12.87431265428356
 21
-8.151513271417773
 31
0.0
  0
LINE
  5
BD5
330
1F
100
AcDbEntity
  8
2
  6
CONTINUOUS
370
25
 62
7
100
AcDbLine
 10
11.64459703575265
 20
-8.95696482123675
 30
0.0
 11
12.8036019761649
 21
-7.797959880824498
 31
0.0
  0
LINE
  5
BD6
330
1F
100
AcDbEntity
  8
2
  6
CONTINUOUS
370
25
 62
7
100
AcDbLine
 10
11.75066305293063
 20
-8.426634735346841
 30
0.0
 11
12.73289129804625
 21
-7.444406490231223
 31
0.0
  0
LINE
  5
BD7
330
1F
100
AcDbEntity
  8
2
  6
CONTINUOUS
370
25
 62
7
100
AcDbLine
 10
11.85672907010862
 20
-7.896304649456932
 30
0.0
 11
12.66218061992759
 21
-7.09085309963795
 31
0.0
  0
LINE
  5
BD8
330
1F
100
AcDbEntity
  8
2
  6
CONTINUOUS
370
25
 62
7
100
AcDbLine
 10
11.9627950872866
 20
-7.36597456356702
 30
0.0
 11
12.59146994180894
 21
-6.737299709044681
 31
0.0
  0
LINE
  5
BD9
330
1F
100
AcDbEntity
  8
2
  6
CONTINUOUS
370
25
 62
7
100
AcDbLine
 10
12.06886110446458
 20
-6.835644477677112
 30
0.0
 11
12.52075926369028
 21
-6.383746318451408
 31
0.0
  0
LINE
  5
BDA
330
1F
100
AcDbEntity
  8
2
  6
CONTINUOUS
370
25
 62
7
100
AcDbLine
 10
12.17492712164256
 20
-6.305314391787201
 30
0.0
 11
12.45004858557163
 21
-6.030192927858135
 31
0.0
  0
LINE
  5
BDB
330
1F
100
AcDbEntity
  8
2
  6
CONTINUOUS
370
25
 62
7
100
AcDbLine
 10
12.28099313882054
 20
-5.774984305897293
 30
0.0
 11
12.37933790745297
 21
-5.676639537264862
 31
0.0
  0
LINE
  5
BDC
330
1F
100
AcDbEntity
  8
2
  6
CONTINUOUS
370
25
 62
7
100
AcDbLine
 10
11.39687061278921
 20
-10.19559693605396
 30
0.0
 11
11.68122367673525
 21
-10.47995
 31
0.0
  0
LINE
  5
BDD
330
1F
100
AcDbEntity
  8
2
  6
CONTINUOUS
370
25
 62
7
100
AcDbLine
 10
11.46758129090786
 20
-9.842043545460683
 30
0.0
 11
12.10548774544718
 21
-10.47995
 31
0.0
  0
LINE
  5
BDE
330
1F
100
AcDbEntity
  8
2
  6
CONTINUOUS
370
25
 62
7
100
AcDbLine
 10
11.53829196902652
 20
-9.48849015486741
 30
0.0
 11
12.52975181415911
 21
-10.47995
 31
0.0
  0
LINE
  5
BDF
330
1F
100
AcDbEntity
  8
2
  6
CONTINUOUS
370
25
 62
7
100
AcDbLine
 10
11.60900264714518
 20
-9.134936764274137
 30
0.0
 11
12.95401588287104
 21
-10.47995
 31
0.0
  0
LINE
  5
BE0
330
1F
100
AcDbEntity
  8
2
  6
CONTINUOUS
370
25
 62
7
100
AcDbLine
 10
11.67971332526383
 20
-8.781383373680864
 30
0.0
 11
13.33043001210426
 21
-10.4321000605213
 31
0.0
  0
LINE
  5
BE1
330
1F
100
AcDbEntity
  8
2
  6
CONTINUOUS
370
25
 62
7
100
AcDbLine
 10
11.75042400338248
 20
-8.427829983087591
 30
0.0
 11
13.22436399492628
 21
-9.901769974631387
 31
0.0
  0
LINE
  5
BE2
330
1F
100
AcDbEntity
  8
2
  6
CONTINUOUS
370
25
 62
7
100
AcDbLine
 10
11.82113468150114
 20
-8.074276592494318
 30
0.0
 11
13.1182979777483
 21
-9.371439888741477
 31
0.0
  0
LINE
  5
BE3
330
1F
100
AcDbEntity
  8
2
  6
CONTINUOUS
370
25
 62
7
100
AcDbLine
 10
11.89184535961979
 20
-7.720723201901043
 30
0.0
 11
13.01223196057032
 21
-8.841109802851568
 31
0.0
  0
LINE
  5
BE4
330
1F
100
AcDbEntity
  8
2
  6
CONTINUOUS
370
25
 62
7
100
AcDbLine
 10
11.96255603773845
 20
-7.36716981130777
 30
0.0
 11
12.90616594339233
 21
-8.310779716961658
 31
0.0
  0
LINE
  5
BE5
330
1F
100
AcDbEntity
  8
2
  6
CONTINUOUS
370
25
 62
7
100
AcDbLine
 10
12.0332667158571
 20
-7.013616420714495
 30
0.0
 11
12.80009992621435
 21
-7.780449631071747
 31
0.0
  0
LINE
  5
BE6
330
1F
100
AcDbEntity
  8
2
  6
CONTINUOUS
370
25
 62
7
100
AcDbLine
 10
12.10397739397576
 20
-6.660063030121223
 30
0.0
 11
12.69403390903637
 21
-7.250119545181836
 31
0.0
  0
LINE
  5
BE7
330
1F
100
AcDbEntity
  8
2
  6
CONTINUOUS
370
25
 62
7
100
AcDbLine
 10
12.17468807209441
 20
-6.306509639527949
 30
0.0
 11
12.58796789185839
 21
-6.719789459291928
 31
0.0
  0
LINE
  5
BE8
330
1F
100
AcDbEntity
  8
2
  6
CONTINUOUS
370
25
 62
7
100
AcDbLine
 10
12.24539875021307
 20
-5.952956248934678
 30
0.0
 11
12.48190187468041
 21
-6.189459373402016
 31
0.0
  0
LINE
  5
BE9
330
1F
100
AcDbEntity
  8
2
  6
CONTINUOUS
370
25
 62
7
100
AcDbLine
 10
12.31610942833172
 20
-5.599402858341403
 30
0.0
 11
12.37583585750242
 21
-5.659129287512108
 31
0.0
  0
LINE
  5
BEA
330
1F
100
AcDbEntity
  8
2
  6
CONTINUOUS
370
25
 62
7
100
AcDbLine
 10
12.34
 20
5.479950000000001
 30
0.0
 11
11.34
 21
10.47995
 31
0.0
  0
LINE
  5
BEB
330
1F
100
AcDbEntity
  8
2
  6
CONTINUOUS
370
25
 62
7
100
AcDbLine
 10
11.34
 20
10.47995
 30
0.0
 11
13.34
 21
10.47995
 31
0.0
  0
LINE
  5
BEC
330
1F
100
AcDbEntity
  8
2
  6
CONTINUOUS
370
25
 62
7
100
AcDbLine
 10
13.34
 20
10.47995
 30
0.0
 11
12.34
 21
5.479950000000001
 31
0.0
  0
LINE
  5
BED
330
1F
100
AcDbEntity
  8
2
  6
CONTINUOUS
370
25
 62
7
100
AcDbLine
 10
12.28013379048173
 20
5.779281047591346
 30
0.0
 11
12.4297993142774
 21
5.928946571387017
 31
0.0
  0
LINE
  5
BEE
330
1F
100
AcDbEntity
  8
2
  6
CONTINUOUS
370
25
 62
7
100
AcDbLine
 10
12.20942311236308
 20
6.132834438184618
 30
0.0
 11
12.53586533145539
 21
6.459276657276927
 31
0.0
  0
LINE
  5
BEF
330
1F
100
AcDbEntity
  8
2
  6
CONTINUOUS
370
25
 62
7
100
AcDbLine
 10
12.13871243424442
 20
6.486387828777893
 30
0.0
 11
12.64193134863337
 21
6.989606743166835
 31
0.0
  0
LINE
  5
BF0
330
1F
100
AcDbEntity
  8
2
  6
CONTINUOUS
370
25
 62
7
100
AcDbLine
 10
12.06800175612577
 20
6.839941219371164
 30
0.0
 11
12.74799736581135
 21
7.519936829056745
 31
0.0
  0
LINE
  5
BF1
330
1F
100
AcDbEntity
  8
2
  6
CONTINUOUS
370
25
 62
7
100
AcDbLine
 10
11.99729107800711
 20
7.193494609964439
 30
0.0
 11
12.85406338298933
 21
8.050266914946654
 31
0.0
  0
LINE
  5
BF2
330
1F
100
AcDbEntity
  8
2
  6
CONTINUOUS
370
25
 62
7
100
AcDbLine
 10
11.92658039988846
 20
7.547048000557709
 30
0.0
 11
12.96012940016731
 21
8.580597000836566
 31
0.0
  0
LINE
  5
BF3
330
1F
100
AcDbEntity
  8
2
  6
CONTINUOUS
370
25
 62
7
100
AcDbLine
 10
11.85586972176981
 20
7.900601391150984
 30
0.0
 11
13.06619541734529
 21
9.110927086726473
 31
0.0
  0
LINE
  5
BF4
330
1F
100
AcDbEntity
  8
2
  6
CONTINUOUS
370
25
 62
7
100
AcDbLine
 10
11.78515904365115
 20
8.254154781744255
 30
0.0
 11
13.17226143452328
 21
9.641257172616385
 31
0.0
  0
LINE
  5
BF5
330
1F
100
AcDbEntity
  8
2
  6
CONTINUOUS
370
25
 62
7
100
AcDbLine
 10
11.7144483655325
 20
8.607708172337531
 30
0.0
 11
13.27832745170126
 21
10.17158725850629
 31
0.0
  0
LINE
  5
BF6
330
1F
100
AcDbEntity
  8
2
  6
CONTINUOUS
370
25
 62
7
100
AcDbLine
 10
11.64373768741384
 20
8.961261562930803
 30
0.0
 11
13.16242612448304
 21
10.47995
 31
0.0
  0
LINE
  5
BF7
330
1F
100
AcDbEntity
  8
2
  6
CONTINUOUS
370
25
 62
7
100
AcDbLine
 10
11.57302700929519
 20
9.314814953524078
 30
0.0
 11
12.73816205577111
 21
10.47995
 31
0.0
  0
LINE
  5
BF8
330
1F
100
AcDbEntity
  8
2
  6
CONTINUOUS
370
25
 62
7
100
AcDbLine
 10
11.50231633117653
 20
9.668368344117347
 30
0.0
 11
12.31389798705919
 21
10.47995
 31
0.0
  0
LINE
  5
BF9
330
1F
100
AcDbEntity
  8
2
  6
CONTINUOUS
370
25
 62
7
100
AcDbLine
 10
11.43160565305788
 20
10.02192173471062
 30
0.0
 11
11.88963391834726
 21
10.47995
 31
0.0
  0
LINE
  5
BFA
330
1F
100
AcDbEntity
  8
2
  6
CONTINUOUS
370
25
 62
7
100
AcDbLine
 10
11.36089497493922
 20
10.37547512530389
 30
0.0
 11
11.46536984963533
 21
10.47995
 31
0.0
  0
LINE
  5
BFB
330
1F
100
AcDbEntity
  8
2
  6
CONTINUOUS
370
25
 62
7
100
AcDbLine
 10
12.23664876134677
 20
5.99670619326616
 30
0.0
 11
12.40890082576882
 21
5.824454128844105
 31
0.0
  0
LINE
  5
BFC
330
1F
100
AcDbEntity
  8
2
  6
CONTINUOUS
370
25
 62
7
100
AcDbLine
 10
12.13058274416879
 20
6.527036279156068
 30
0.0
 11
12.47961150388748
 21
6.178007519437379
 31
0.0
  0
LINE
  5
BFD
330
1F
100
AcDbEntity
  8
2
  6
CONTINUOUS
370
25
 62
7
100
AcDbLine
 10
12.0245167269908
 20
7.057366365045979
 30
0.0
 11
12.55032218200613
 21
6.531560910030651
 31
0.0
  0
LINE
  5
BFE
330
1F
100
AcDbEntity
  8
2
  6
CONTINUOUS
370
25
 62
7
100
AcDbLine
 10
11.91845070981283
 20
7.587696450935884
 30
0.0
 11
12.62103286012479
 21
6.885114300623925
 31
0.0
  0
LINE
  5
BFF
330
1F
100
AcDbEntity
  8
2
  6
CONTINUOUS
370
25
 62
7
100
AcDbLine
 10
11.81238469263484
 20
8.118026536825793
 30
0.0
 11
12.69174353824344
 21
7.238667691217197
 31
0.0
  0
LINE
  5
C00
330
1F
100
AcDbEntity
  8
2
  6
CONTINUOUS
370
25
 62
7
100
AcDbLine
 10
11.70631867545686
 20
8.648356622715703
 30
0.0
 11
12.76245421636209
 21
7.592221081810472
 31
0.0
  0
LINE
  5
C01
330
1F
100
AcDbEntity
  8
2
  6
CONTINUOUS
370
25
 62
7
100
AcDbLine
 10
11.60025265827888
 20
9.178686708605612
 30
0.0
 11
12.83316489448075
 21
7.945774472403748
 31
0.0
  0
LINE
  5
C02
330
1F
100
AcDbEntity
  8
2
  6
CONTINUOUS
370
25
 62
7
100
AcDbLine
 10
11.4941866411009
 20
9.709016794495522
 30
0.0
 11
12.9038755725994
 21
8.29932786299702
 31
0.0
  0
LINE
  5
C03
330
1F
100
AcDbEntity
  8
2
  6
CONTINUOUS
370
25
 62
7
100
AcDbLine
 10
11.38812062392292
 20
10.23934688038543
 30
0.0
 11
12.97458625071806
 21
8.65288125359029
 31
0.0
  0
LINE
  5
C04
330
1F
100
AcDbEntity
  8
2
  6
CONTINUOUS
370
25
 62
7
100
AcDbLine
 10
11.57178157302027
 20
10.47995
 30
0.0
 11
13.04529692883671
 21
9.006434644183566
 31
0.0
  0
LINE
  5
C05
330
1F
100
AcDbEntity
  8
2
  6
CONTINUOUS
370
25
 62
7
100
AcDbLine
 10
11.9960456417322
 20
10.47995
 30
0.0
 11
13.11600760695537
 21
9.35998803477684
 31
0.0
  0
LINE
  5
C06
330
1F
100
AcDbEntity
  8
2
  6
CONTINUOUS
370
25
 62
7
100
AcDbLine
 10
12.42030971044413
 20
10.47995
 30
0.0
 11
13.18671828507402
 21
9.71354142537011
 31
0.0
  0
LINE
  5
C07
330
1F
100
AcDbEntity
  8
2
  6
CONTINUOUS
370
25
 62
7
100
AcDbLine
 10
12.84457377915606
 20
10.47995
 30
0.0
 11
13.25742896319268
 21
10.06709481596338
 31
0.0
  0
LINE
  5
C08
330
1F
100
AcDbEntity
  8
2
  6
CONTINUOUS
370
25
 62
7
100
AcDbLine
 10
13.26883784786799
 20
10.47995
 30
0.0
 11
13.32813964131133
 21
10.42064820655666
 31
0.0
  0
TEXT
  5
C09
330
1F
100
AcDbEntity
  8
2
  6
CONTINUOUS
370
25
 62
7
100
AcDbText
 10
10.84
 20
16.81745
 30
0.0
 40
3.5
  1
10.96
 50
89.99999999999997
 72
     1
 11
10.84
 21
22.94245
 31
0.0
100
AcDbText
  0
CIRCLE
  5
C0A
330
1F
100
AcDbEntity
  8
2
  6
CONTINUOUS
370
25
 62
7
100
AcDbCircle
 10
9.090000000000003
 20
13.31745
 30
0.0
 40
1.400000000000002
  0
LINE
  5
C0B
330
1F
100
AcDbEntity
  8
2
  6
CONTINUOUS
370
25
 62
7
100
AcDbLine
 10
10.49
 20
11.91745
 30
0.0
 11
7.690000000000003
 21
14.71745
 31
0.0
  0
LINE
  5
C0C
330
1F
100
AcDbEntity
  8
2
  6
CONTINUOUS
370
25
 62
7
100
AcDbLine
 10
23.09
 20
-5.556
 30
0.0
 11
23.09
 21
-18.556
 31
0.0
  0
LINE
  5
C0D
330
1F
100
AcDbEntity
  8
2
  6
CONTINUOUS
370
25
 62
7
100
AcDbLine
 10
48.49
 20
-18.556
 30
0.0
 11
48.49
 21
-5.556000000000001
 31
0.0
  0
LINE
  5
C0E
330
1F
100
AcDbEntity
  8
2
  6
CONTINUOUS
370
25
 62
7
100
AcDbLine
 10
23.09
 20
-17.556
 30
0.0
 11
48.49
 21
-17.556
 31
0.0
  0
LINE
  5
C0F
330
1F
100
AcDbEntity
  8
2
  6
CONTINUOUS
370
25
 62
7
100
AcDbLine
 10
23.09
 20
-17.556
 30
0.0
 11
28.09
 21
-16.556
 31
0.0
  0
LINE
  5
C10
330
1F
100
AcDbEntity
  8
2
  6
CONTINUOUS
370
25
 62
7
100
AcDbLine
 10
28.09
 20
-16.556
 30
0.0
 11
28.09
 21
-18.556
 31
0.0
  0
LINE
  5
C11
330
1F
100
AcDbEntity
  8
2
  6
CONTINUOUS
370
25
 62
7
100
AcDbLine
 10
28.09
 20
-18.556
 30
0.0
 11
23.09
 21
-17.556
 31
0.0
  0
LINE
  5
C12
330
1F
100
AcDbEntity
  8
2
  6
CONTINUOUS
370
25
 62
7
100
AcDbLine
 10
27.81270885627397
 20
-18.50054177125479
 30
0.0
 11
28.09
 21
-18.22325062752876
 31
0.0
  0
LINE
  5
C13
330
1F
100
AcDbEntity
  8
2
  6
CONTINUOUS
370
25
 62
7
100
AcDbLine
 10
27.4591554656807
 20
-18.42983109313614
 30
0.0
 11
28.09
 21
-17.79898655881684
 31
0.0
  0
LINE
  5
C14
330
1F
100
AcDbEntity
  8
2
  6
CONTINUOUS
370
25
 62
7
100
AcDbLine
 10
27.10560207508742
 20
-18.35912041501749
 30
0.0
 11
28.09
 21
-17.3747224901049
 31
0.0
  0
LINE
  5
C15
330
1F
100
AcDbEntity
  8
2
  6
CONTINUOUS
370
25
 62
7
100
AcDbLine
 10
26.75204868449416
 20
-18.28840973689883
 30
0.0
 11
28.09
 21
-16.95045842139298
 31
0.0
  0
LINE
  5
C16
330
1F
100
AcDbEntity
  8
2
  6
CONTINUOUS
370
25
 62
7
100
AcDbLine
 10
26.39849529390088
 20
-18.21769905878018
 30
0.0
 11
28.05274294085131
 21
-16.56345141182974
 31
0.0
  0
LINE
  5
C17
330
1F
100
AcDbEntity
  8
2
  6
CONTINUOUS
370
25
 62
7
100
AcDbLine
 10
26.04494190330761
 20
-18.14698838066152
 30
0.0
 11
27.52241285496141
 21
-16.66951742900772
 31
0.0
  0
LINE
  5
C18
330
1F
100
AcDbEntity
  8
2
  6
CONTINUOUS
370
25
 62
7
100
AcDbLine
 10
25.69138851271433
 20
-18.07627770254286
 30
0.0
 11
26.99208276907149
 21
-16.77558344618571
 31
0.0
  0
LINE
  5
C19
330
1F
100
AcDbEntity
  8
2
  6
CONTINUOUS
370
25
 62
7
100
AcDbLine
 10
25.33783512212106
 20
-18.00556702442421
 30
0.0
 11
26.46175268318159
 21
-16.88164946336369
 31
0.0
  0
LINE
  5
C1A
330
1F
100
AcDbEntity
  8
2
  6
CONTINUOUS
370
25
 62
7
100
AcDbLine
 10
24.98428173152779
 20
-17.93485634630555
 30
0.0
 11
25.93142259729167
 21
-16.98771548054167
 31
0.0
  0
LINE
  5
C1B
330
1F
100
AcDbEntity
  8
2
  6
CONTINUOUS
370
25
 62
7
100
AcDbLine
 10
24.63072834093451
 20
-17.8641456681869
 30
0.0
 11
25.40109251140176
 21
-17.09378149771965
 31
0.0
  0
LINE
  5
C1C
330
1F
100
AcDbEntity
  8
2
  6
CONTINUOUS
370
25
 62
7
100
AcDbLine
 10
24.27717495034124
 20
-17.79343499006825
 30
0.0
 11
24.87076242551186
 21
-17.19984751489763
 31
0.0
  0
LINE
  5
C1D
330
1F
100
AcDbEntity
  8
2
  6
CONTINUOUS
370
25
 62
7
100
AcDbLine
 10
23.92362155974797
 20
-17.72272431194959
 30
0.0
 11
24.34043233962195
 21
-17.30591353207561
 31
0.0
  0
LINE
  5
C1E
330
1F
100
AcDbEntity
  8
2
  6
CONTINUOUS
370
25
 62
7
100
AcDbLine
 10
23.57006816915469
 20
-17.65201363383094
 30
0.0
 11
23.81010225373204
 21
-17.4119795492536
 31
0.0
  0
LINE
  5
C1F
330
1F
100
AcDbEntity
  8
2
  6
CONTINUOUS
370
25
 62
7
100
AcDbLine
 10
23.21651477856142
 20
-17.58130295571229
 30
0.0
 11
23.27977216784213
 21
-17.51804556643158
 31
0.0
  0
LINE
  5
C20
330
1F
100
AcDbEntity
  8
2
  6
CONTINUOUS
370
25
 62
7
100
AcDbLine
 10
23.41974746830592
 20
-17.49005050633882
 30
0.0
 11
23.58462120245888
 21
-17.65492424049178
 31
0.0
  0
LINE
  5
C21
330
1F
100
AcDbEntity
  8
2
  6
CONTINUOUS
370
25
 62
7
100
AcDbLine
 10
23.77330085889919
 20
-17.41933982822017
 30
0.0
 11
24.11495128834878
 21
-17.76099025766975
 31
0.0
  0
LINE
  5
C22
330
1F
100
AcDbEntity
  8
2
  6
CONTINUOUS
370
25
 62
7
100
AcDbLine
 10
24.12685424949247
 20
-17.34862915010151
 30
0.0
 11
24.6452813742387
 21
-17.86705627484774
 31
0.0
  0
LINE
  5
C23
330
1F
100
AcDbEntity
  8
2
  6
CONTINUOUS
370
25
 62
7
100
AcDbLine
 10
24.48040764008574
 20
-17.27791847198285
 30
0.0
 11
25.17561146012861
 21
-17.97312229202572
 31
0.0
  0
LINE
  5
C24
330
1F
100
AcDbEntity
  8
2
  6
CONTINUOUS
370
25
 62
7
100
AcDbLine
 10
24.83396103067901
 20
-17.2072077938642
 30
0.0
 11
25.70594154601851
 21
-18.0791883092037
 31
0.0
  0
LINE
  5
C25
330
1F
100
AcDbEntity
  8
2
  6
CONTINUOUS
370
25
 62
7
100
AcDbLine
 10
25.18751442127228
 20
-17.13649711574555
 30
0.0
 11
26.23627163190842
 21
-18.18525432638168
 31
0.0
  0
LINE
  5
C26
330
1F
100
AcDbEntity
  8
2
  6
CONTINUOUS
370
25
 62
7
100
AcDbLine
 10
25.54106781186556
 20
-17.06578643762689
 30
0.0
 11
26.76660171779833
 21
-18.29132034355967
 31
0.0
  0
LINE
  5
C27
330
1F
100
AcDbEntity
  8
2
  6
CONTINUOUS
370
25
 62
7
100
AcDbLine
 10
25.89462120245883
 20
-16.99507575950824
 30
0.0
 11
27.29693180368824
 21
-18.39738636073765
 31
0.0
  0
LINE
  5
C28
330
1F
100
AcDbEntity
  8
2
  6
CONTINUOUS
370
25
 62
7
100
AcDbLine
 10
26.2481745930521
 20
-16.92436508138958
 30
0.0
 11
27.82726188957815
 21
-18.50345237791563
 31
0.0
  0
LINE
  5
C29
330
1F
100
AcDbEntity
  8
2
  6
CONTINUOUS
370
25
 62
7
100
AcDbLine
 10
26.60172798364538
 20
-16.85365440327093
 30
0.0
 11
28.09
 21
-18.34192641962555
 31
0.0
  0
LINE
  5
C2A
330
1F
100
AcDbEntity
  8
2
  6
CONTINUOUS
370
25
 62
7
100
AcDbLine
 10
26.95528137423865
 20
-16.78294372515228
 30
0.0
 11
28.09
 21
-17.91766235091362
 31
0.0
  0
LINE
  5
C2B
330
1F
100
AcDbEntity
  8
2
  6
CONTINUOUS
370
25
 62
7
100
AcDbLine
 10
27.30883476483192
 20
-16.71223304703362
 30
0.0
 11
28.09
 21
-17.49339828220169
 31
0.0
  0
LINE
  5
C2C
330
1F
100
AcDbEntity
  8
2
  6
CONTINUOUS
370
25
 62
7
100
AcDbLine
 10
27.6623881554252
 20
-16.64152236891496
 30
0.0
 11
28.09
 21
-17.06913421348976
 31
0.0
  0
LINE
  5
C2D
330
1F
100
AcDbEntity
  8
2
  6
CONTINUOUS
370
25
 62
7
100
AcDbLine
 10
28.01594154601847
 20
-16.57081169079631
 30
0.0
 11
28.09
 21
-16.64487014477784
 31
0.0
  0
LINE
  5
C2E
330
1F
100
AcDbEntity
  8
2
  6
CONTINUOUS
370
25
 62
7
100
AcDbLine
 10
48.49
 20
-17.556
 30
0.0
 11
43.49
 21
-18.556
 31
0.0
  0
LINE
  5
C2F
330
1F
100
AcDbEntity
  8
2
  6
CONTINUOUS
370
25
 62
7
100
AcDbLine
 10
43.49
 20
-18.556
 30
0.0
 11
43.49
 21
-16.556
 31
0.0
  0
LINE
  5
C30
330
1F
100
AcDbEntity
  8
2
  6
CONTINUOUS
370
25
 62
7
100
AcDbLine
 10
43.49
 20
-16.556
 30
0.0
 11
48.49
 21
-17.556
 31
0.0
  0
LINE
  5
C31
330
1F
100
AcDbEntity
  8
2
  6
CONTINUOUS
370
25
 62
7
100
AcDbLine
 10
48.30755898991539
 20
-17.59248820201692
 30
0.0
 11
48.36837265994359
 21
-17.53167453198872
 31
0.0
  0
LINE
  5
C32
330
1F
100
AcDbEntity
  8
2
  6
CONTINUOUS
370
25
 62
7
100
AcDbLine
 10
47.77722890402548
 20
-17.6985542191949
 30
0.0
 11
48.01481926935033
 21
-17.46096385387006
 31
0.0
  0
LINE
  5
C33
330
1F
100
AcDbEntity
  8
2
  6
CONTINUOUS
370
25
 62
7
100
AcDbLine
 10
47.24689881813556
 20
-17.80462023637289
 30
0.0
 11
47.66126587875704
 21
-17.39025317575141
 31
0.0
  0
LINE
  5
C34
330
1F
100
AcDbEntity
  8
2
  6
CONTINUOUS
370
25
 62
7
100
AcDbLine
 10
46.71656873224565
 20
-17.91068625355087
 30
0.0
 11
47.30771248816377
 21
-17.31954249763275
 31
0.0
  0
LINE
  5
C35
330
1F
100
AcDbEntity
  8
2
  6
CONTINUOUS
370
25
 62
7
100
AcDbLine
 10
46.18623864635575
 20
-18.01675227072885
 30
0.0
 11
46.9541590975705
 21
-17.2488318195141
 31
0.0
  0
LINE
  5
C36
330
1F
100
AcDbEntity
  8
2
  6
CONTINUOUS
370
25
 62
7
100
AcDbLine
 10
45.65590856046583
 20
-18.12281828790684
 30
0.0
 11
46.60060570697722
 21
-17.17812114139544
 31
0.0
  0
LINE
  5
C37
330
1F
100
AcDbEntity
  8
2
  6
CONTINUOUS
370
25
 62
7
100
AcDbLine
 10
45.12557847457591
 20
-18.22888430508482
 30
0.0
 11
46.24705231638394
 21
-17.10741046327679
 31
0.0
  0
LINE
  5
C38
330
1F
100
AcDbEntity
  8
2
  6
CONTINUOUS
370
25
 62
7
100
AcDbLine
 10
44.59524838868599
 20
-18.33495032226281
 30
0.0
 11
45.89349892579066
 21
-17.03669978515813
 31
0.0
  0
LINE
  5
C39
330
1F
100
AcDbEntity
  8
2
  6
CONTINUOUS
370
25
 62
7
100
AcDbLine
 10
44.06491830279608
 20
-18.44101633944079
 30
0.0
 11
45.53994553519739
 21
-16.96598910703948
 31
0.0
  0
LINE
  5
C3A
330
1F
100
AcDbEntity
  8
2
  6
CONTINUOUS
370
25
 62
7
100
AcDbLine
 10
43.53458821690617
 20
-18.54708235661877
 30
0.0
 11
45.18639214460411
 21
-16.89527842892083
 31
0.0
  0
LINE
  5
C3B
330
1F
100
AcDbEntity
  8
2
  6
CONTINUOUS
370
25
 62
7
100
AcDbLine
 10
43.49
 20
-18.167406504813
 30
0.0
 11
44.83283875401084
 21
-16.82456775080217
 31
0.0
  0
LINE
  5
C3C
330
1F
100
AcDbEntity
  8
2
  6
CONTINUOUS
370
25
 62
7
100
AcDbLine
 10
43.49
 20
-17.74314243610107
 30
0.0
 11
44.47928536341756
 21
-16.75385707268351
 31
0.0
  0
LINE
  5
C3D
330
1F
100
AcDbEntity
  8
2
  6
CONTINUOUS
370
25
 62
7
100
AcDbLine
 10
43.49
 20
-17.31887836738914
 30
0.0
 11
44.12573197282428
 21
-16.68314639456486
 31
0.0
  0
LINE
  5
C3E
330
1F
100
AcDbEntity
  8
2
  6
CONTINUOUS
370
25
 62
7
100
AcDbLine
 10
43.49
 20
-16.89461429867721
 30
0.0
 11
43.77217858223101
 21
-16.6124357164462
 31
0.0
  0
LINE
  5
C3F
330
1F
100
AcDbEntity
  8
2
  6
CONTINUOUS
370
25
 62
7
100
AcDbLine
 10
43.49
 20
-18.4684199459962
 30
0.0
 11
43.5629833783365
 21
-18.5414033243327
 31
0.0
  0
LINE
  5
C40
330
1F
100
AcDbEntity
  8
2
  6
CONTINUOUS
370
25
 62
7
100
AcDbLine
 10
43.49
 20
-18.04415587728427
 30
0.0
 11
43.91653676892977
 21
-18.47069264621404
 31
0.0
  0
LINE
  5
C41
330
1F
100
AcDbEntity
  8
2
  6
CONTINUOUS
370
25
 62
7
100
AcDbLine
 10
43.49
 20
-17.61989180857234
 30
0.0
 11
44.27009015952305
 21
-18.39998196809539
 31
0.0
  0
LINE
  5
C42
330
1F
100
AcDbEntity
  8
2
  6
CONTINUOUS
370
25
 62
7
100
AcDbLine
 10
43.49
 20
-17.19562773986041
 30
0.0
 11
44.62364355011633
 21
-18.32927128997673
 31
0.0
  0
LINE
  5
C43
330
1F
100
AcDbEntity
  8
2
  6
CONTINUOUS
370
25
 62
7
100
AcDbLine
 10
43.49
 20
-16.77136367114848
 30
0.0
 11
44.9771969407096
 21
-18.25856061185808
 31
0.0
  0
LINE
  5
C44
330
1F
100
AcDbEntity
  8
2
  6
CONTINUOUS
370
25
 62
7
100
AcDbLine
 10
43.75112549695432
 20
-16.60822509939086
 30
0.0
 11
45.33075033130287
 21
-18.18784993373942
 31
0.0
  0
LINE
  5
C45
330
1F
100
AcDbEntity
  8
2
  6
CONTINUOUS
370
25
 62
7
100
AcDbLine
 10
44.28145558284424
 20
-16.71429111656885
 30
0.0
 11
45.68430372189615
 21
-18.11713925562076
 31
0.0
  0
LINE
  5
C46
330
1F
100
AcDbEntity
  8
2
  6
CONTINUOUS
370
25
 62
7
100
AcDbLine
 10
44.81178566873414
 20
-16.82035713374683
 30
0.0
 11
46.03785711248942
 21
-18.04642857750211
 31
0.0
  0
LINE
  5
C47
330
1F
100
AcDbEntity
  8
2
  6
CONTINUOUS
370
25
 62
7
100
AcDbLine
 10
45.34211575462405
 20
-16.92642315092481
 30
0.0
 11
46.3914105030827
 21
-17.97571789938346
 31
0.0
  0
LINE
  5
C48
330
1F
100
AcDbEntity
  8
2
  6
CONTINUOUS
370
25
 62
7
100
AcDbLine
 10
45.87244584051397
 20
-17.0324891681028
 30
0.0
 11
46.74496389367598
 21
-17.90500722126481
 31
0.0
  0
LINE
  5
C49
330
1F
100
AcDbEntity
  8
2
  6
CONTINUOUS
370
25
 62
7
100
AcDbLine
 10
46.40277592640388
 20
-17.13855518528078
 30
0.0
 11
47.09851728426925
 21
-17.83429654314615
 31
0.0
  0
LINE
  5
C4A
330
1F
100
AcDbEntity
  8
2
  6
CONTINUOUS
370
25
 62
7
100
AcDbLine
 10
46.9331060122938
 20
-17.24462120245876
 30
0.0
 11
47.45207067486253
 21
-17.76358586502749
 31
0.0
  0
LINE
  5
C4B
330
1F
100
AcDbEntity
  8
2
  6
CONTINUOUS
370
25
 62
7
100
AcDbLine
 10
47.46343609818371
 20
-17.35068721963675
 30
0.0
 11
47.8056240654558
 21
-17.69287518690884
 31
0.0
  0
LINE
  5
C4C
330
1F
100
AcDbEntity
  8
2
  6
CONTINUOUS
370
25
 62
7
100
AcDbLine
 10
47.99376618407363
 20
-17.45675323681473
 30
0.0
 11
48.15917745604909
 21
-17.62216450879019
 31
0.0
  0
TEXT
  5
C4D
330
1F
100
AcDbEntity
  8
2
  6
CONTINUOUS
370
25
 62
7
100
AcDbText
 10
30.54
 20
-16.056
 30
0.0
 40
3.5
  1
25.4
 72
     1
 11
35.79
 21
-16.056
 31
0.0
100
AcDbText
  0
LINE
  5
C4E
330
1F
100
AcDbEntity
  8
2
  6
CONTINUOUS
370
25
 62
7
100
AcDbLine
 10
-0.01
 20
6.34995
 30
0.0
 11
-0.0099999999999982
 21
35.72495
 31
0.0
  0
LINE
  5
C4F
330
1F
100
AcDbEntity
  8
2
  6
CONTINUOUS
370
25
 62
7
100
AcDbLine
 10
48.49
 20
35.72495
 30
0.0
 11
48.49
 21
5.556000000000001
 31
0.0
  0
LINE
  5
C50
330
1F
100
AcDbEntity
  8
2
  6
CONTINUOUS
370
25
 62
7
100
AcDbLine
 10
-0.01
 20
34.72495
 30
0.0
 11
48.49
 21
34.72495
 31
0.0
  0
LINE
  5
C51
330
1F
100
AcDbEntity
  8
2
  6
CONTINUOUS
370
25
 62
7
100
AcDbLine
 10
-0.01
 20
34.72495
 30
0.0
 11
4.99
 21
35.72495
 31
0.0
  0
LINE
  5
C52
330
1F
100
AcDbEntity
  8
2
  6
CONTINUOUS
370
25
 62
7
100
AcDbLine
 10
4.99
 20
35.72495
 30
0.0
 11
4.99
 21
33.72495
 31
0.0
  0
LINE
  5
C53
330
1F
100
AcDbEntity
  8
2
  6
CONTINUOUS
370
25
 62
7
100
AcDbLine
 10
4.99
 20
33.72495
 30
0.0
 11
-0.01
 21
34.72495
 31
0.0
  0
LINE
  5
C54
330
1F
100
AcDbEntity
  8
2
  6
CONTINUOUS
370
25
 62
7
100
AcDbLine
 10
4.885827772990757
 20
33.74578444540185
 30
0.0
 11
4.99
 21
33.8499566724111
 31
0.0
  0
LINE
  5
C55
330
1F
100
AcDbEntity
  8
2
  6
CONTINUOUS
370
25
 62
7
100
AcDbLine
 10
4.532274382397482
 20
33.8164951235205
 30
0.0
 11
4.99
 21
34.27422074112302
 31
0.0
  0
LINE
  5
C56
330
1F
100
AcDbEntity
  8
2
  6
CONTINUOUS
370
25
 62
7
100
AcDbLine
 10
4.178720991804209
 20
33.88720580163915
 30
0.0
 11
4.99
 21
34.69848480983495
 31
0.0
  0
LINE
  5
C57
330
1F
100
AcDbEntity
  8
2
  6
CONTINUOUS
370
25
 62
7
100
AcDbLine
 10
3.825167601210934
 20
33.95791647975781
 30
0.0
 11
4.99
 21
35.12274887854688
 31
0.0
  0
LINE
  5
C58
330
1F
100
AcDbEntity
  8
2
  6
CONTINUOUS
370
25
 62
7
100
AcDbLine
 10
3.471614210617657
 20
34.02862715787647
 30
0.0
 11
4.99
 21
35.54701294725881
 31
0.0
  0
LINE
  5
C59
330
1F
100
AcDbEntity
  8
2
  6
CONTINUOUS
370
25
 62
7
100
AcDbLine
 10
3.118060820024385
 20
34.09933783599512
 30
0.0
 11
4.682091230036572
 21
35.66336824600732
 31
0.0
  0
LINE
  5
C5A
330
1F
100
AcDbEntity
  8
2
  6
CONTINUOUS
370
25
 62
7
100
AcDbLine
 10
2.764507429431108
 20
34.17004851411378
 30
0.0
 11
4.151761144146658
 21
35.55730222882933
 31
0.0
  0
LINE
  5
C5B
330
1F
100
AcDbEntity
  8
2
  6
CONTINUOUS
370
25
 62
7
100
AcDbLine
 10
2.410954038837835
 20
34.24075919223243
 30
0.0
 11
3.621431058256748
 21
35.45123621165135
 31
0.0
  0
LINE
  5
C5C
330
1F
100
AcDbEntity
  8
2
  6
CONTINUOUS
370
25
 62
7
100
AcDbLine
 10
2.057400648244562
 20
34.31146987035109
 30
0.0
 11
3.091100972366839
 21
35.34517019447337
 31
0.0
  0
LINE
  5
C5D
330
1F
100
AcDbEntity
  8
2
  6
CONTINUOUS
370
25
 62
7
100
AcDbLine
 10
1.703847257651284
 20
34.38218054846974
 30
0.0
 11
2.560770886476922
 21
35.23910417729538
 31
0.0
  0
LINE
  5
C5E
330
1F
100
AcDbEntity
  8
2
  6
CONTINUOUS
370
25
 62
7
100
AcDbLine
 10
1.350293867058012
 20
34.4528912265884
 30
0.0
 11
2.030440800587014
 21
35.1330381601174
 31
0.0
  0
LINE
  5
C5F
330
1F
100
AcDbEntity
  8
2
  6
CONTINUOUS
370
25
 62
7
100
AcDbLine
 10
0.9967404764647396
 20
34.52360190470705
 30
0.0
 11
1.500110714697106
 21
35.02697214293942
 31
0.0
  0
LINE
  5
C60
330
1F
100
AcDbEntity
  8
2
  6
CONTINUOUS
370
25
 62
7
100
AcDbLine
 10
0.6431870858714617
 20
34.59431258282571
 30
0.0
 11
0.9697806288071904
 21
34.92090612576144
 31
0.0
  0
LINE
  5
C61
330
1F
100
AcDbEntity
  8
2
  6
CONTINUOUS
370
25
 62
7
100
AcDbLine
 10
0.28963369527819
 20
34.66502326094436
 30
0.0
 11
0.4394505429172839
 21
34.81484010858345
 31
0.0
  0
LINE
  5
C62
330
1F
100
AcDbEntity
  8
2
  6
CONTINUOUS
370
25
 62
7
100
AcDbLine
 10
0.0439196953150877
 20
34.73573393906302
 30
0.0
 11
0.0708795429726315
 21
34.70877409140547
 31
0.0
  0
LINE
  5
C63
330
1F
100
AcDbEntity
  8
2
  6
CONTINUOUS
370
25
 62
7
100
AcDbLine
 10
0.3974730859083601
 20
34.80644461718167
 30
0.0
 11
0.6012096288625395
 21
34.60270807422749
 31
0.0
  0
LINE
  5
C64
330
1F
100
AcDbEntity
  8
2
  6
CONTINUOUS
370
25
 62
7
100
AcDbLine
 10
0.7510264765016383
 20
34.87715529530033
 30
0.0
 11
1.131539714752456
 21
34.49664205704951
 31
0.0
  0
LINE
  5
C65
330
1F
100
AcDbEntity
  8
2
  6
CONTINUOUS
370
25
 62
7
100
AcDbLine
 10
1.10457986709491
 20
34.94786597341898
 30
0.0
 11
1.661869800642363
 21
34.39057603987153
 31
0.0
  0
LINE
  5
C66
330
1F
100
AcDbEntity
  8
2
  6
CONTINUOUS
370
25
 62
7
100
AcDbLine
 10
1.458133257688188
 20
35.01857665153764
 30
0.0
 11
2.192199886532278
 21
34.28451002269355
 31
0.0
  0
LINE
  5
C67
330
1F
100
AcDbEntity
  8
2
  6
CONTINUOUS
370
25
 62
7
100
AcDbLine
 10
1.811686648281459
 20
35.08928732965629
 30
0.0
 11
2.722529972422185
 21
34.17844400551557
 31
0.0
  0
LINE
  5
C68
330
1F
100
AcDbEntity
  8
2
  6
CONTINUOUS
370
25
 62
7
100
AcDbLine
 10
2.165240038874737
 20
35.15999800777494
 30
0.0
 11
3.252860058312099
 21
34.07237798833758
 31
0.0
  0
LINE
  5
C69
330
1F
100
AcDbEntity
  8
2
  6
CONTINUOUS
370
25
 62
7
100
AcDbLine
 10
2.518793429468007
 20
35.2307086858936
 30
0.0
 11
3.783190144202004
 21
33.9663119711596
 31
0.0
  0
LINE
  5
C6A
330
1F
100
AcDbEntity
  8
2
  6
CONTINUOUS
370
25
 62
7
100
AcDbLine
 10
2.872346820061284
 20
35.30141936401225
 30
0.0
 11
4.313520230091917
 21
33.86024595398162
 31
0.0
  0
LINE
  5
C6B
330
1F
100
AcDbEntity
  8
2
  6
CONTINUOUS
370
25
 62
7
100
AcDbLine
 10
3.225900210654561
 20
35.37213004213091
 30
0.0
 11
4.84385031598183
 21
33.75417993680364
 31
0.0
  0
LINE
  5
C6C
330
1F
100
AcDbEntity
  8
2
  6
CONTINUOUS
370
25
 62
7
100
AcDbLine
 10
3.579453601247831
 20
35.44284072024956
 30
0.0
 11
4.99
 21
34.03229432149739
 31
0.0
  0
LINE
  5
C6D
330
1F
100
AcDbEntity
  8
2
  6
CONTINUOUS
370
25
 62
7
100
AcDbLine
 10
3.933006991841106
 20
35.51355139836822
 30
0.0
 11
4.99
 21
34.45655839020932
 31
0.0
  0
LINE
  5
C6E
330
1F
100
AcDbEntity
  8
2
  6
CONTINUOUS
370
25
 62
7
100
AcDbLine
 10
4.286560382434376
 20
35.58426207648687
 30
0.0
 11
4.99
 21
34.88082245892124
 31
0.0
  0
LINE
  5
C6F
330
1F
100
AcDbEntity
  8
2
  6
CONTINUOUS
370
25
 62
7
100
AcDbLine
 10
4.640113773027652
 20
35.65497275460553
 30
0.0
 11
4.99
 21
35.30508652763318
 31
0.0
  0
LINE
  5
C70
330
1F
100
AcDbEntity
  8
2
  6
CONTINUOUS
370
25
 62
7
100
AcDbLine
 10
48.49
 20
34.72495
 30
0.0
 11
43.49
 21
33.72495
 31
0.0
  0
LINE
  5
C71
330
1F
100
AcDbEntity
  8
2
  6
CONTINUOUS
370
25
 62
7
100
AcDbLine
 10
43.49
 20
33.72495
 30
0.0
 11
43.49
 21
35.72495
 31
0.0
  0
LINE
  5
C72
330
1F
100
AcDbEntity
  8
2
  6
CONTINUOUS
370
25
 62
7
100
AcDbLine
 10
43.49
 20
35.72495
 30
0.0
 11
48.49
 21
34.72495
 31
0.0
  0
LINE
  5
C73
330
1F
100
AcDbEntity
  8
2
  6
CONTINUOUS
370
25
 62
7
100
AcDbLine
 10
48.18697205437438
 20
34.66434441087488
 30
0.0
 11
48.28798136958293
 21
34.76535372608342
 31
0.0
  0
LINE
  5
C74
330
1F
100
AcDbEntity
  8
2
  6
CONTINUOUS
370
25
 62
7
100
AcDbLine
 10
47.65664196848446
 20
34.55827839369689
 30
0.0
 11
47.93442797898965
 21
34.83606440420208
 31
0.0
  0
LINE
  5
C75
330
1F
100
AcDbEntity
  8
2
  6
CONTINUOUS
370
25
 62
7
100
AcDbLine
 10
47.12631188259456
 20
34.45221237651891
 30
0.0
 11
47.58087458839638
 21
34.90677508232073
 31
0.0
  0
LINE
  5
C76
330
1F
100
AcDbEntity
  8
2
  6
CONTINUOUS
370
25
 62
7
100
AcDbLine
 10
46.59598179670463
 20
34.34614635934092
 30
0.0
 11
47.22732119780309
 21
34.97748576043939
 31
0.0
  0
LINE
  5
C77
330
1F
100
AcDbEntity
  8
2
  6
CONTINUOUS
370
25
 62
7
100
AcDbLine
 10
46.06565171081473
 20
34.24008034216294
 30
0.0
 11
46.87376780720982
 21
35.04819643855804
 31
0.0
  0
LINE
  5
C78
330
1F
100
AcDbEntity
  8
2
  6
CONTINUOUS
370
25
 62
7
100
AcDbLine
 10
45.5353216249248
 20
34.13401432498495
 30
0.0
 11
46.52021441661654
 21
35.1189071166767
 31
0.0
  0
LINE
  5
C79
330
1F
100
AcDbEntity
  8
2
  6
CONTINUOUS
370
25
 62
7
100
AcDbLine
 10
45.00499153903489
 20
34.02794830780698
 30
0.0
 11
46.16666102602326
 21
35.18961779479535
 31
0.0
  0
LINE
  5
C7A
330
1F
100
AcDbEntity
  8
2
  6
CONTINUOUS
370
25
 62
7
100
AcDbLine
 10
44.47466145314498
 20
33.92188229062899
 30
0.0
 11
45.81310763542999
 21
35.260328472914
 31
0.0
  0
LINE
  5
C7B
330
1F
100
AcDbEntity
  8
2
  6
CONTINUOUS
370
25
 62
7
100
AcDbLine
 10
43.94433136725507
 20
33.81581627345102
 30
0.0
 11
45.45955424483671
 21
35.33103915103267
 31
0.0
  0
LINE
  5
C7C
330
1F
100
AcDbEntity
  8
2
  6
CONTINUOUS
370
25
 62
7
100
AcDbLine
 10
43.49
 20
33.78574897490788
 30
0.0
 11
45.10600085424343
 21
35.40174982915132
 31
0.0
  0
LINE
  5
C7D
330
1F
100
AcDbEntity
  8
2
  6
CONTINUOUS
370
25
 62
7
100
AcDbLine
 10
43.49
 20
34.21001304361981
 30
0.0
 11
44.75244746365016
 21
35.47246050726997
 31
0.0
  0
LINE
  5
C7E
330
1F
100
AcDbEntity
  8
2
  6
CONTINUOUS
370
25
 62
7
100
AcDbLine
 10
43.49
 20
34.63427711233174
 30
0.0
 11
44.39889407305688
 21
35.54317118538863
 31
0.0
  0
LINE
  5
C7F
330
1F
100
AcDbEntity
  8
2
  6
CONTINUOUS
370
25
 62
7
100
AcDbLine
 10
43.49
 20
35.05854118104368
 30
0.0
 11
44.0453406824636
 21
35.61388186350729
 31
0.0
  0
LINE
  5
C80
330
1F
100
AcDbEntity
  8
2
  6
CONTINUOUS
370
25
 62
7
100
AcDbLine
 10
43.49
 20
35.48280524975561
 30
0.0
 11
43.69178729187033
 21
35.68459254162594
 31
0.0
  0
LINE
  5
C81
330
1F
100
AcDbEntity
  8
2
  6
CONTINUOUS
370
25
 62
7
100
AcDbLine
 10
43.49
 20
34.14032457428293
 30
0.0
 11
43.83614547856912
 21
33.79417909571382
 31
0.0
  0
LINE
  5
C82
330
1F
100
AcDbEntity
  8
2
  6
CONTINUOUS
370
25
 62
7
100
AcDbLine
 10
43.49
 20
34.56458864299487
 30
0.0
 11
44.1896988691624
 21
33.86488977383247
 31
0.0
  0
LINE
  5
C83
330
1F
100
AcDbEntity
  8
2
  6
CONTINUOUS
370
25
 62
7
100
AcDbLine
 10
43.49
 20
34.9888527117068
 30
0.0
 11
44.54325225975567
 21
33.93560045195113
 31
0.0
  0
LINE
  5
C84
330
1F
100
AcDbEntity
  8
2
  6
CONTINUOUS
370
25
 62
7
100
AcDbLine
 10
43.49
 20
35.41311678041873
 30
0.0
 11
44.89680565034894
 21
34.00631113006978
 31
0.0
  0
LINE
  5
C85
330
1F
100
AcDbEntity
  8
2
  6
CONTINUOUS
370
25
 62
7
100
AcDbLine
 10
43.63053856141333
 20
35.69684228771734
 30
0.0
 11
45.25035904094223
 21
34.07702180818844
 31
0.0
  0
LINE
  5
C86
330
1F
100
AcDbEntity
  8
2
  6
CONTINUOUS
370
25
 62
7
100
AcDbLine
 10
44.16086864730325
 20
35.59077627053936
 30
0.0
 11
45.60391243153551
 21
34.14773248630709
 31
0.0
  0
LINE
  5
C87
330
1F
100
AcDbEntity
  8
2
  6
CONTINUOUS
370
25
 62
7
100
AcDbLine
 10
44.69119873319317
 20
35.48471025336137
 30
0.0
 11
45.95746582212878
 21
34.21844316442576
 31
0.0
  0
LINE
  5
C88
330
1F
100
AcDbEntity
  8
2
  6
CONTINUOUS
370
25
 62
7
100
AcDbLine
 10
45.22152881908308
 20
35.37864423618339
 30
0.0
 11
46.31101921272206
 21
34.28915384254441
 31
0.0
  0
LINE
  5
C89
330
1F
100
AcDbEntity
  8
2
  6
CONTINUOUS
370
25
 62
7
100
AcDbLine
 10
45.75185890497298
 20
35.27257821900541
 30
0.0
 11
46.66457260331533
 21
34.35986452066307
 31
0.0
  0
LINE
  5
C8A
330
1F
100
AcDbEntity
  8
2
  6
CONTINUOUS
370
25
 62
7
100
AcDbLine
 10
46.28218899086289
 20
35.16651220182743
 30
0.0
 11
47.0181259939086
 21
34.43057519878171
 31
0.0
  0
LINE
  5
C8B
330
1F
100
AcDbEntity
  8
2
  6
CONTINUOUS
370
25
 62
7
100
AcDbLine
 10
46.81251907675281
 20
35.06044618464944
 30
0.0
 11
47.37167938450188
 21
34.50128587690038
 31
0.0
  0
LINE
  5
C8C
330
1F
100
AcDbEntity
  8
2
  6
CONTINUOUS
370
25
 62
7
100
AcDbLine
 10
47.34284916264272
 20
34.95438016747146
 30
0.0
 11
47.72523277509516
 21
34.57199655501903
 31
0.0
  0
LINE
  5
C8D
330
1F
100
AcDbEntity
  8
2
  6
CONTINUOUS
370
25
 62
7
100
AcDbLine
 10
47.87317924853265
 20
34.84831415029348
 30
0.0
 11
48.07878616568844
 21
34.64270723313768
 31
0.0
  0
LINE
  5
C8E
330
1F
100
AcDbEntity
  8
2
  6
CONTINUOUS
370
25
 62
7
100
AcDbLine
 10
48.40350933442257
 20
34.74224813311549
 30
0.0
 11
48.43233955628173
 21
34.71341791125634
 31
0.0
  0
TEXT
  5
C8F
330
1F
100
AcDbEntity
  8
2
  6
CONTINUOUS
370
25
 62
7
100
AcDbText
 10
18.99
 20
36.22495
 30
0.0
 40
3.5
  1
48.5
 72
     1
 11
24.24
 21
36.22495
 31
0.0
100
AcDbText
  0
LINE
  5
C90
330
1F
100
AcDbEntity
  8
SK2
  6
CONTINUOUS
370
25
 62
7
100
AcDbLine
 10
-45.21
 20
4.34995
 30
0.0
 11
-45.21
 21
45.72495
 31
0.0
  0
LINE
  5
C91
330
1F
100
AcDbEntity
  8
SK2
  6
CONTINUOUS
370
25
 62
7
100
AcDbLine
 10
48.49
 20
45.72495
 30
0.0
 11
48.49
 21
5.555999999999997
 31
0.0
  0
LINE
  5
C92
330
1F
100
AcDbEntity
  8
SK2
  6
CONTINUOUS
370
25
 62
7
100
AcDbLine
 10
-45.21
 20
44.72495
 30
0.0
 11
48.49
 21
44.72495
 31
0.0
  0
LINE
  5
C93
330
1F
100
AcDbEntity
  8
SK2
  6
CONTINUOUS
370
25
 62
7
100
AcDbLine
 10
-45.21
 20
44.72495
 30
0.0
 11
-40.21
 21
45.72495
 31
0.0
  0
LINE
  5
C94
330
1F
100
AcDbEntity
  8
SK2
  6
CONTINUOUS
370
25
 62
7
100
AcDbLine
 10
-40.21
 20
45.72495
 30
0.0
 11
-40.21
 21
43.72495
 31
0.0
  0
LINE
  5
C95
330
1F
100
AcDbEntity
  8
SK2
  6
CONTINUOUS
370
25
 62
7
100
AcDbLine
 10
-40.21
 20
43.72495
 30
0.0
 11
-45.21
 21
44.72495
 31
0.0
  0
LINE
  5
C96
330
1F
100
AcDbEntity
  8
SK2
  6
CONTINUOUS
370
25
 62
7
100
AcDbLine
 10
-40.27611300413488
 20
43.73817260082698
 30
0.0
 11
-40.21
 21
43.80428560496186
 31
0.0
  0
LINE
  5
C97
330
1F
100
AcDbEntity
  8
SK2
  6
CONTINUOUS
370
25
 62
7
100
AcDbLine
 10
-40.62966639472815
 20
43.80888327894563
 30
0.0
 11
-40.21
 21
44.22854967367378
 31
0.0
  0
LINE
  5
C98
330
1F
100
AcDbEntity
  8
SK2
  6
CONTINUOUS
370
25
 62
7
100
AcDbLine
 10
-40.98321978532145
 20
43.87959395706429
 30
0.0
 11
-40.21
 21
44.65281374238573
 31
0.0
  0
LINE
  5
C99
330
1F
100
AcDbEntity
  8
SK2
  6
CONTINUOUS
370
25
 62
7
100
AcDbLine
 10
-41.33677317591471
 20
43.95030463518295
 30
0.0
 11
-40.21
 21
45.07707781109765
 31
0.0
  0
LINE
  5
C9A
330
1F
100
AcDbEntity
  8
SK2
  6
CONTINUOUS
370
25
 62
7
100
AcDbLine
 10
-41.690326566508
 20
44.02101531330161
 30
0.0
 11
-40.21
 21
45.5013418798096
 31
0.0
  0
LINE
  5
C9B
330
1F
100
AcDbEntity
  8
SK2
  6
CONTINUOUS
370
25
 62
7
100
AcDbLine
 10
-42.04387995710127
 20
44.09172599142026
 30
0.0
 11
-40.46081993565191
 21
45.67478601286961
 31
0.0
  0
LINE
  5
C9C
330
1F
100
AcDbEntity
  8
SK2
  6
CONTINUOUS
370
25
 62
7
100
AcDbLine
 10
-42.39743334769456
 20
44.16243666953892
 30
0.0
 11
-40.99115002154185
 21
45.56871999569162
 31
0.0
  0
LINE
  5
C9D
330
1F
100
AcDbEntity
  8
SK2
  6
CONTINUOUS
370
25
 62
7
100
AcDbLine
 10
-42.75098673828783
 20
44.23314734765757
 30
0.0
 11
-41.52148010743175
 21
45.46265397851365
 31
0.0
  0
LINE
  5
C9E
330
1F
100
AcDbEntity
  8
SK2
  6
CONTINUOUS
370
25
 62
7
100
AcDbLine
 10
-43.10454012888112
 20
44.30385802577623
 30
0.0
 11
-42.05181019332169
 21
45.35658796133566
 31
0.0
  0
LINE
  5
C9F
330
1F
100
AcDbEntity
  8
SK2
  6
CONTINUOUS
370
25
 62
7
100
AcDbLine
 10
-43.45809351947439
 20
44.37456870389488
 30
0.0
 11
-42.58214027921159
 21
45.25052194415768
 31
0.0
  0
LINE
  5
CA0
330
1F
100
AcDbEntity
  8
SK2
  6
CONTINUOUS
370
25
 62
7
100
AcDbLine
 10
-43.81164691006768
 20
44.44527938201354
 30
0.0
 11
-43.11247036510152
 21
45.1444559269797
 31
0.0
  0
LINE
  5
CA1
330
1F
100
AcDbEntity
  8
SK2
  6
CONTINUOUS
370
25
 62
7
100
AcDbLine
 10
-44.16520030066094
 20
44.5159900601322
 30
0.0
 11
-43.64280045099142
 21
45.03838990980172
 31
0.0
  0
LINE
  5
CA2
330
1F
100
AcDbEntity
  8
SK2
  6
CONTINUOUS
370
25
 62
7
100
AcDbLine
 10
-44.51875369125423
 20
44.58670073825085
 30
0.0
 11
-44.17313053688137
 21
44.93232389262372
 31
0.0
  0
LINE
  5
CA3
330
1F
100
AcDbEntity
  8
SK2
  6
CONTINUOUS
370
25
 62
7
100
AcDbLine
 10
-44.8723070818475
 20
44.65741141636951
 30
0.0
 11
-44.70346062277127
 21
44.82625787544574
 31
0.0
  0
LINE
  5
CA4
330
1F
100
AcDbEntity
  8
SK2
  6
CONTINUOUS
370
25
 62
7
100
AcDbLine
 10
-44.88480314464107
 20
44.78998937107178
 30
0.0
 11
-44.72220471696161
 21
44.62739094339232
 31
0.0
  0
LINE
  5
CA5
330
1F
100
AcDbEntity
  8
SK2
  6
CONTINUOUS
370
25
 62
7
100
AcDbLine
 10
-44.53124975404779
 20
44.86070004919044
 30
0.0
 11
-44.19187463107168
 21
44.52132492621433
 31
0.0
  0
LINE
  5
CA6
330
1F
100
AcDbEntity
  8
SK2
  6
CONTINUOUS
370
25
 62
7
100
AcDbLine
 10
-44.17769636345452
 20
44.93141072730909
 30
0.0
 11
-43.66154454518178
 21
44.41525890903635
 31
0.0
  0
LINE
  5
CA7
330
1F
100
AcDbEntity
  8
SK2
  6
CONTINUOUS
370
25
 62
7
100
AcDbLine
 10
-43.82414297286124
 20
45.00212140542775
 30
0.0
 11
-43.13121445929185
 21
44.30919289185837
 31
0.0
  0
LINE
  5
CA8
330
1F
100
AcDbEntity
  8
SK2
  6
CONTINUOUS
370
25
 62
7
100
AcDbLine
 10
-43.47058958226796
 20
45.0728320835464
 30
0.0
 11
-42.60088437340193
 21
44.20312687468039
 31
0.0
  0
LINE
  5
CA9
330
1F
100
AcDbEntity
  8
SK2
  6
CONTINUOUS
370
25
 62
7
100
AcDbLine
 10
-43.11703619167468
 20
45.14354276166507
 30
0.0
 11
-42.07055428751202
 21
44.09706085750241
 31
0.0
  0
LINE
  5
CAA
330
1F
100
AcDbEntity
  8
SK2
  6
CONTINUOUS
370
25
 62
7
100
AcDbLine
 10
-42.7634828010814
 20
45.21425343978373
 30
0.0
 11
-41.5402242016221
 21
43.99099484032442
 31
0.0
  0
LINE
  5
CAB
330
1F
100
AcDbEntity
  8
SK2
  6
CONTINUOUS
370
25
 62
7
100
AcDbLine
 10
-42.40992941048812
 20
45.28496411790238
 30
0.0
 11
-41.00989411573217
 21
43.88492882314643
 31
0.0
  0
LINE
  5
CAC
330
1F
100
AcDbEntity
  8
SK2
  6
CONTINUOUS
370
25
 62
7
100
AcDbLine
 10
-42.05637601989484
 20
45.35567479602103
 30
0.0
 11
-40.47956402984226
 21
43.77886280596845
 31
0.0
  0
LINE
  5
CAD
330
1F
100
AcDbEntity
  8
SK2
  6
CONTINUOUS
370
25
 62
7
100
AcDbLine
 10
-41.70282262930156
 20
45.42638547413969
 30
0.0
 11
-40.21
 21
43.93356284483813
 31
0.0
  0
LINE
  5
CAE
330
1F
100
AcDbEntity
  8
SK2
  6
CONTINUOUS
370
25
 62
7
100
AcDbLine
 10
-41.34926923870828
 20
45.49709615225834
 30
0.0
 11
-40.21
 21
44.35782691355006
 31
0.0
  0
LINE
  5
CAF
330
1F
100
AcDbEntity
  8
SK2
  6
CONTINUOUS
370
25
 62
7
100
AcDbLine
 10
-40.995715848115
 20
45.567806830377
 30
0.0
 11
-40.21
 21
44.782090982262
 31
0.0
  0
LINE
  5
CB0
330
1F
100
AcDbEntity
  8
SK2
  6
CONTINUOUS
370
25
 62
7
100
AcDbLine
 10
-40.64216245752172
 20
45.63851750849565
 30
0.0
 11
-40.21
 21
45.20635505097393
 31
0.0
  0
LINE
  5
CB1
330
1F
100
AcDbEntity
  8
SK2
  6
CONTINUOUS
370
25
 62
7
100
AcDbLine
 10
-40.28860906692844
 20
45.70922818661431
 30
0.0
 11
-40.21
 21
45.63061911968587
 31
0.0
  0
LINE
  5
CB2
330
1F
100
AcDbEntity
  8
SK2
  6
CONTINUOUS
370
25
 62
7
100
AcDbLine
 10
48.49
 20
44.72495
 30
0.0
 11
43.49
 21
43.72495
 31
0.0
  0
LINE
  5
CB3
330
1F
100
AcDbEntity
  8
SK2
  6
CONTINUOUS
370
25
 62
7
100
AcDbLine
 10
43.49
 20
43.72495
 30
0.0
 11
43.49
 21
45.72495
 31
0.0
  0
LINE
  5
CB4
330
1F
100
AcDbEntity
  8
SK2
  6
CONTINUOUS
370
25
 62
7
100
AcDbLine
 10
43.49
 20
45.72495
 30
0.0
 11
48.49
 21
44.72495
 31
0.0
  0
LINE
  5
CB5
330
1F
100
AcDbEntity
  8
SK2
  6
CONTINUOUS
370
25
 62
7
100
AcDbLine
 10
48.41489411573222
 20
44.70992882314644
 30
0.0
 11
48.43992941048815
 21
44.73496411790237
 31
0.0
  0
LINE
  5
CB6
330
1F
100
AcDbEntity
  8
SK2
  6
CONTINUOUS
370
25
 62
7
100
AcDbLine
 10
47.8845640298423
 20
44.60386280596845
 30
0.0
 11
48.08637601989488
 21
44.80567479602103
 31
0.0
  0
LINE
  5
CB7
330
1F
100
AcDbEntity
  8
SK2
  6
CONTINUOUS
370
25
 62
7
100
AcDbLine
 10
47.35423394395239
 20
44.49779678879047
 30
0.0
 11
47.7328226293016
 21
44.87638547413969
 31
0.0
  0
LINE
  5
CB8
330
1F
100
AcDbEntity
  8
SK2
  6
CONTINUOUS
370
25
 62
7
100
AcDbLine
 10
46.82390385806247
 20
44.39173077161249
 30
0.0
 11
47.37926923870832
 21
44.94709615225834
 31
0.0
  0
LINE
  5
CB9
330
1F
100
AcDbEntity
  8
SK2
  6
CONTINUOUS
370
25
 62
7
100
AcDbLine
 10
46.29357377217255
 20
44.28566475443451
 30
0.0
 11
47.02571584811504
 21
45.017806830377
 31
0.0
  0
LINE
  5
CBA
330
1F
100
AcDbEntity
  8
SK2
  6
CONTINUOUS
370
25
 62
7
100
AcDbLine
 10
45.76324368628263
 20
44.17959873725652
 30
0.0
 11
46.67216245752176
 21
45.08851750849566
 31
0.0
  0
LINE
  5
CBB
330
1F
100
AcDbEntity
  8
SK2
  6
CONTINUOUS
370
25
 62
7
100
AcDbLine
 10
45.23291360039271
 20
44.07353272007854
 30
0.0
 11
46.31860906692848
 21
45.15922818661431
 31
0.0
  0
LINE
  5
CBC
330
1F
100
AcDbEntity
  8
SK2
  6
CONTINUOUS
370
25
 62
7
100
AcDbLine
 10
44.70258351450279
 20
43.96746670290055
 30
0.0
 11
45.9650556763352
 21
45.22993886473296
 31
0.0
  0
LINE
  5
CBD
330
1F
100
AcDbEntity
  8
SK2
  6
CONTINUOUS
370
25
 62
7
100
AcDbLine
 10
44.17225342861288
 20
43.86140068572257
 30
0.0
 11
45.61150228574193
 21
45.30064954285162
 31
0.0
  0
LINE
  5
CBE
330
1F
100
AcDbEntity
  8
SK2
  6
CONTINUOUS
370
25
 62
7
100
AcDbLine
 10
43.64192334272295
 20
43.75533466854458
 30
0.0
 11
45.25794889514864
 21
45.37136022097027
 31
0.0
  0
LINE
  5
CBF
330
1F
100
AcDbEntity
  8
SK2
  6
CONTINUOUS
370
25
 62
7
100
AcDbLine
 10
43.49
 20
44.02767539453357
 30
0.0
 11
44.90439550455537
 21
45.44207089908893
 31
0.0
  0
LINE
  5
CC0
330
1F
100
AcDbEntity
  8
SK2
  6
CONTINUOUS
370
25
 62
7
100
AcDbLine
 10
43.49
 20
44.4519394632455
 30
0.0
 11
44.55084211396209
 21
45.51278157720759
 31
0.0
  0
LINE
  5
CC1
330
1F
100
AcDbEntity
  8
SK2
  6
CONTINUOUS
370
25
 62
7
100
AcDbLine
 10
43.49
 20
44.87620353195744
 30
0.0
 11
44.19728872336881
 21
45.58349225532624
 31
0.0
  0
LINE
  5
CC2
330
1F
100
AcDbEntity
  8
SK2
  6
CONTINUOUS
370
25
 62
7
100
AcDbLine
 10
43.49
 20
45.30046760066937
 30
0.0
 11
43.84373533277553
 21
45.6542029334449
 31
0.0
  0
LINE
  5
CC3
330
1F
100
AcDbEntity
  8
SK2
  6
CONTINUOUS
370
25
 62
7
100
AcDbLine
 10
43.49
 20
45.72473166938131
 30
0.0
 11
43.49018194218225
 21
45.72491361156356
 31
0.0
  0
LINE
  5
CC4
330
1F
100
AcDbEntity
  8
SK2
  6
CONTINUOUS
370
25
 62
7
100
AcDbLine
 10
43.49
 20
43.8983981546573
 30
0.0
 11
43.63454012888108
 21
43.75385802577622
 31
0.0
  0
LINE
  5
CC5
330
1F
100
AcDbEntity
  8
SK2
  6
CONTINUOUS
370
25
 62
7
100
AcDbLine
 10
43.49
 20
44.32266222336922
 30
0.0
 11
43.98809351947435
 21
43.82456870389487
 31
0.0
  0
LINE
  5
CC6
330
1F
100
AcDbEntity
  8
SK2
  6
CONTINUOUS
370
25
 62
7
100
AcDbLine
 10
43.49
 20
44.74692629208117
 30
0.0
 11
44.34164691006765
 21
43.89527938201353
 31
0.0
  0
LINE
  5
CC7
330
1F
100
AcDbEntity
  8
SK2
  6
CONTINUOUS
370
25
 62
7
100
AcDbLine
 10
43.49
 20
45.17119036079309
 30
0.0
 11
44.69520030066091
 21
43.96599006013218
 31
0.0
  0
LINE
  5
CC8
330
1F
100
AcDbEntity
  8
SK2
  6
CONTINUOUS
370
25
 62
7
100
AcDbLine
 10
43.49
 20
45.59545442950504
 30
0.0
 11
45.04875369125421
 21
44.03670073825084
 31
0.0
  0
LINE
  5
CC9
330
1F
100
AcDbEntity
  8
SK2
  6
CONTINUOUS
370
25
 62
7
100
AcDbLine
 10
43.85846062277119
 20
45.65125787544577
 30
0.0
 11
45.40230708184747
 21
44.10741141636949
 31
0.0
  0
LINE
  5
CCA
330
1F
100
AcDbEntity
  8
SK2
  6
CONTINUOUS
370
25
 62
7
100
AcDbLine
 10
44.38879070866113
 20
45.54519185826778
 30
0.0
 11
45.75586047244077
 21
44.17812209448815
 31
0.0
  0
LINE
  5
CCB
330
1F
100
AcDbEntity
  8
SK2
  6
CONTINUOUS
370
25
 62
7
100
AcDbLine
 10
44.91912079455103
 20
45.4391258410898
 30
0.0
 11
46.10941386303403
 21
44.2488327726068
 31
0.0
  0
LINE
  5
CCC
330
1F
100
AcDbEntity
  8
SK2
  6
CONTINUOUS
370
25
 62
7
100
AcDbLine
 10
45.44945088044097
 20
45.33305982391181
 30
0.0
 11
46.46296725362733
 21
44.31954345072545
 31
0.0
  0
LINE
  5
CCD
330
1F
100
AcDbEntity
  8
SK2
  6
CONTINUOUS
370
25
 62
7
100
AcDbLine
 10
45.97978096633087
 20
45.22699380673383
 30
0.0
 11
46.81652064422059
 21
44.39025412884411
 31
0.0
  0
LINE
  5
CCE
330
1F
100
AcDbEntity
  8
SK2
  6
CONTINUOUS
370
25
 62
7
100
AcDbLine
 10
46.51011105222081
 20
45.12092778955584
 30
0.0
 11
47.17007403481388
 21
44.46096480696277
 31
0.0
  0
LINE
  5
CCF
330
1F
100
AcDbEntity
  8
SK2
  6
CONTINUOUS
370
25
 62
7
100
AcDbLine
 10
47.04044113811071
 20
45.01486177237786
 30
0.0
 11
47.52362742540715
 21
44.53167548508142
 31
0.0
  0
LINE
  5
CD0
330
1F
100
AcDbEntity
  8
SK2
  6
CONTINUOUS
370
25
 62
7
100
AcDbLine
 10
47.57077122400064
 20
44.90879575519988
 30
0.0
 11
47.87718081600044
 21
44.60238616320008
 31
0.0
  0
LINE
  5
CD1
330
1F
100
AcDbEntity
  8
SK2
  6
CONTINUOUS
370
25
 62
7
100
AcDbLine
 10
48.10110130989055
 20
44.8027297380219
 30
0.0
 11
48.23073420659371
 21
44.67309684131874
 31
0.0
  0
TEXT
  5
CD2
330
1F
100
AcDbEntity
  8
SK2
  6
CONTINUOUS
370
25
 62
7
100
AcDbText
 10
-3.610000000000001
 20
46.22495
 30
0.0
 40
3.5
  1
93.7
 72
     1
 11
1.639999999999999
 21
46.22495
 31
0.0
100
AcDbText
  0
LINE
  5
CD3
330
1F
100
AcDbEntity
  8
2
  6
CONTINUOUS
370
25
 62
7
100
AcDbLine
 10
1.59
 20
-5.47995
 30
0.0
 11
1.589999999999999
 21
-28.556
 31
0.0
  0
LINE
  5
CD4
330
1F
100
AcDbEntity
  8
2
  6
CONTINUOUS
370
25
 62
7
100
AcDbLine
 10
48.49
 20
-28.556
 30
0.0
 11
48.49
 21
-5.555999999999997
 31
0.0
  0
LINE
  5
CD5
330
1F
100
AcDbEntity
  8
2
  6
CONTINUOUS
370
25
 62
7
100
AcDbLine
 10
1.589999999999999
 20
-27.556
 30
0.0
 11
48.49
 21
-27.556
 31
0.0
  0
LINE
  5
CD6
330
1F
100
AcDbEntity
  8
2
  6
CONTINUOUS
370
25
 62
7
100
AcDbLine
 10
1.589999999999999
 20
-27.556
 30
0.0
 11
6.589999999999999
 21
-26.556
 31
0.0
  0
LINE
  5
CD7
330
1F
100
AcDbEntity
  8
2
  6
CONTINUOUS
370
25
 62
7
100
AcDbLine
 10
6.589999999999999
 20
-26.556
 30
0.0
 11
6.589999999999999
 21
-28.556
 31
0.0
  0
LINE
  5
CD8
330
1F
100
AcDbEntity
  8
2
  6
CONTINUOUS
370
25
 62
7
100
AcDbLine
 10
6.589999999999999
 20
-28.556
 30
0.0
 11
1.589999999999999
 21
-27.556
 31
0.0
  0
LINE
  5
CD9
330
1F
100
AcDbEntity
  8
2
  6
CONTINUOUS
370
25
 62
7
100
AcDbLine
 10
6.275317068959046
 20
-28.49306341379181
 30
0.0
 11
6.589999999999999
 21
-28.17838048275085
 31
0.0
  0
LINE
  5
CDA
330
1F
100
AcDbEntity
  8
2
  6
CONTINUOUS
370
25
 62
7
100
AcDbLine
 10
5.921763678365768
 20
-28.42235273567315
 30
0.0
 11
6.589999999999999
 21
-27.75411641403892
 31
0.0
  0
LINE
  5
CDB
330
1F
100
AcDbEntity
  8
2
  6
CONTINUOUS
370
25
 62
7
100
AcDbLine
 10
5.568210287772497
 20
-28.3516420575545
 30
0.0
 11
6.589999999999999
 21
-27.329852345327
 31
0.0
  0
LINE
  5
CDC
330
1F
100
AcDbEntity
  8
2
  6
CONTINUOUS
370
25
 62
7
100
AcDbLine
 10
5.214656897179219
 20
-28.28093137943584
 30
0.0
 11
6.589999999999999
 21
-26.90558827661506
 31
0.0
  0
LINE
  5
CDD
330
1F
100
AcDbEntity
  8
2
  6
CONTINUOUS
370
25
 62
7
100
AcDbLine
 10
4.861103506585946
 20
-28.21022070131719
 30
0.0
 11
6.496655259878926
 21
-26.57466894802421
 31
0.0
  0
LINE
  5
CDE
330
1F
100
AcDbEntity
  8
2
  6
CONTINUOUS
370
25
 62
7
100
AcDbLine
 10
4.507550115992668
 20
-28.13951002319853
 30
0.0
 11
5.966325173989008
 21
-26.6807349652022
 31
0.0
  0
LINE
  5
CDF
330
1F
100
AcDbEntity
  8
2
  6
CONTINUOUS
370
25
 62
7
100
AcDbLine
 10
4.153996725399396
 20
-28.06879934507987
 30
0.0
 11
5.4359950880991
 21
-26.78680098238018
 31
0.0
  0
LINE
  5
CE0
330
1F
100
AcDbEntity
  8
2
  6
CONTINUOUS
370
25
 62
7
100
AcDbLine
 10
3.800443334806119
 20
-27.99808866696122
 30
0.0
 11
4.905665002209185
 21
-26.89286699955816
 31
0.0
  0
LINE
  5
CE1
330
1F
100
AcDbEntity
  8
2
  6
CONTINUOUS
370
25
 62
7
100
AcDbLine
 10
3.446889944212843
 20
-27.92737798884257
 30
0.0
 11
4.375334916319271
 21
-26.99893301673614
 31
0.0
  0
LINE
  5
CE2
330
1F
100
AcDbEntity
  8
2
  6
CONTINUOUS
370
25
 62
7
100
AcDbLine
 10
3.093336553619572
 20
-27.85666731072391
 30
0.0
 11
3.845004830429363
 21
-27.10499903391413
 31
0.0
  0
LINE
  5
CE3
330
1F
100
AcDbEntity
  8
2
  6
CONTINUOUS
370
25
 62
7
100
AcDbLine
 10
2.739783163026297
 20
-27.78595663260526
 30
0.0
 11
3.31467474453945
 21
-27.21106505109211
 31
0.0
  0
LINE
  5
CE4
330
1F
100
AcDbEntity
  8
2
  6
CONTINUOUS
370
25
 62
7
100
AcDbLine
 10
2.386229772433023
 20
-27.7152459544866
 30
0.0
 11
2.784344658649536
 21
-27.31713106827009
 31
0.0
  0
LINE
  5
CE5
330
1F
100
AcDbEntity
  8
2
  6
CONTINUOUS
370
25
 62
7
100
AcDbLine
 10
2.032676381839748
 20
-27.64453527636795
 30
0.0
 11
2.254014572759623
 21
-27.42319708544807
 31
0.0
  0
LINE
  5
CE6
330
1F
100
AcDbEntity
  8
2
  6
CONTINUOUS
370
25
 62
7
100
AcDbLine
 10
1.679122991246473
 20
-27.57382459824929
 30
0.0
 11
1.72368448686971
 21
-27.52926310262605
 31
0.0
  0
LINE
  5
CE7
330
1F
100
AcDbEntity
  8
2
  6
CONTINUOUS
370
25
 62
7
100
AcDbLine
 10
1.894275290955288
 20
-27.49514494180894
 30
0.0
 11
2.046412936432931
 21
-27.64728258728658
 31
0.0
  0
LINE
  5
CE8
330
1F
100
AcDbEntity
  8
2
  6
CONTINUOUS
370
25
 62
7
100
AcDbLine
 10
2.247828681548562
 20
-27.42443426369029
 30
0.0
 11
2.576743022322844
 21
-27.75334860446457
 31
0.0
  0
LINE
  5
CE9
330
1F
100
AcDbEntity
  8
2
  6
CONTINUOUS
370
25
 62
7
100
AcDbLine
 10
2.601382072141837
 20
-27.35372358557163
 30
0.0
 11
3.107073108212758
 21
-27.85941462164255
 31
0.0
  0
LINE
  5
CEA
330
1F
100
AcDbEntity
  8
2
  6
CONTINUOUS
370
25
 62
7
100
AcDbLine
 10
2.954935462735112
 20
-27.28301290745297
 30
0.0
 11
3.637403194102671
 21
-27.96548063882053
 31
0.0
  0
LINE
  5
CEB
330
1F
100
AcDbEntity
  8
2
  6
CONTINUOUS
370
25
 62
7
100
AcDbLine
 10
3.308488853328388
 20
-27.21230222933432
 30
0.0
 11
4.167733279992586
 21
-28.07154665599851
 31
0.0
  0
LINE
  5
CEC
330
1F
100
AcDbEntity
  8
2
  6
CONTINUOUS
370
25
 62
7
100
AcDbLine
 10
3.66204224392166
 20
-27.14159155121567
 30
0.0
 11
4.698063365882497
 21
-28.1776126731765
 31
0.0
  0
LINE
  5
CED
330
1F
100
AcDbEntity
  8
2
  6
CONTINUOUS
370
25
 62
7
100
AcDbLine
 10
4.015595634514934
 20
-27.07088087309701
 30
0.0
 11
5.228393451772408
 21
-28.28367869035448
 31
0.0
  0
LINE
  5
CEE
330
1F
100
AcDbEntity
  8
2
  6
CONTINUOUS
370
25
 62
7
100
AcDbLine
 10
4.369149025108208
 20
-27.00017019497836
 30
0.0
 11
5.758723537662321
 21
-28.38974470753246
 31
0.0
  0
LINE
  5
CEF
330
1F
100
AcDbEntity
  8
2
  6
CONTINUOUS
370
25
 62
7
100
AcDbLine
 10
4.722702415701483
 20
-26.9294595168597
 30
0.0
 11
6.289053623552234
 21
-28.49581072471045
 31
0.0
  0
LINE
  5
CF0
330
1F
100
AcDbEntity
  8
2
  6
CONTINUOUS
370
25
 62
7
100
AcDbLine
 10
5.076255806294757
 20
-26.85874883874105
 30
0.0
 11
6.589999999999999
 21
-28.37249303244628
 31
0.0
  0
LINE
  5
CF1
330
1F
100
AcDbEntity
  8
2
  6
CONTINUOUS
370
25
 62
7
100
AcDbLine
 10
5.429809196888029
 20
-26.78803816062239
 30
0.0
 11
6.589999999999999
 21
-27.94822896373436
 31
0.0
  0
LINE
  5
CF2
330
1F
100
AcDbEntity
  8
2
  6
CONTINUOUS
370
25
 62
7
100
AcDbLine
 10
5.783362587481303
 20
-26.71732748250374
 30
0.0
 11
6.589999999999999
 21
-27.52396489502243
 31
0.0
  0
LINE
  5
CF3
330
1F
100
AcDbEntity
  8
2
  6
CONTINUOUS
370
25
 62
7
100
AcDbLine
 10
6.136915978074578
 20
-26.64661680438508
 30
0.0
 11
6.589999999999999
 21
-27.0997008263105
 31
0.0
  0
LINE
  5
CF4
330
1F
100
AcDbEntity
  8
2
  6
CONTINUOUS
370
25
 62
7
100
AcDbLine
 10
6.490469368667852
 20
-26.57590612626643
 30
0.0
 11
6.589999999999999
 21
-26.67543675759858
 31
0.0
  0
LINE
  5
CF5
330
1F
100
AcDbEntity
  8
2
  6
CONTINUOUS
370
25
 62
7
100
AcDbLine
 10
48.49
 20
-27.556
 30
0.0
 11
43.49
 21
-28.556
 31
0.0
  0
LINE
  5
CF6
330
1F
100
AcDbEntity
  8
2
  6
CONTINUOUS
370
25
 62
7
100
AcDbLine
 10
43.49
 20
-28.556
 30
0.0
 11
43.49
 21
-26.556
 31
0.0
  0
LINE
  5
CF7
330
1F
100
AcDbEntity
  8
2
  6
CONTINUOUS
370
25
 62
7
100
AcDbLine
 10
43.49
 20
-26.556
 30
0.0
 11
48.49
 21
-27.556
 31
0.0
  0
LINE
  5
CF8
330
1F
100
AcDbEntity
  8
2
  6
CONTINUOUS
370
25
 62
7
100
AcDbLine
 10
48.07963692855752
 20
-27.6380726142885
 30
0.0
 11
48.21642461903836
 21
-27.50128492380766
 31
0.0
  0
LINE
  5
CF9
330
1F
100
AcDbEntity
  8
2
  6
CONTINUOUS
370
25
 62
7
100
AcDbLine
 10
47.5493068426676
 20
-27.74413863146648
 30
0.0
 11
47.86287122844508
 21
-27.43057424568901
 31
0.0
  0
LINE
  5
CFA
330
1F
100
AcDbEntity
  8
2
  6
CONTINUOUS
370
25
 62
7
100
AcDbLine
 10
47.0189767567777
 20
-27.85020464864446
 30
0.0
 11
47.5093178378518
 21
-27.35986356757036
 31
0.0
  0
LINE
  5
CFB
330
1F
100
AcDbEntity
  8
2
  6
CONTINUOUS
370
25
 62
7
100
AcDbLine
 10
46.48864667088776
 20
-27.95627066582244
 30
0.0
 11
47.15576444725851
 21
-27.2891528894517
 31
0.0
  0
LINE
  5
CFC
330
1F
100
AcDbEntity
  8
2
  6
CONTINUOUS
370
25
 62
7
100
AcDbLine
 10
45.95831658499784
 20
-28.06233668300043
 30
0.0
 11
46.80221105666524
 21
-27.21844221133304
 31
0.0
  0
LINE
  5
CFD
330
1F
100
AcDbEntity
  8
2
  6
CONTINUOUS
370
25
 62
7
100
AcDbLine
 10
45.42798649910792
 20
-28.16840270017842
 30
0.0
 11
46.44865766607196
 21
-27.14773153321438
 31
0.0
  0
LINE
  5
CFE
330
1F
100
AcDbEntity
  8
2
  6
CONTINUOUS
370
25
 62
7
100
AcDbLine
 10
44.89765641321802
 20
-28.2744687173564
 30
0.0
 11
46.09510427547869
 21
-27.07702085509573
 31
0.0
  0
LINE
  5
CFF
330
1F
100
AcDbEntity
  8
2
  6
CONTINUOUS
370
25
 62
7
100
AcDbLine
 10
44.3673263273281
 20
-28.38053473453438
 30
0.0
 11
45.74155088488541
 21
-27.00631017697707
 31
0.0
  0
LINE
  5
D00
330
1F
100
AcDbEntity
  8
2
  6
CONTINUOUS
370
25
 62
7
100
AcDbLine
 10
43.83699624143818
 20
-28.48660075171237
 30
0.0
 11
45.38799749429213
 21
-26.93559949885842
 31
0.0
  0
LINE
  5
D01
330
1F
100
AcDbEntity
  8
2
  6
CONTINUOUS
370
25
 62
7
100
AcDbLine
 10
43.49
 20
-28.40933292443862
 30
0.0
 11
45.03444410369887
 21
-26.86488882073976
 31
0.0
  0
LINE
  5
D02
330
1F
100
AcDbEntity
  8
2
  6
CONTINUOUS
370
25
 62
7
100
AcDbLine
 10
43.49
 20
-27.98506885572669
 30
0.0
 11
44.68089071310558
 21
-26.79417814262111
 31
0.0
  0
LINE
  5
D03
330
1F
100
AcDbEntity
  8
2
  6
CONTINUOUS
370
25
 62
7
100
AcDbLine
 10
43.49
 20
-27.56080478701475
 30
0.0
 11
44.3273373225123
 21
-26.72346746450246
 31
0.0
  0
LINE
  5
D04
330
1F
100
AcDbEntity
  8
2
  6
CONTINUOUS
370
25
 62
7
100
AcDbLine
 10
43.49
 20
-27.13654071830283
 30
0.0
 11
43.97378393191904
 21
-26.6527567863838
 31
0.0
  0
LINE
  5
D05
330
1F
100
AcDbEntity
  8
2
  6
CONTINUOUS
370
25
 62
7
100
AcDbLine
 10
43.49
 20
-26.7122766495909
 30
0.0
 11
43.62023054132575
 21
-26.58204610826515
 31
0.0
  0
LINE
  5
D06
330
1F
100
AcDbEntity
  8
2
  6
CONTINUOUS
370
25
 62
7
100
AcDbLine
 10
43.49
 20
-28.22649352637056
 30
0.0
 11
43.76458872802454
 21
-28.5010822543951
 31
0.0
  0
LINE
  5
D07
330
1F
100
AcDbEntity
  8
2
  6
CONTINUOUS
370
25
 62
7
100
AcDbLine
 10
43.49
 20
-27.80222945765863
 30
0.0
 11
44.11814211861782
 21
-28.43037157627644
 31
0.0
  0
LINE
  5
D08
330
1F
100
AcDbEntity
  8
2
  6
CONTINUOUS
370
25
 62
7
100
AcDbLine
 10
43.49
 20
-27.37796538894669
 30
0.0
 11
44.4716955092111
 21
-28.35966089815778
 31
0.0
  0
LINE
  5
D09
330
1F
100
AcDbEntity
  8
2
  6
CONTINUOUS
370
25
 62
7
100
AcDbLine
 10
43.49
 20
-26.95370132023476
 30
0.0
 11
44.82524889980437
 21
-28.28895022003912
 31
0.0
  0
LINE
  5
D0A
330
1F
100
AcDbEntity
  8
2
  6
CONTINUOUS
370
25
 62
7
100
AcDbLine
 10
43.52320343559646
 20
-26.56264068711929
 30
0.0
 11
45.17880229039766
 21
-28.21823954192047
 31
0.0
  0
LINE
  5
D0B
330
1F
100
AcDbEntity
  8
2
  6
CONTINUOUS
370
25
 62
7
100
AcDbLine
 10
44.05353352148637
 20
-26.66870670429726
 30
0.0
 11
45.53235568099093
 21
-28.14752886380182
 31
0.0
  0
LINE
  5
D0C
330
1F
100
AcDbEntity
  8
2
  6
CONTINUOUS
370
25
 62
7
100
AcDbLine
 10
44.5838636073763
 20
-26.77477272147526
 30
0.0
 11
45.88590907158421
 21
-28.07681818568316
 31
0.0
  0
LINE
  5
D0D
330
1F
100
AcDbEntity
  8
2
  6
CONTINUOUS
370
25
 62
7
100
AcDbLine
 10
45.11419369326622
 20
-26.88083873865324
 30
0.0
 11
46.23946246217748
 21
-28.0061075075645
 31
0.0
  0
LINE
  5
D0E
330
1F
100
AcDbEntity
  8
2
  6
CONTINUOUS
370
25
 62
7
100
AcDbLine
 10
45.64452377915613
 20
-26.98690475583122
 30
0.0
 11
46.59301585277077
 21
-27.93539682944585
 31
0.0
  0
LINE
  5
D0F
330
1F
100
AcDbEntity
  8
2
  6
CONTINUOUS
370
25
 62
7
100
AcDbLine
 10
46.17485386504605
 20
-27.0929707730092
 30
0.0
 11
46.94656924336405
 21
-27.8646861513272
 31
0.0
  0
LINE
  5
D10
330
1F
100
AcDbEntity
  8
2
  6
CONTINUOUS
370
25
 62
7
100
AcDbLine
 10
46.70518395093596
 20
-27.19903679018718
 30
0.0
 11
47.30012263395732
 21
-27.79397547320854
 31
0.0
  0
LINE
  5
D11
330
1F
100
AcDbEntity
  8
2
  6
CONTINUOUS
370
25
 62
7
100
AcDbLine
 10
47.23551403682588
 20
-27.30510280736517
 30
0.0
 11
47.6536760245506
 21
-27.72326479508988
 31
0.0
  0
LINE
  5
D12
330
1F
100
AcDbEntity
  8
2
  6
CONTINUOUS
370
25
 62
7
100
AcDbLine
 10
47.76584412271581
 20
-27.41116882454316
 30
0.0
 11
48.00722941514388
 21
-27.65255411697123
 31
0.0
  0
LINE
  5
D13
330
1F
100
AcDbEntity
  8
2
  6
CONTINUOUS
370
25
 62
7
100
AcDbLine
 10
48.29617420860571
 20
-27.51723484172113
 30
0.0
 11
48.36078280573714
 21
-27.58184343885257
 31
0.0
  0
TEXT
  5
D14
330
1F
100
AcDbEntity
  8
2
  6
CONTINUOUS
370
25
 62
7
100
AcDbText
 10
19.79
 20
-26.056
 30
0.0
 40
3.5
  1
46.9
 72
     1
 11
25.04
 21
-26.056
 31
0.0
100
AcDbText
  0
LINE
  5
D15
330
1F
100
AcDbEntity
  8
2
  6
CONTINUOUS
370
25
 62
7
100
AcDbLine
 10
46.87978995
 20
-3.91150581
 30
0.0
 11
71.31823414226561
 21
-28.34995000226558
 31
0.0
  0
LINE
  5
D16
330
1F
100
AcDbEntity
  8
2
  6
CONTINUOUS
370
25
 62
7
100
AcDbLine
 10
71.31823414226561
 20
-28.34995000226558
 30
0.0
 11
90.69323414226561
 21
-28.34995000226558
 31
0.0
  0
LINE
  5
D17
330
1F
100
AcDbEntity
  8
2
  6
CONTINUOUS
370
25
 62
7
100
AcDbLine
 10
46.87978995
 20
-3.91150581
 30
0.0
 11
42.95110467372754
 21
0.0171794662724585
 31
0.0
  0
LINE
  5
D18
330
1F
100
AcDbEntity
  8
2
  6
CONTINUOUS
370
25
 62
7
100
AcDbLine
 10
46.87978995
 20
-3.91150581
 30
0.0
 11
51.12243063711929
 21
-6.739932934746188
 31
0.0
  0
LINE
  5
D19
330
1F
100
AcDbEntity
  8
2
  6
CONTINUOUS
370
25
 62
7
100
AcDbLine
 10
51.12243063711929
 20
-6.739932934746188
 30
0.0
 11
49.70821707474619
 21
-8.154146497119283
 31
0.0
  0
LINE
  5
D1A
330
1F
100
AcDbEntity
  8
2
  6
CONTINUOUS
370
25
 62
7
100
AcDbLine
 10
49.70821707474619
 20
-8.154146497119283
 30
0.0
 11
46.87978995
 21
-3.91150581
 31
0.0
  0
LINE
  5
D1B
330
1F
100
AcDbEntity
  8
2
  6
CONTINUOUS
370
25
 62
7
100
AcDbLine
 10
49.55092475558379
 20
-7.91820801837568
 30
0.0
 11
50.88649215837568
 21
-6.582640615583784
 31
0.0
  0
LINE
  5
D1C
330
1F
100
AcDbEntity
  8
2
  6
CONTINUOUS
370
25
 62
7
100
AcDbLine
 10
49.38121912809902
 20
-7.663649577148512
 30
0.0
 11
50.63193371714852
 21
-6.412934988099011
 31
0.0
  0
LINE
  5
D1D
330
1F
100
AcDbEntity
  8
2
  6
CONTINUOUS
370
25
 62
7
100
AcDbLine
 10
49.21151350061425
 20
-7.409091135921358
 30
0.0
 11
50.37737527592136
 21
-6.243229360614244
 31
0.0
  0
LINE
  5
D1E
330
1F
100
AcDbEntity
  8
2
  6
CONTINUOUS
370
25
 62
7
100
AcDbLine
 10
49.04180787312947
 20
-7.154532694694197
 30
0.0
 11
50.1228168346942
 21
-6.07352373312947
 31
0.0
  0
LINE
  5
D1F
330
1F
100
AcDbEntity
  8
2
  6
CONTINUOUS
370
25
 62
7
100
AcDbLine
 10
48.8721022456447
 20
-6.899974253467036
 30
0.0
 11
49.86825839346704
 21
-5.903818105644696
 31
0.0
  0
LINE
  5
D20
330
1F
100
AcDbEntity
  8
2
  6
CONTINUOUS
370
25
 62
7
100
AcDbLine
 10
48.70239661815993
 20
-6.645415812239868
 30
0.0
 11
49.61369995223988
 21
-5.734112478159922
 31
0.0
  0
LINE
  5
D21
330
1F
100
AcDbEntity
  8
2
  6
CONTINUOUS
370
25
 62
7
100
AcDbLine
 10
48.53269099067516
 20
-6.390857371012714
 30
0.0
 11
49.35914151101273
 21
-5.564406850675141
 31
0.0
  0
LINE
  5
D22
330
1F
100
AcDbEntity
  8
2
  6
CONTINUOUS
370
25
 62
7
100
AcDbLine
 10
48.36298536319038
 20
-6.136298929785553
 30
0.0
 11
49.10458306978557
 21
-5.394701223190367
 31
0.0
  0
LINE
  5
D23
330
1F
100
AcDbEntity
  8
2
  6
CONTINUOUS
370
25
 62
7
100
AcDbLine
 10
48.19327973570561
 20
-5.8817404885584
 30
0.0
 11
48.85002462855841
 21
-5.2249955957056
 31
0.0
  0
LINE
  5
D24
330
1F
100
AcDbEntity
  8
2
  6
CONTINUOUS
370
25
 62
7
100
AcDbLine
 10
48.02357410822083
 20
-5.627182047331239
 30
0.0
 11
48.59546618733125
 21
-5.055289968220826
 31
0.0
  0
LINE
  5
D25
330
1F
100
AcDbEntity
  8
2
  6
CONTINUOUS
370
25
 62
7
100
AcDbLine
 10
47.85386848073606
 20
-5.372623606104085
 30
0.0
 11
48.34090774610409
 21
-4.88558434073606
 31
0.0
  0
LINE
  5
D26
330
1F
100
AcDbEntity
  8
2
  6
CONTINUOUS
370
25
 62
7
100
AcDbLine
 10
47.68416285325129
 20
-5.118065164876924
 30
0.0
 11
48.08634930487693
 21
-4.715878713251286
 31
0.0
  0
LINE
  5
D27
330
1F
100
AcDbEntity
  8
2
  6
CONTINUOUS
370
25
 62
7
100
AcDbLine
 10
47.51445722576651
 20
-4.86350672364977
 30
0.0
 11
47.83179086364977
 21
-4.546173085766512
 31
0.0
  0
LINE
  5
D28
330
1F
100
AcDbEntity
  8
2
  6
CONTINUOUS
370
25
 62
7
100
AcDbLine
 10
47.34475159828175
 20
-4.608948282422602
 30
0.0
 11
47.57723242242261
 21
-4.376467458281738
 31
0.0
  0
LINE
  5
D29
330
1F
100
AcDbEntity
  8
2
  6
CONTINUOUS
370
25
 62
7
100
AcDbLine
 10
47.17504597079697
 20
-4.354389841195463
 30
0.0
 11
47.32267398119545
 21
-4.206761830796978
 31
0.0
  0
LINE
  5
D2A
330
1F
100
AcDbEntity
  8
2
  6
CONTINUOUS
370
25
 62
7
100
AcDbLine
 10
47.00534034331219
 20
-4.099831399968302
 30
0.0
 11
47.06811553996829
 21
-4.037056203312204
 31
0.0
  0
LINE
  5
D2B
330
1F
100
AcDbEntity
  8
2
  6
CONTINUOUS
370
25
 62
7
100
AcDbLine
 10
49.68060076246197
 20
-8.11272202869295
 30
0.0
 11
49.71512115281725
 21
-8.147242419048233
 31
0.0
  0
LINE
  5
D2C
330
1F
100
AcDbEntity
  8
2
  6
CONTINUOUS
370
25
 62
7
100
AcDbLine
 10
48.8320726250381
 20
-6.839929822557146
 30
0.0
 11
49.92725318717322
 21
-7.935110384692265
 31
0.0
  0
LINE
  5
D2D
330
1F
100
AcDbEntity
  8
2
  6
CONTINUOUS
370
25
 62
7
100
AcDbLine
 10
47.98354448761425
 20
-5.567137616421377
 30
0.0
 11
50.13938522152917
 21
-7.722978350336291
 31
0.0
  0
LINE
  5
D2E
330
1F
100
AcDbEntity
  8
2
  6
CONTINUOUS
370
25
 62
7
100
AcDbLine
 10
47.13501635019038
 20
-4.294345410285572
 30
0.0
 11
50.35151725588514
 21
-7.510846315980324
 31
0.0
  0
LINE
  5
D2F
330
1F
100
AcDbEntity
  8
2
  6
CONTINUOUS
370
25
 62
7
100
AcDbLine
 10
47.76974255585022
 20
-4.504807547233483
 30
0.0
 11
50.5636492902411
 21
-7.298714281624356
 31
0.0
  0
LINE
  5
D30
330
1F
100
AcDbEntity
  8
2
  6
CONTINUOUS
370
25
 62
7
100
AcDbLine
 10
49.04253476198604
 20
-5.35333568465736
 30
0.0
 11
50.77578132459708
 21
-7.086582247268396
 31
0.0
  0
LINE
  5
D31
330
1F
100
AcDbEntity
  8
2
  6
CONTINUOUS
370
25
 62
7
100
AcDbLine
 10
50.31532696812182
 20
-6.201863822081215
 30
0.0
 11
50.98791335895304
 21
-6.874450212912436
 31
0.0
  0
TEXT
  5
D32
330
1F
100
AcDbEntity
  8
2
  6
CONTINUOUS
370
25
 62
7
100
AcDbText
 10
72.25573414226561
 20
-26.84995000226558
 30
0.0
 40
3.5
  1
R5.556
 72
     1
 11
81.00573414226561
 21
-26.84995000226558
 31
0.0
100
AcDbText
  0
LINE
  5
D33
330
1F
100
AcDbEntity
  8
SK1
  6
CONTINUOUS
370
50
 62
4
100
AcDbLine
 10
-0.01
 20
0.0
 30
0.0
 11
2.49
 21
0.0
 31
0.0
  0
LINE
  5
D34
330
1F
100
AcDbEntity
  8
SK1
  6
CONTINUOUS
370
50
 62
4
100
AcDbLine
 10
-0.01
 20
0.0
 30
0.0
 11
-0.01
 21
2.5
 31
0.0
  0
ARC
  5
D35
330
1F
100
AcDbEntity
  8
SK1
  6
CONTINUOUS
370
50
 62
4
100
AcDbCircle
 10
-0.01
 20
0.0
 30
0.0
 40
2.5
100
AcDbArc
 50
0.0
 51
90.0
  0
LINE
  5
D36
330
1F
100
AcDbEntity
  8
SK1
  6
CONTINUOUS
370
50
 62
4
100
AcDbLine
 10
-0.01
 20
0.0
 30
0.0
 11
-2.51
 21
0.0
 31
0.0
  0
ARC
  5
D37
330
1F
100
AcDbEntity
  8
SK1
  6
CONTINUOUS
370
50
 62
4
100
AcDbCircle
 10
-0.01
 20
0.0
 30
0.0
 40
2.5
100
AcDbArc
 50
180.0
 51
270.0
  0
LINE
  5
D38
330
1F
100
AcDbEntity
  8
SK1
  6
CONTINUOUS
370
50
 62
4
100
AcDbLine
 10
-0.01
 20
-2.5
 30
0.0
 11
-0.01
 21
0.0
 31
0.0
  0
ARC
  5
D39
330
1F
100
AcDbEntity
  8
SK1
  6
CONTINUOUS
370
50
 62
4
100
AcDbCircle
 10
-0.01
 20
0.0
 30
0.0
 40
2.5
100
AcDbArc
 50
270.0
 51
0.0
  0
ARC
  5
D3A
330
1F
100
AcDbEntity
  8
SK1
  6
CONTINUOUS
370
50
 62
4
100
AcDbCircle
 10
-0.01
 20
0.0
 30
0.0
 40
2.5
100
AcDbArc
 50
90.0
 51
180.0
  0
LINE
  5
D3B
330
1F
100
AcDbEntity
  8
SK1
  6
CONTINUOUS
370
50
 62
4
100
AcDbLine
 10
-0.32832627443191
 20
-2.479495909600069
 30
0.0
 11
-0.01
 21
-2.161169635168159
 31
0.0
  0
LINE
  5
D3C
330
1F
100
AcDbEntity
  8
SK1
  6
CONTINUOUS
370
50
 62
4
100
AcDbLine
 10
2.15116963516816
 20
0.0
 30
0.0
 11
2.469495909600069
 21
0.3183262744319091
 31
0.0
  0
LINE
  5
D3D
330
1F
100
AcDbEntity
  8
SK1
  6
CONTINUOUS
370
50
 62
4
100
AcDbLine
 10
-0.625281817185723
 20
-2.422898061760609
 30
0.0
 11
-0.01
 21
-1.807616244574886
 31
0.0
  0
LINE
  5
D3E
330
1F
100
AcDbEntity
  8
SK1
  6
CONTINUOUS
370
50
 62
4
100
AcDbLine
 10
1.797616244574887
 20
0.0
 30
0.0
 11
2.412898061760609
 21
0.6152818171857222
 31
0.0
  0
LINE
  5
D3F
330
1F
100
AcDbEntity
  8
SK1
  6
CONTINUOUS
370
50
 62
4
100
AcDbLine
 10
-0.8935965231639721
 20
-2.337659377145585
 30
0.0
 11
-0.01
 21
-1.454062853981614
 31
0.0
  0
LINE
  5
D40
330
1F
100
AcDbEntity
  8
SK1
  6
CONTINUOUS
370
50
 62
4
100
AcDbLine
 10
1.444062853981614
 20
0.0
 30
0.0
 11
2.327659377145586
 21
0.8835965231639715
 31
0.0
  0
LINE
  5
D41
330
1F
100
AcDbEntity
  8
SK1
  6
CONTINUOUS
370
50
 62
4
100
AcDbLine
 10
-1.138779664263143
 20
-2.229289127651483
 30
0.0
 11
-0.01
 21
-1.100509463388341
 31
0.0
  0
LINE
  5
D42
330
1F
100
AcDbEntity
  8
SK1
  6
CONTINUOUS
370
50
 62
4
100
AcDbLine
 10
1.090509463388341
 20
0.0
 30
0.0
 11
2.219289127651484
 21
1.128779664263142
 31
0.0
  0
LINE
  5
D43
330
1F
100
AcDbEntity
  8
SK1
  6
CONTINUOUS
370
50
 62
4
100
AcDbLine
 10
-1.364032791010379
 20
-2.100988863805446
 30
0.0
 11
-0.01
 21
-0.7469560727950677
 31
0.0
  0
LINE
  5
D44
330
1F
100
AcDbEntity
  8
SK1
  6
CONTINUOUS
370
50
 62
4
100
AcDbLine
 10
0.736956072795068
 20
0.0
 30
0.0
 11
2.090988863805447
 21
1.354032791010378
 31
0.0
  0
LINE
  5
D45
330
1F
100
AcDbEntity
  8
SK1
  6
CONTINUOUS
370
50
 62
4
100
AcDbLine
 10
-1.569387394659872
 20
-1.952790076861666
 30
0.0
 11
-0.01
 21
-0.3934026822017946
 31
0.0
  0
LINE
  5
D46
330
1F
100
AcDbEntity
  8
SK1
  6
CONTINUOUS
370
50
 62
4
100
AcDbLine
 10
0.3834026822017948
 20
0.0
 30
0.0
 11
1.942790076861667
 21
1.559387394659871
 31
0.0
  0
LINE
  5
D47
330
1F
100
AcDbEntity
  8
SK1
  6
CONTINUOUS
370
50
 62
4
100
AcDbLine
 10
-1.756970020883365
 20
-1.786819312491886
 30
0.0
 11
-0.01
 21
-0.0398492916085216
 31
0.0
  0
LINE
  5
D48
330
1F
100
AcDbEntity
  8
SK1
  6
CONTINUOUS
370
50
 62
4
100
AcDbLine
 10
0.0298492916085216
 20
0.0
 30
0.0
 11
1.776819312491887
 21
1.746970020883364
 31
0.0
  0
LINE
  5
D49
330
1F
100
AcDbEntity
  8
SK1
  6
CONTINUOUS
370
50
 62
4
100
AcDbLine
 10
-1.927371878232655
 20
-1.603667779247902
 30
0.0
 11
-0.3237040989847517
 21
0.0
 31
0.0
  0
LINE
  5
D4A
330
1F
100
AcDbEntity
  8
SK1
  6
CONTINUOUS
370
50
 62
4
100
AcDbLine
 10
-0.01
 20
0.3137040989847515
 30
0.0
 11
1.593667779247903
 21
1.917371878232654
 31
0.0
  0
LINE
  5
D4B
330
1F
100
AcDbEntity
  8
SK1
  6
CONTINUOUS
370
50
 62
4
100
AcDbLine
 10
-2.078741231122433
 20
-1.401483741544407
 30
0.0
 11
-0.6772574895780249
 21
0.0
 31
0.0
  0
LINE
  5
D4C
330
1F
100
AcDbEntity
  8
SK1
  6
CONTINUOUS
370
50
 62
4
100
AcDbLine
 10
-0.01
 20
0.6672574895780246
 30
0.0
 11
1.391483741544409
 21
2.068741231122432
 31
0.0
  0
LINE
  5
D4D
330
1F
100
AcDbEntity
  8
SK1
  6
CONTINUOUS
370
50
 62
4
100
AcDbLine
 10
-2.2123876557675
 20
-1.181576775596201
 30
0.0
 11
-1.030810880171298
 21
0.0
 31
0.0
  0
LINE
  5
D4E
330
1F
100
AcDbEntity
  8
SK1
  6
CONTINUOUS
370
50
 62
4
100
AcDbLine
 10
-0.01
 20
1.020810880171298
 30
0.0
 11
1.171576775596202
 21
2.202387655767499
 31
0.0
  0
LINE
  5
D4F
330
1F
100
AcDbEntity
  8
SK1
  6
CONTINUOUS
370
50
 62
4
100
AcDbLine
 10
-2.325450943493525
 20
-0.9410866727289533
 30
0.0
 11
-1.384364270764571
 21
0.0
 31
0.0
  0
LINE
  5
D50
330
1F
100
AcDbEntity
  8
SK1
  6
CONTINUOUS
370
50
 62
4
100
AcDbLine
 10
-0.01
 20
1.374364270764571
 30
0.0
 11
0.9310866727289543
 21
2.315450943493524
 31
0.0
  0
LINE
  5
D51
330
1F
100
AcDbEntity
  8
SK1
  6
CONTINUOUS
370
50
 62
4
100
AcDbLine
 10
-2.415290600131854
 20
-0.6773729387740097
 30
0.0
 11
-1.737917661357844
 21
0.0
 31
0.0
  0
LINE
  5
D52
330
1F
100
AcDbEntity
  8
SK1
  6
CONTINUOUS
370
50
 62
4
100
AcDbLine
 10
-0.01
 20
1.727917661357844
 30
0.0
 11
0.6673729387740106
 21
2.405290600131854
 31
0.0
  0
LINE
  5
D53
330
1F
100
AcDbEntity
  8
SK1
  6
CONTINUOUS
370
50
 62
4
100
AcDbLine
 10
-2.478598823056026
 20
-0.3871277711049084
 30
0.0
 11
-2.091471051951117
 21
0.0
 31
0.0
  0
LINE
  5
D54
330
1F
100
AcDbEntity
  8
SK1
  6
CONTINUOUS
370
50
 62
4
100
AcDbLine
 10
-0.01
 20
2.081471051951117
 30
0.0
 11
0.3771277711049085
 21
2.468598823056025
 31
0.0
  0
LINE
  5
D55
330
1F
100
AcDbEntity
  8
SK1
  6
CONTINUOUS
370
50
 62
4
100
AcDbLine
 10
-2.508020276172772
 20
-0.0629958336283822
 30
0.0
 11
-2.44502444254439
 21
0.0
 31
0.0
  0
LINE
  5
D56
330
1F
100
AcDbEntity
  8
SK1
  6
CONTINUOUS
370
50
 62
4
100
AcDbLine
 10
-0.01
 20
2.435024442544389
 30
0.0
 11
0.0529958336283828
 21
2.498020276172772
 31
0.0
  0
LINE
  5
D57
330
1F
100
AcDbEntity
  8
SK1
  6
CONTINUOUS
370
50
 62
4
100
AcDbLine
 10
-2.347336523620827
 20
-0.8844932833271533
 30
0.0
 11
-0.894493283327151
 21
-2.337336523620827
 31
0.0
  0
LINE
  5
D58
330
1F
100
AcDbEntity
  8
SK1
  6
CONTINUOUS
370
50
 62
4
100
AcDbLine
 10
-2.476237059966593
 20
-0.4020393563881135
 30
0.0
 11
-0.4120393563881111
 21
-2.466237059966594
 31
0.0
  0
LINE
  5
D59
330
1F
100
AcDbEntity
  8
SK1
  6
CONTINUOUS
370
50
 62
4
100
AcDbLine
 10
-2.509522297881595
 20
-0.0152007278798383
 30
0.0
 11
-0.0252007278798351
 21
-2.499522297881596
 31
0.0
  0
LINE
  5
D5A
330
1F
100
AcDbEntity
  8
SK1
  6
CONTINUOUS
370
50
 62
4
100
AcDbLine
 10
-2.17116963516816
 20
0.0
 30
0.0
 11
-0.01
 21
-2.161169635168158
 31
0.0
  0
LINE
  5
D5B
330
1F
100
AcDbEntity
  8
SK1
  6
CONTINUOUS
370
50
 62
4
100
AcDbLine
 10
-1.817616244574888
 20
0.0
 30
0.0
 11
-0.01
 21
-1.807616244574886
 31
0.0
  0
LINE
  5
D5C
330
1F
100
AcDbEntity
  8
SK1
  6
CONTINUOUS
370
50
 62
4
100
AcDbLine
 10
-1.464062853981615
 20
0.0
 30
0.0
 11
-0.01
 21
-1.454062853981613
 31
0.0
  0
LINE
  5
D5D
330
1F
100
AcDbEntity
  8
SK1
  6
CONTINUOUS
370
50
 62
4
100
AcDbLine
 10
-1.110509463388341
 20
0.0
 30
0.0
 11
-0.01
 21
-1.10050946338834
 31
0.0
  0
LINE
  5
D5E
330
1F
100
AcDbEntity
  8
SK1
  6
CONTINUOUS
370
50
 62
4
100
AcDbLine
 10
-0.7569560727950676
 20
0.0
 30
0.0
 11
-0.01
 21
-0.7469560727950668
 31
0.0
  0
LINE
  5
D5F
330
1F
100
AcDbEntity
  8
SK1
  6
CONTINUOUS
370
50
 62
4
100
AcDbLine
 10
-0.4034026822017942
 20
0.0
 30
0.0
 11
-0.01
 21
-0.3934026822017938
 31
0.0
  0
LINE
  5
D60
330
1F
100
AcDbEntity
  8
SK1
  6
CONTINUOUS
370
50
 62
4
100
AcDbLine
 10
-0.0498492916085216
 20
0.0
 30
0.0
 11
-0.01
 21
-0.0398492916085216
 31
0.0
  0
LINE
  5
D61
330
1F
100
AcDbEntity
  8
SK1
  6
CONTINUOUS
370
50
 62
4
100
AcDbLine
 10
-0.01
 20
0.3137040989847515
 30
0.0
 11
0.3037040989847518
 21
0.0
 31
0.0
  0
LINE
  5
D62
330
1F
100
AcDbEntity
  8
SK1
  6
CONTINUOUS
370
50
 62
4
100
AcDbLine
 10
-0.01
 20
0.6672574895780246
 30
0.0
 11
0.6572574895780253
 21
0.0
 31
0.0
  0
LINE
  5
D63
330
1F
100
AcDbEntity
  8
SK1
  6
CONTINUOUS
370
50
 62
4
100
AcDbLine
 10
-0.01
 20
1.020810880171298
 30
0.0
 11
1.010810880171299
 21
0.0
 31
0.0
  0
LINE
  5
D64
330
1F
100
AcDbEntity
  8
SK1
  6
CONTINUOUS
370
50
 62
4
100
AcDbLine
 10
-0.01
 20
1.37436427076457
 30
0.0
 11
1.364364270764571
 21
0.0
 31
0.0
  0
LINE
  5
D65
330
1F
100
AcDbEntity
  8
SK1
  6
CONTINUOUS
370
50
 62
4
100
AcDbLine
 10
-0.01
 20
1.727917661357843
 30
0.0
 11
1.717917661357845
 21
0.0
 31
0.0
  0
LINE
  5
D66
330
1F
100
AcDbEntity
  8
SK1
  6
CONTINUOUS
370
50
 62
4
100
AcDbLine
 10
-0.01
 20
2.081471051951116
 30
0.0
 11
2.071471051951118
 21
0.0
 31
0.0
  0
LINE
  5
D67
330
1F
100
AcDbEntity
  8
SK1
  6
CONTINUOUS
370
50
 62
4
100
AcDbLine
 10
-0.01
 20
2.435024442544389
 30
0.0
 11
2.425024442544392
 21
0.0
 31
0.0
  0
LINE
  5
D68
330
1F
100
AcDbEntity
  8
SK1
  6
CONTINUOUS
370
50
 62
4
100
AcDbLine
 10
0.2977647139123103
 20
2.480813119225352
 30
0.0
 11
2.470813119225352
 21
0.307764713912313
 31
0.0
  0
LINE
  5
D69
330
1F
100
AcDbEntity
  8
SK1
  6
CONTINUOUS
370
50
 62
4
100
AcDbLine
 10
0.7511924397506667
 20
2.380938783980268
 30
0.0
 11
2.370938783980268
 21
0.7611924397506691
 31
0.0
  0
LINE
  5
D6A
330
1F
100
AcDbEntity
  8
SK1
  6
CONTINUOUS
370
50
 62
4
100
AcDbLine
 10
1.47586376213526
 20
2.009820852188948
 30
0.0
 11
1.999820852188946
 21
1.485863762135263
 31
0.0
  0
LINE
  5
D6B
330
1F
100
AcDbEntity
  8
4
  6
LONGDASH_DASH
370
25
 62
2
100
AcDbLine
 10
-0.01
 20
0.0
 30
0.0
 11
48.49
 21
0.0
 31
0.0
  0
LINE
  5
D6C
330
1F
100
AcDbEntity
  8
SK4
  6
LONGDASH_DASH
370
25
 62
2
100
AcDbLine
 10
-51.21
 20
0.0
 30
0.0
 11
54.49
 21
0.0
 31
0.0
  0
ENDSEC
  0
SECTION
  2
OBJECTS
  0
DICTIONARY
  5
C
330
0
100
AcDbDictionary
281
     1
  3
ACAD_GROUP
350
D
  3
ACAD_LAYOUT
350
1A
  3
ACAD_MATERIAL
350
3B
  3
ACAD_MLEADERSTYLE
350
D6F
  3
ACAD_MLINESTYLE
350
17
  3
ACAD_PLOTSETTINGS
350
19
  3
ACAD_PLOTSTYLENAME
350
E
  3
ACAD_SCALELIST
350
49B
  3
ACAD_VISUALSTYLE
350
2A
  3
AcDbVariableDictionary
350
D6D
  0
DICTIONARY
  5
D
102
{ACAD_REACTORS
330
C
102
}
330
C
100
AcDbDictionary
281
     1
  0
DICTIONARY
  5
1A
102
{ACAD_REACTORS
330
C
102
}
330
C
100
AcDbDictionary
281
     1
  3
Layout1
350
1E
  3
Layout2
350
26
  3
Model
350
22
  0
DICTIONARY
  5
3B
102
{ACAD_REACTORS
330
C
102
}
330
C
100
AcDbDictionary
281
     1
  3
ByBlock
350
3D
  3
ByLayer
350
3C
  3
Global
350
3E
  0
DICTIONARY
  5
D6F
102
{ACAD_REACTORS
330
C
102
}
330
C
100
AcDbDictionary
281
     1
  0
DICTIONARY
  5
17
102
{ACAD_REACTORS
330
C
102
}
330
C
100
AcDbDictionary
281
     1
  3
Standard
350
18
  0
DICTIONARY
  5
19
102
{ACAD_REACTORS
330
C
102
}
330
C
100
AcDbDictionary
281
     1
  0
ACDBDICTIONARYWDFLT
  5
E
102
{ACAD_REACTORS
330
C
102
}
330
C
100
AcDbDictionary
281
     1
  3
Normal
350
F
100
AcDbDictionaryWithDefault
340
F
  0
DICTIONARY
  5
49B
102
{ACAD_REACTORS
330
C
102
}
330
C
100
AcDbDictionary
281
     1
  3
A0
350
49C
  3
A1
350
49D
  3
A2
350
49E
  3
A3
350
49F
  3
A4
350
4A0
  3
A5
350
4A1
  3
A6
350
4A2
  3
A7
350
4A3
  3
A8
350
4A4
  3
A9
350
4A5
  3
B0
350
4A6
  3
B1
350
4A7
  3
B2
350
4A8
  3
B3
350
4A9
  3
B4
350
4AA
  3
B5
350
4AB
  3
B6
350
4AC
  3
B7
350
4AD
  3
B8
350
4AE
  3
B9
350
4AF
  3
C0
350
4B0
  3
C1
350
4B1
  3
C2
350
4B2
  3
C3
350
4B3
  3
C4
350
4B4
  3
C5
350
4B5
  3
C6
350
4B6
  3
C7
350
4B7
  3
C8
350
4B8
  3
C9
350
4B9
  3
D0
350
4BA
  3
D1
350
4BB
  3
D2
350
4BC
  0
DICTIONARY
  5
2A
102
{ACAD_REACTORS
330
C
102
}
330
C
100
AcDbDictionary
281
     1
  3
2dWireframe
350
2F
  3
3D Hidden
350
31
  3
3dWireframe
350
30
  3
Basic
350
32
  3
Brighten
350
36
  3
ColorChange
350
3A
  3
Conceptual
350
34
  3
Dim
350
35
  3
Facepattern
350
39
  3
Flat
350
2B
  3
FlatWithEdges
350
2C
  3
Gouraud
350
2D
  3
GouraudWithEdges
350
2E
  3
Linepattern
350
38
  3
Realistic
350
33
  3
Thicken
350
37
  0
DICTIONARY
  5
D6D
102
{ACAD_REACTORS
330
C
102
}
330
C
100
AcDbDictionary
281
     1
  3
CANNOSCALE
350
D72
  3
DIMASSOC
350
D73
  3
HIDETEXT
350
D74
  3
PSOLHEIGHT
350
D71
  3
PSOLWIDTH
350
D70
  0
LAYOUT
  5
1E
102
{ACAD_REACTORS
330
1A
102
}
330
1A
100
AcDbPlotSettings
  1

  2
none_device
  4

  6

 40
0.0
 41
0.0
 42
0.0
 43
0.0
 44
0.0
 45
0.0
 46
0.0
 47
0.0
 48
0.0
 49
0.0
140
0.0
141
0.0
142
1.0
143
1.0
 70
   688
 72
     0
 73
     0
 74
     5
  7

 75
    16
147
1.0
148
0.0
149
0.0
100
AcDbLayout
  1
Layout1
 70
     1
 71
     1
 10
0.0
 20
0.0
 11
420.0
 21
297.0
 12
0.0
 22
0.0
 32
0.0
 14
1.000000000000000E+20
 24
1.000000000000000E+20
 34
1.000000000000000E+20
 15
-1.000000000000000E+20
 25
-1.000000000000000E+20
 35
-1.000000000000000E+20
146
0.0
 13
0.0
 23
0.0
 33
0.0
 16
1.0
 26
0.0
 36
0.0
 17
0.0
 27
1.0
 37
0.0
 76
     0
330
1B
  0
LAYOUT
  5
26
102
{ACAD_REACTORS
330
1A
102
}
330
1A
100
AcDbPlotSettings
  1

  2
none_device
  4

  6

 40
0.0
 41
0.0
 42
0.0
 43
0.0
 44
0.0
 45
0.0
 46
0.0
 47
0.0
 48
0.0
 49
0.0
140
0.0
141
0.0
142
1.0
143
1.0
 70
   688
 72
     0
 73
     0
 74
     5
  7

 75
    16
147
1.0
148
0.0
149
0.0
100
AcDbLayout
  1
Layout2
 70
     1
 71
     2
 10
0.0
 20
0.0
 11
0.0
 21
0.0
 12
0.0
 22
0.0
 32
0.0
 14
0.0
 24
0.0
 34
0.0
 15
0.0
 25
0.0
 35
0.0
146
0.0
 13
0.0
 23
0.0
 33
0.0
 16
1.0
 26
0.0
 36
0.0
 17
0.0
 27
1.0
 37
0.0
 76
     0
330
23
  0
LAYOUT
  5
22
102
{ACAD_REACTORS
330
1A
102
}
330
1A
100
AcDbPlotSettings
  1

  2
none_device
  4

  6

 40
0.0
 41
0.0
 42
0.0
 43
0.0
 44
0.0
 45
0.0
 46
0.0
 47
0.0
 48
0.0
 49
0.0
140
0.0
141
0.0
142
1.0
143
1.0
 70
  1712
 72
     0
 73
     0
 74
     0
  7

 75
     0
147
1.0
148
0.0
149
0.0
100
AcDbLayout
  1
Model
 70
     1
 71
     0
 10
0.0
 20
0.0
 11
420.0
 21
297.0
 12
0.0
 22
0.0
 32
0.0
 14
0.0
 24
0.0
 34
0.0
 15
25.0
 25
35.0
 35
0.0
146
0.0
 13
0.0
 23
0.0
 33
0.0
 16
1.0
 26
0.0
 36
0.0
 17
0.0
 27
1.0
 37
0.0
 76
     0
330
1F
331
29
  0
MATERIAL
  5
3D
102
{ACAD_REACTORS
330
3B
102
}
102
{ACAD_XDICTIONARY
360
D97
102
}
330
3B
100
AcDbMaterial
  1
ByBlock
  0
MATERIAL
  5
3C
102
{ACAD_REACTORS
330
3B
102
}
102
{ACAD_XDICTIONARY
360
D95
102
}
330
3B
100
AcDbMaterial
  1
ByLayer
  0
MATERIAL
  5
3E
102
{ACAD_REACTORS
330
3B
102
}
102
{ACAD_XDICTIONARY
360
D99
102
}
330
3B
100
AcDbMaterial
  1
Global
  0
MLINESTYLE
  5
18
102
{ACAD_REACTORS
330
17
102
}
330
17
100
AcDbMlineStyle
  2
Standard
 70
     0
  3

 62
   256
 51
90.0
 52
90.0
 71
     2
 49
0.5
 62
   256
  6
BYLAYER
 49
-0.5
 62
   256
  6
BYLAYER
  0
ACDBPLACEHOLDER
  5
F
102
{ACAD_REACTORS
330
E
102
}
330
E
  0
SCALE
  5
49C
102
{ACAD_REACTORS
330
49B
102
}
330
49B
100
AcDbScale
 70
     0
300
1:1
140
1.0
141
1.0
290
     1
  0
SCALE
  5
49D
102
{ACAD_REACTORS
330
49B
102
}
330
49B
100
AcDbScale
 70
     0
300
1:2
140
1.0
141
2.0
290
     0
  0
SCALE
  5
49E
102
{ACAD_REACTORS
330
49B
102
}
330
49B
100
AcDbScale
 70
     0
300
1:4
140
1.0
141
4.0
290
     0
  0
SCALE
  5
49F
102
{ACAD_REACTORS
330
49B
102
}
330
49B
100
AcDbScale
 70
     0
300
1:5
140
1.0
141
5.0
290
     0
  0
SCALE
  5
4A0
102
{ACAD_REACTORS
330
49B
102
}
330
49B
100
AcDbScale
 70
     0
300
1:8
140
1.0
141
8.0
290
     0
  0
SCALE
  5
4A1
102
{ACAD_REACTORS
330
49B
102
}
330
49B
100
AcDbScale
 70
     0
300
1:10
140
1.0
141
10.0
290
     0
  0
SCALE
  5
4A2
102
{ACAD_REACTORS
330
49B
102
}
330
49B
100
AcDbScale
 70
     0
300
1:16
140
1.0
141
16.0
290
     0
  0
SCALE
  5
4A3
102
{ACAD_REACTORS
330
49B
102
}
330
49B
100
AcDbScale
 70
     0
300
1:20
140
1.0
141
20.0
290
     0
  0
SCALE
  5
4A4
102
{ACAD_REACTORS
330
49B
102
}
330
49B
100
AcDbScale
 70
     0
300
1:30
140
1.0
141
30.0
290
     0
  0
SCALE
  5
4A5
102
{ACAD_REACTORS
330
49B
102
}
330
49B
100
AcDbScale
 70
     0
300
1:40
140
1.0
141
40.0
290
     0
  0
SCALE
  5
4A6
102
{ACAD_REACTORS
330
49B
102
}
330
49B
100
AcDbScale
 70
     0
300
1:50
140
1.0
141
50.0
290
     0
  0
SCALE
  5
4A7
102
{ACAD_REACTORS
330
49B
102
}
330
49B
100
AcDbScale
 70
     0
300
1:100
140
1.0
141
100.0
290
     0
  0
SCALE
  5
4A8
102
{ACAD_REACTORS
330
49B
102
}
330
49B
100
AcDbScale
 70
     0
300
2:1
140
2.0
141
1.0
290
     0
  0
SCALE
  5
4A9
102
{ACAD_REACTORS
330
49B
102
}
330
49B
100
AcDbScale
 70
     0
300
4:1
140
4.0
141
1.0
290
     0
  0
SCALE
  5
4AA
102
{ACAD_REACTORS
330
49B
102
}
330
49B
100
AcDbScale
 70
     0
300
8:1
140
8.0
141
1.0
290
     0
  0
SCALE
  5
4AB
102
{ACAD_REACTORS
330
49B
102
}
330
49B
100
AcDbScale
 70
     0
300
10:1
140
10.0
141
1.0
290
     0
  0
SCALE
  5
4AC
102
{ACAD_REACTORS
330
49B
102
}
330
49B
100
AcDbScale
 70
     0
300
100:1
140
100.0
141
1.0
290
     0
  0
SCALE
  5
4AD
102
{ACAD_REACTORS
330
49B
102
}
330
49B
100
AcDbScale
 70
     0
300
1/128" = 1'-0"
140
0.0078125
141
12.0
290
     0
  0
SCALE
  5
4AE
102
{ACAD_REACTORS
330
49B
102
}
330
49B
100
AcDbScale
 70
     0
300
1/64" = 1'-0"
140
0.015625
141
12.0
290
     0
  0
SCALE
  5
4AF
102
{ACAD_REACTORS
330
49B
102
}
330
49B
100
AcDbScale
 70
     0
300
1/32" = 1'-0"
140
0.03125
141
12.0
290
     0
  0
SCALE
  5
4B0
102
{ACAD_REACTORS
330
49B
102
}
330
49B
100
AcDbScale
 70
     0
300
1/16" = 1'-0"
140
0.0625
141
12.0
290
     0
  0
SCALE
  5
4B1
102
{ACAD_REACTORS
330
49B
102
}
330
49B
100
AcDbScale
 70
     0
300
3/32" = 1'-0"
140
0.09375
141
12.0
290
     0
  0
SCALE
  5
4B2
102
{ACAD_REACTORS
330
49B
102
}
330
49B
100
AcDbScale
 70
     0
300
1/8" = 1'-0"
140
0.125
141
12.0
290
     0
  0
SCALE
  5
4B3
102
{ACAD_REACTORS
330
49B
102
}
330
49B
100
AcDbScale
 70
     0
300
3/16" = 1'-0"
140
0.1875
141
12.0
290
     0
  0
SCALE
  5
4B4
102
{ACAD_REACTORS
330
49B
102
}
330
49B
100
AcDbScale
 70
     0
300
1/4" = 1'-0"
140
0.25
141
12.0
290
     0
  0
SCALE
  5
4B5
102
{ACAD_REACTORS
330
49B
102
}
330
49B
100
AcDbScale
 70
     0
300
3/8" = 1'-0"
140
0.375
141
12.0
290
     0
  0
SCALE
  5
4B6
102
{ACAD_REACTORS
330
49B
102
}
330
49B
100
AcDbScale
 70
     0
300
1/2" = 1'-0"
140
0.5
141
12.0
290
     0
  0
SCALE
  5
4B7
102
{ACAD_REACTORS
330
49B
102
}
330
49B
100
AcDbScale
 70
     0
300
3/4" = 1'-0"
140
0.75
141
12.0
290
     0
  0
SCALE
  5
4B8
102
{ACAD_REACTORS
330
49B
102
}
330
49B
100
AcDbScale
 70
     0
300
1" = 1'-0"
140
1.0
141
12.0
290
     0
  0
SCALE
  5
4B9
102
{ACAD_REACTORS
330
49B
102
}
330
49B
100
AcDbScale
 70
     0
300
1-1/2" = 1'-0"
140
1.5
141
12.0
290
     0
  0
SCALE
  5
4BA
102
{ACAD_REACTORS
330
49B
102
}
330
49B
100
AcDbScale
 70
     0
300
3" = 1'-0"
140
3.0
141
12.0
290
     0
  0
SCALE
  5
4BB
102
{ACAD_REACTORS
330
49B
102
}
330
49B
100
AcDbScale
 70
     0
300
6" = 1'-0"
140
6.0
141
12.0
290
     0
  0
SCALE
  5
4BC
102
{ACAD_REACTORS
330
49B
102
}
330
49B
100
AcDbScale
 70
     0
300
1'-0" = 1'-0"
140
12.0
141
12.0
290
     0
  0
VISUALSTYLE
  5
2F
102
{ACAD_REACTORS
330
2A
102
}
102
{ACAD_XDICTIONARY
360
D7D
102
}
330
2A
100
AcDbVisualStyle
  2
2dWireframe
 70
     4
 71
     0
 72
     2
 73
     0
 90
        0
 40
-0.6
 41
-30.0
 62
     5
 63
     7
 74
     1
 91
        4
 64
     7
 65
   257
 75
     1
175
     1
 42
1.0
 92
        0
 66
   257
 43
1.0
 76
     1
 77
     6
 78
     2
 67
     7
 79
     5
170
     0
171
     0
290
     0
174
     0
 93
        1
 44
0.0
173
     0
291
     0
 45
0.0
1001
ACAD
1000
AcDbSavedByObjectVersion
1070
     0
  0
VISUALSTYLE
  5
31
102
{ACAD_REACTORS
330
2A
102
}
102
{ACAD_XDICTIONARY
360
D81
102
}
330
2A
100
AcDbVisualStyle
  2
3D Hidden
 70
     6
 71
     1
 72
     2
 73
     2
 90
        0
 40
-0.6
 41
-30.0
 62
     5
 63
     7
 74
     2
 91
        2
 64
     7
 65
   257
 75
     2
175
     1
 42
40.0
 92
        0
 66
   257
 43
1.0
 76
     1
 77
     6
 78
     2
 67
     7
 79
     3
170
     0
171
     0
290
     0
174
     0
 93
        1
 44
0.0
173
     0
291
     0
 45
0.0
1001
ACAD
1000
AcDbSavedByObjectVersion
1070
     0
  0
VISUALSTYLE
  5
30
102
{ACAD_REACTORS
330
2A
102
}
102
{ACAD_XDICTIONARY
360
D7F
102
}
330
2A
100
AcDbVisualStyle
  2
3dWireframe
 70
     5
 71
     0
 72
     2
 73
     0
 90
        0
 40
-0.6
 41
-30.0
 62
     5
 63
     7
 74
     1
 91
        4
 64
     7
 65
   257
 75
     1
175
     1
 42
1.0
 92
        0
 66
   257
 43
1.0
 76
     1
 77
     6
 78
     2
 67
     7
 79
     5
170
     0
171
     0
290
     0
174
     0
 93
        1
 44
0.0
173
     0
291
     0
 45
0.0
1001
ACAD
1000
AcDbSavedByObjectVersion
1070
     0
  0
VISUALSTYLE
  5
32
102
{ACAD_REACTORS
330
2A
102
}
102
{ACAD_XDICTIONARY
360
D83
102
}
330
2A
100
AcDbVisualStyle
  2
Basic
 70
     7
 71
     1
 72
     0
 73
     1
 90
        0
 40
-0.6
 41
-30.0
 62
     5
 63
     7
 74
     0
 91
        4
 64
     7
 65
   257
 75
     1
175
     1
 42
1.0
 92
        8
 66
     7
 43
1.0
 76
     1
 77
     6
 78
     2
 67
     7
 79
     5
170
     0
171
     0
290
     0
174
     0
 93
        1
 44
0.0
173
     0
291
     1
 45
0.0
1001
ACAD
1000
AcDbSavedByObjectVersion
1070
     0
  0
VISUALSTYLE
  5
36
102
{ACAD_REACTORS
330
2A
102
}
102
{ACAD_XDICTIONARY
360
D8B
102
}
330
2A
100
AcDbVisualStyle
  2
Brighten
 70
    12
 71
     2
 72
     2
 73
     0
 90
        0
 40
-0.6
 41
-30.0
 62
     5
 63
     7
 74
     1
 91
        4
 64
     7
 65
   257
 75
     1
175
     1
 42
1.0
 92
        8
 66
     7
 43
1.0
 76
     1
 77
     6
 78
     2
 67
     7
 79
     5
170
     0
171
     0
290
     0
174
     0
 93
        1
 44
50.0
173
     0
291
     1
 45
0.0
1001
ACAD
1000
AcDbSavedByObjectVersion
1070
     0
  0
VISUALSTYLE
  5
3A
102
{ACAD_REACTORS
330
2A
102
}
102
{ACAD_XDICTIONARY
360
D93
102
}
330
2A
100
AcDbVisualStyle
  2
ColorChange
 70
    16
 71
     2
 72
     2
 73
     3
 90
        0
 40
-0.6
 41
-30.0
 62
     5
 63
     8
 74
     1
 91
        4
 64
     7
 65
   257
 75
     1
175
     1
 42
1.0
 92
        8
 66
     8
 43
1.0
 76
     1
 77
     6
 78
     2
 67
     7
 79
     5
170
     0
171
     0
290
     0
174
     0
 93
        1
 44
0.0
173
     0
291
     1
 45
0.0
1001
ACAD
1000
AcDbSavedByObjectVersion
1070
     0
  0
VISUALSTYLE
  5
34
102
{ACAD_REACTORS
330
2A
102
}
102
{ACAD_XDICTIONARY
360
D87
102
}
330
2A
100
AcDbVisualStyle
  2
Conceptual
 70
     9
 71
     3
 72
     2
 73
     0
 90
        0
 40
-0.6
 41
-30.0
 62
     5
 63
     7
 74
     2
 91
        2
 64
     7
 65
   257
 75
     1
175
     1
 42
40.0
 92
        8
 66
     7
 43
1.0
 76
     1
 77
     6
 78
     2
 67
     7
 79
     3
170
     0
171
     0
290
     0
174
     0
 93
        1
 44
0.0
173
     0
291
     0
 45
0.0
1001
ACAD
1000
AcDbSavedByObjectVersion
1070
     0
  0
VISUALSTYLE
  5
35
102
{ACAD_REACTORS
330
2A
102
}
102
{ACAD_XDICTIONARY
360
D89
102
}
330
2A
100
AcDbVisualStyle
  2
Dim
 70
    11
 71
     2
 72
     2
 73
     0
 90
        0
 40
-0.6
 41
-30.0
 62
     5
 63
     7
 74
     1
 91
        4
 64
     7
 65
   257
 75
     1
175
     1
 42
1.0
 92
        8
 66
     7
 43
1.0
 76
     1
 77
     6
 78
     2
 67
     7
 79
     5
170
     0
171
     0
290
     0
174
     0
 93
        1
 44
-50.0
173
     0
291
     1
 45
0.0
1001
ACAD
1000
AcDbSavedByObjectVersion
1070
     0
  0
VISUALSTYLE
  5
39
102
{ACAD_REACTORS
330
2A
102
}
102
{ACAD_XDICTIONARY
360
D91
102
}
330
2A
100
AcDbVisualStyle
  2
Facepattern
 70
    15
 71
     2
 72
     2
 73
     0
 90
        0
 40
-0.6
 41
-30.0
 62
     5
 63
     7
 74
     1
 91
        4
 64
     7
 65
   257
 75
     1
175
     1
 42
1.0
 92
        8
 66
     7
 43
1.0
 76
     1
 77
     6
 78
     2
 67
     7
 79
     5
170
     0
171
     0
290
     0
174
     0
 93
        1
 44
0.0
173
     0
291
     1
 45
0.0
1001
ACAD
1000
AcDbSavedByObjectVersion
1070
     0
  0
VISUALSTYLE
  5
2B
102
{ACAD_REACTORS
330
2A
102
}
102
{ACAD_XDICTIONARY
360
D75
102
}
330
2A
100
AcDbVisualStyle
  2
Flat
 70
     0
 71
     2
 72
     1
 73
     1
 90
        2
 40
-0.6
 41
30.0
 62
     5
 63
     7
 74
     0
 91
        4
 64
     7
 65
   257
 75
     1
175
     1
 42
1.0
 92
        8
 66
     7
 43
1.0
 76
     1
 77
     6
 78
     2
 67
     7
 79
     5
170
     0
171
     0
290
     0
174
     0
 93
       13
 44
0.0
173
     0
291
     1
 45
0.0
1001
ACAD
1000
AcDbSavedByObjectVersion
1070
     0
  0
VISUALSTYLE
  5
2C
102
{ACAD_REACTORS
330
2A
102
}
102
{ACAD_XDICTIONARY
360
D77
102
}
330
2A
100
AcDbVisualStyle
  2
FlatWithEdges
 70
     1
 71
     2
 72
     1
 73
     1
 90
        2
 40
-0.6
 41
30.0
 62
     5
 63
     7
 74
     1
 91
        4
 64
     7
 65
   257
 75
     1
175
     1
 42
1.0
 92
        0
 66
   257
 43
1.0
 76
     1
 77
     6
 78
     2
 67
     7
 79
     5
170
     0
171
     0
290
     0
174
     0
 93
       13
 44
0.0
173
     0
291
     1
 45
0.0
1001
ACAD
1000
AcDbSavedByObjectVersion
1070
     0
  0
VISUALSTYLE
  5
2D
102
{ACAD_REACTORS
330
2A
102
}
102
{ACAD_XDICTIONARY
360
D79
102
}
330
2A
100
AcDbVisualStyle
  2
Gouraud
 70
     2
 71
     2
 72
     2
 73
     1
 90
        2
 40
-0.6
 41
30.0
 62
     5
 63
     7
 74
     0
 91
        4
 64
     7
 65
   257
 75
     1
175
     1
 42
1.0
 92
        0
 66
     7
 43
1.0
 76
     1
 77
     6
 78
     2
 67
     7
 79
     5
170
     0
171
     0
290
     0
174
     0
 93
       13
 44
0.0
173
     0
291
     1
 45
0.0
1001
ACAD
1000
AcDbSavedByObjectVersion
1070
     0
  0
VISUALSTYLE
  5
2E
102
{ACAD_REACTORS
330
2A
102
}
102
{ACAD_XDICTIONARY
360
D7B
102
}
330
2A
100
AcDbVisualStyle
  2
GouraudWithEdges
 70
     3
 71
     2
 72
     2
 73
     1
 90
        2
 40
-0.6
 41
30.0
 62
     5
 63
     7
 74
     1
 91
        4
 64
     7
 65
   257
 75
     1
175
     1
 42
1.0
 92
        0
 66
   257
 43
1.0
 76
     1
 77
     6
 78
     2
 67
     7
 79
     5
170
     0
171
     0
290
     0
174
     0
 93
       13
 44
0.0
173
     0
291
     1
 45
0.0
1001
ACAD
1000
AcDbSavedByObjectVersion
1070
     0
  0
VISUALSTYLE
  5
38
102
{ACAD_REACTORS
330
2A
102
}
102
{ACAD_XDICTIONARY
360
D8F
102
}
330
2A
100
AcDbVisualStyle
  2
Linepattern
 70
    14
 71
     2
 72
     2
 73
     0
 90
        0
 40
-0.6
 41
-30.0
 62
     5
 63
     7
 74
     1
 91
        4
 64
     7
 65
   257
 75
     7
175
     7
 42
1.0
 92
        8
 66
     7
 43
1.0
 76
     1
 77
     6
 78
     2
 67
     7
 79
     5
170
     0
171
     0
290
     0
174
     0
 93
        1
 44
0.0
173
     0
291
     1
 45
0.0
1001
ACAD
1000
AcDbSavedByObjectVersion
1070
     0
  0
VISUALSTYLE
  5
33
102
{ACAD_REACTORS
330
2A
102
}
102
{ACAD_XDICTIONARY
360
D85
102
}
330
2A
100
AcDbVisualStyle
  2
Realistic
 70
     8
 71
     2
 72
     2
 73
     0
 90
        0
 40
-0.6
 41
-30.0
 62
     5
 63
     7
 74
     1
 91
        0
 64
     7
 65
   257
 75
     1
175
     1
 42
1.0
 92
        8
 66
     8
 43
1.0
 76
     1
 77
     6
 78
     2
 67
     7
 79
     5
170
     0
171
     0
290
     0
174
     0
 93
       13
 44
0.0
173
     0
291
     0
 45
0.0
1001
ACAD
1000
AcDbSavedByObjectVersion
1070
     0
  0
VISUALSTYLE
  5
37
102
{ACAD_REACTORS
330
2A
102
}
102
{ACAD_XDICTIONARY
360
D8D
102
}
330
2A
100
AcDbVisualStyle
  2
Thicken
 70
    13
 71
     2
 72
     2
 73
     0
 90
        0
 40
-0.6
 41
-30.0
 62
     5
 63
     7
 74
     1
 91
        4
 64
     7
 65
   257
 75
     1
175
     1
 42
1.0
 92
       12
 66
     7
 43
1.0
 76
     1
 77
     6
 78
     2
 67
     7
 79
     5
170
     0
171
     0
290
     0
174
     0
 93
        1
 44
0.0
173
     0
291
     1
 45
0.0
1001
ACAD
1000
AcDbSavedByObjectVersion
1070
     0
  0
DICTIONARYVAR
  5
D72
102
{ACAD_REACTORS
330
D6D
102
}
330
D6D
100
DictionaryVariables
280
     0
  1
1:1
  0
DICTIONARYVAR
  5
D73
102
{ACAD_REACTORS
330
D6D
102
}
330
D6D
100
DictionaryVariables
280
     0
  1
2
  0
DICTIONARYVAR
  5
D74
102
{ACAD_REACTORS
330
D6D
102
}
330
D6D
100
DictionaryVariables
280
     0
  1
1
  0
DICTIONARYVAR
  5
D71
102
{ACAD_REACTORS
330
D6D
102
}
330
D6D
100
DictionaryVariables
280
     0
  1
80.000000
  0
DICTIONARYVAR
  5
D70
102
{ACAD_REACTORS
330
D6D
102
}
330
D6D
100
DictionaryVariables
280
     0
  1
5.000000
  0
DICTIONARY
  5
D97
330
3D
100
AcDbDictionary
280
     1
281
     1
  3
ACAD_XREC_ROUNDTRIP
360
D98
  0
DICTIONARY
  5
D95
330
3C
100
AcDbDictionary
280
     1
281
     1
  3
ACAD_XREC_ROUNDTRIP
360
D96
  0
DICTIONARY
  5
D99
330
3E
100
AcDbDictionary
280
     1
281
     1
  3
ACAD_XREC_ROUNDTRIP
360
D9A
  0
DICTIONARY
  5
D7D
330
2F
100
AcDbDictionary
280
     1
281
     1
  3
ACAD_XREC_ROUNDTRIP
360
D7E
  0
DICTIONARY
  5
D81
330
31
100
AcDbDictionary
280
     1
281
     1
  3
ACAD_XREC_ROUNDTRIP
360
D82
  0
DICTIONARY
  5
D7F
330
30
100
AcDbDictionary
280
     1
281
     1
  3
ACAD_XREC_ROUNDTRIP
360
D80
  0
DICTIONARY
  5
D83
330
32
100
AcDbDictionary
280
     1
281
     1
  3
ACAD_XREC_ROUNDTRIP
360
D84
  0
DICTIONARY
  5
D8B
330
36
100
AcDbDictionary
280
     1
281
     1
  3
ACAD_XREC_ROUNDTRIP
360
D8C
  0
DICTIONARY
  5
D93
330
3A
100
AcDbDictionary
280
     1
281
     1
  3
ACAD_XREC_ROUNDTRIP
360
D94
  0
DICTIONARY
  5
D87
330
34
100
AcDbDictionary
280
     1
281
     1
  3
ACAD_XREC_ROUNDTRIP
360
D88
  0
DICTIONARY
  5
D89
330
35
100
AcDbDictionary
280
     1
281
     1
  3
ACAD_XREC_ROUNDTRIP
360
D8A
  0
DICTIONARY
  5
D91
330
39
100
AcDbDictionary
280
     1
281
     1
  3
ACAD_XREC_ROUNDTRIP
360
D92
  0
DICTIONARY
  5
D75
330
2B
100
AcDbDictionary
280
     1
281
     1
  3
ACAD_XREC_ROUNDTRIP
360
D76
  0
DICTIONARY
  5
D77
330
2C
100
AcDbDictionary
280
     1
281
     1
  3
ACAD_XREC_ROUNDTRIP
360
D78
  0
DICTIONARY
  5
D79
330
2D
100
AcDbDictionary
280
     1
281
     1
  3
ACAD_XREC_ROUNDTRIP
360
D7A
  0
DICTIONARY
  5
D7B
330
2E
100
AcDbDictionary
280
     1
281
     1
  3
ACAD_XREC_ROUNDTRIP
360
D7C
  0
DICTIONARY
  5
D8F
330
38
100
AcDbDictionary
280
     1
281
     1
  3
ACAD_XREC_ROUNDTRIP
360
D90
  0
DICTIONARY
  5
D85
330
33
100
AcDbDictionary
280
     1
281
     1
  3
ACAD_XREC_ROUNDTRIP
360
D86
  0
DICTIONARY
  5
D8D
330
37
100
AcDbDictionary
280
     1
281
     1
  3
ACAD_XREC_ROUNDTRIP
360
D8E
  0
XRECORD
  5
D98
102
{ACAD_REACTORS
330
D97
102
}
330
D97
100
AcDbXrecord
280
     1
102
MATERIAL
148
0.0
149
0.0
149
0.0
 93
        0
 94
      127
282
     0
 72
     1
 77
     1
171
     1
175
     1
179
     1
273
     0
  0
XRECORD
  5
D96
102
{ACAD_REACTORS
330
D95
102
}
330
D95
100
AcDbXrecord
280
     1
102
MATERIAL
148
0.0
149
0.0
149
0.0
 93
        0
 94
      127
282
     0
 72
     1
 77
     1
171
     1
175
     1
179
     1
273
     0
  0
XRECORD
  5
D9A
102
{ACAD_REACTORS
330
D99
102
}
330
D99
100
AcDbXrecord
280
     1
102
MATERIAL
148
0.0
149
0.0
149
0.0
 93
        0
 94
      127
282
     0
 72
     1
 77
     1
171
     1
175
     1
179
     1
273
     0
  0
XRECORD
  5
D7E
102
{ACAD_REACTORS
330
D7D
102
}
330
D7D
100
AcDbXrecord
280
     1
102
RTVSPropertyOp0
 70
     1
102
RTVSPropertyOp1
 70
     1
102
RTVSPropertyOp2
 70
     1
102
RTVSPropertyOp3
 70
     1
102
RTVSPropertyOp4
 70
     1
102
RTVSPropertyOp5
 70
     1
102
RTVSPropertyOp6
 70
     1
102
RTVSPropertyOp7
 70
     1
102
RTVSPropertyOp8
 70
     1
102
RTVSPropertyOp9
 70
     1
102
RTVSPropertyOp10
 70
     1
102
RTVSPropertyOp11
 70
     1
102
RTVSPropertyOp12
 70
     1
102
RTVSPropertyOp13
 70
     1
102
RTVSPropertyOp14
 70
     1
102
RTVSPropertyOp15
 70
     1
102
RTVSPropertyOp16
 70
     1
102
RTVSPropertyOp17
 70
     1
102
RTVSPropertyOp18
 70
     1
102
RTVSPropertyOp19
 70
     1
102
RTVSPropertyOp20
 70
     1
102
RTVSPropertyOp21
 70
     1
102
RTVSPropertyOp22
 70
     1
102
RTVSPropertyOp23
 70
     1
102
RTVSPropertyOp24
 70
     1
102
RTVSPropertyOp25
 70
     1
102
RTVSPropertyOp26
 70
     1
102
RTVSPropertyOp27
 70
     1
  0
XRECORD
  5
D82
102
{ACAD_REACTORS
330
D81
102
}
330
D81
100
AcDbXrecord
280
     1
102
RTVSPropertyOp0
 70
     1
102
RTVSPropertyOp1
 70
     1
102
RTVSPropertyOp2
 70
     1
102
RTVSPropertyOp3
 70
     1
102
RTVSPropertyOp4
 70
     1
102
RTVSPropertyOp5
 70
     1
102
RTVSPropertyOp6
 70
     1
102
RTVSPropertyOp7
 70
     1
102
RTVSPropertyOp8
 70
     1
102
RTVSPropertyOp9
 70
     1
102
RTVSPropertyOp10
 70
     1
102
RTVSPropertyOp11
 70
     1
102
RTVSPropertyOp12
 70
     1
102
RTVSPropertyOp13
 70
     1
102
RTVSPropertyOp14
 70
     1
102
RTVSPropertyOp15
 70
     1
102
RTVSPropertyOp16
 70
     1
102
RTVSPropertyOp17
 70
     1
102
RTVSPropertyOp18
 70
     1
102
RTVSPropertyOp19
 70
     1
102
RTVSPropertyOp20
 70
     1
102
RTVSPropertyOp21
 70
     1
102
RTVSPropertyOp22
 70
     1
102
RTVSPropertyOp23
 70
     1
102
RTVSPropertyOp24
 70
     1
102
RTVSPropertyOp25
 70
     1
102
RTVSPropertyOp26
 70
     1
102
RTVSPropertyOp27
 70
     1
  0
XRECORD
  5
D80
102
{ACAD_REACTORS
330
D7F
102
}
330
D7F
100
AcDbXrecord
280
     1
102
RTVSPropertyOp0
 70
     1
102
RTVSPropertyOp1
 70
     1
102
RTVSPropertyOp2
 70
     1
102
RTVSPropertyOp3
 70
     1
102
RTVSPropertyOp4
 70
     1
102
RTVSPropertyOp5
 70
     1
102
RTVSPropertyOp6
 70
     1
102
RTVSPropertyOp7
 70
     1
102
RTVSPropertyOp8
 70
     1
102
RTVSPropertyOp9
 70
     1
102
RTVSPropertyOp10
 70
     1
102
RTVSPropertyOp11
 70
     1
102
RTVSPropertyOp12
 70
     1
102
RTVSPropertyOp13
 70
     1
102
RTVSPropertyOp14
 70
     1
102
RTVSPropertyOp15
 70
     1
102
RTVSPropertyOp16
 70
     1
102
RTVSPropertyOp17
 70
     1
102
RTVSPropertyOp18
 70
     1
102
RTVSPropertyOp19
 70
     1
102
RTVSPropertyOp20
 70
     1
102
RTVSPropertyOp21
 70
     1
102
RTVSPropertyOp22
 70
     1
102
RTVSPropertyOp23
 70
     1
102
RTVSPropertyOp24
 70
     1
102
RTVSPropertyOp25
 70
     1
102
RTVSPropertyOp26
 70
     1
102
RTVSPropertyOp27
 70
     1
  0
XRECORD
  5
D84
102
{ACAD_REACTORS
330
D83
102
}
330
D83
100
AcDbXrecord
280
     1
102
RTVSPropertyOp0
 70
     1
102
RTVSPropertyOp1
 70
     1
102
RTVSPropertyOp2
 70
     1
102
RTVSPropertyOp3
 70
     1
102
RTVSPropertyOp4
 70
     1
102
RTVSPropertyOp5
 70
     1
102
RTVSPropertyOp6
 70
     1
102
RTVSPropertyOp7
 70
     1
102
RTVSPropertyOp8
 70
     1
102
RTVSPropertyOp9
 70
     1
102
RTVSPropertyOp10
 70
     1
102
RTVSPropertyOp11
 70
     1
102
RTVSPropertyOp12
 70
     1
102
RTVSPropertyOp13
 70
     1
102
RTVSPropertyOp14
 70
     1
102
RTVSPropertyOp15
 70
     1
102
RTVSPropertyOp16
 70
     1
102
RTVSPropertyOp17
 70
     1
102
RTVSPropertyOp18
 70
     1
102
RTVSPropertyOp19
 70
     1
102
RTVSPropertyOp20
 70
     1
102
RTVSPropertyOp21
 70
     1
102
RTVSPropertyOp22
 70
     1
102
RTVSPropertyOp23
 70
     1
102
RTVSPropertyOp24
 70
     1
102
RTVSPropertyOp25
 70
     1
102
RTVSPropertyOp26
 70
     1
102
RTVSPropertyOp27
 70
     1
  0
XRECORD
  5
D8C
102
{ACAD_REACTORS
330
D8B
102
}
330
D8B
100
AcDbXrecord
280
     1
102
RTVSPropertyOp0
 70
     1
102
RTVSPropertyOp1
 70
     1
102
RTVSPropertyOp2
 70
     1
102
RTVSPropertyOp3
 70
     1
102
RTVSPropertyOp4
 70
     1
102
RTVSPropertyOp5
 70
     1
102
RTVSPropertyOp6
 70
     1
102
RTVSPropertyOp7
 70
     1
102
RTVSPropertyOp8
 70
     1
102
RTVSPropertyOp9
 70
     1
102
RTVSPropertyOp10
 70
     1
102
RTVSPropertyOp11
 70
     1
102
RTVSPropertyOp12
 70
     1
102
RTVSPropertyOp13
 70
     1
102
RTVSPropertyOp14
 70
     1
102
RTVSPropertyOp15
 70
     1
102
RTVSPropertyOp16
 70
     1
102
RTVSPropertyOp17
 70
     1
102
RTVSPropertyOp18
 70
     1
102
RTVSPropertyOp19
 70
     1
102
RTVSPropertyOp20
 70
     1
102
RTVSPropertyOp21
 70
     1
102
RTVSPropertyOp22
 70
     1
102
RTVSPropertyOp23
 70
     1
102
RTVSPropertyOp24
 70
     1
102
RTVSPropertyOp25
 70
     1
102
RTVSPropertyOp26
 70
     1
102
RTVSPropertyOp27
 70
     1
  0
XRECORD
  5
D94
102
{ACAD_REACTORS
330
D93
102
}
330
D93
100
AcDbXrecord
280
     1
102
RTVSPropertyOp0
 70
     1
102
RTVSPropertyOp1
 70
     1
102
RTVSPropertyOp2
 70
     1
102
RTVSPropertyOp3
 70
     1
102
RTVSPropertyOp4
 70
     1
102
RTVSPropertyOp5
 70
     1
102
RTVSPropertyOp6
 70
     1
102
RTVSPropertyOp7
 70
     1
102
RTVSPropertyOp8
 70
     1
102
RTVSPropertyOp9
 70
     1
102
RTVSPropertyOp10
 70
     1
102
RTVSPropertyOp11
 70
     1
102
RTVSPropertyOp12
 70
     1
102
RTVSPropertyOp13
 70
     1
102
RTVSPropertyOp14
 70
     1
102
RTVSPropertyOp15
 70
     1
102
RTVSPropertyOp16
 70
     1
102
RTVSPropertyOp17
 70
     1
102
RTVSPropertyOp18
 70
     1
102
RTVSPropertyOp19
 70
     1
102
RTVSPropertyOp20
 70
     1
102
RTVSPropertyOp21
 70
     1
102
RTVSPropertyOp22
 70
     1
102
RTVSPropertyOp23
 70
     1
102
RTVSPropertyOp24
 70
     1
102
RTVSPropertyOp25
 70
     1
102
RTVSPropertyOp26
 70
     1
102
RTVSPropertyOp27
 70
     1
  0
XRECORD
  5
D88
102
{ACAD_REACTORS
330
D87
102
}
330
D87
100
AcDbXrecord
280
     1
102
RTVSPropertyOp0
 70
     1
102
RTVSPropertyOp1
 70
     1
102
RTVSPropertyOp2
 70
     1
102
RTVSPropertyOp3
 70
     1
102
RTVSPropertyOp4
 70
     1
102
RTVSPropertyOp5
 70
     1
102
RTVSPropertyOp6
 70
     1
102
RTVSPropertyOp7
 70
     1
102
RTVSPropertyOp8
 70
     1
102
RTVSPropertyOp9
 70
     1
102
RTVSPropertyOp10
 70
     1
102
RTVSPropertyOp11
 70
     1
102
RTVSPropertyOp12
 70
     1
102
RTVSPropertyOp13
 70
     1
102
RTVSPropertyOp14
 70
     1
102
RTVSPropertyOp15
 70
     1
102
RTVSPropertyOp16
 70
     1
102
RTVSPropertyOp17
 70
     1
102
RTVSPropertyOp18
 70
     1
102
RTVSPropertyOp19
 70
     1
102
RTVSPropertyOp20
 70
     1
102
RTVSPropertyOp21
 70
     1
102
RTVSPropertyOp22
 70
     1
102
RTVSPropertyOp23
 70
     1
102
RTVSPropertyOp24
 70
     1
102
RTVSPropertyOp25
 70
     1
102
RTVSPropertyOp26
 70
     1
102
RTVSPropertyOp27
 70
     1
  0
XRECORD
  5
D8A
102
{ACAD_REACTORS
330
D89
102
}
330
D89
100
AcDbXrecord
280
     1
102
RTVSPropertyOp0
 70
     1
102
RTVSPropertyOp1
 70
     1
102
RTVSPropertyOp2
 70
     1
102
RTVSPropertyOp3
 70
     1
102
RTVSPropertyOp4
 70
     1
102
RTVSPropertyOp5
 70
     1
102
RTVSPropertyOp6
 70
     1
102
RTVSPropertyOp7
 70
     1
102
RTVSPropertyOp8
 70
     1
102
RTVSPropertyOp9
 70
     1
102
RTVSPropertyOp10
 70
     1
102
RTVSPropertyOp11
 70
     1
102
RTVSPropertyOp12
 70
     1
102
RTVSPropertyOp13
 70
     1
102
RTVSPropertyOp14
 70
     1
102
RTVSPropertyOp15
 70
     1
102
RTVSPropertyOp16
 70
     1
102
RTVSPropertyOp17
 70
     1
102
RTVSPropertyOp18
 70
     1
102
RTVSPropertyOp19
 70
     1
102
RTVSPropertyOp20
 70
     1
102
RTVSPropertyOp21
 70
     1
102
RTVSPropertyOp22
 70
     1
102
RTVSPropertyOp23
 70
     1
102
RTVSPropertyOp24
 70
     1
102
RTVSPropertyOp25
 70
     1
102
RTVSPropertyOp26
 70
     1
102
RTVSPropertyOp27
 70
     1
  0
XRECORD
  5
D92
102
{ACAD_REACTORS
330
D91
102
}
330
D91
100
AcDbXrecord
280
     1
102
RTVSPropertyOp0
 70
     1
102
RTVSPropertyOp1
 70
     1
102
RTVSPropertyOp2
 70
     1
102
RTVSPropertyOp3
 70
     1
102
RTVSPropertyOp4
 70
     1
102
RTVSPropertyOp5
 70
     1
102
RTVSPropertyOp6
 70
     1
102
RTVSPropertyOp7
 70
     1
102
RTVSPropertyOp8
 70
     1
102
RTVSPropertyOp9
 70
     1
102
RTVSPropertyOp10
 70
     1
102
RTVSPropertyOp11
 70
     1
102
RTVSPropertyOp12
 70
     1
102
RTVSPropertyOp13
 70
     1
102
RTVSPropertyOp14
 70
     1
102
RTVSPropertyOp15
 70
     1
102
RTVSPropertyOp16
 70
     1
102
RTVSPropertyOp17
 70
     1
102
RTVSPropertyOp18
 70
     1
102
RTVSPropertyOp19
 70
     1
102
RTVSPropertyOp20
 70
     1
102
RTVSPropertyOp21
 70
     1
102
RTVSPropertyOp22
 70
     1
102
RTVSPropertyOp23
 70
     1
102
RTVSPropertyOp24
 70
     1
102
RTVSPropertyOp25
 70
     1
102
RTVSPropertyOp26
 70
     1
102
RTVSPropertyOp27
 70
     1
  0
XRECORD
  5
D76
102
{ACAD_REACTORS
330
D75
102
}
330
D75
100
AcDbXrecord
280
     1
102
RTVSPropertyOp0
 70
     1
102
RTVSPropertyOp1
 70
     1
102
RTVSPropertyOp2
 70
     1
102
RTVSPropertyOp3
 70
     1
102
RTVSPropertyOp4
 70
     1
102
RTVSPropertyOp5
 70
     1
102
RTVSPropertyOp6
 70
     1
102
RTVSPropertyOp7
 70
     1
102
RTVSPropertyOp8
 70
     1
102
RTVSPropertyOp9
 70
     1
102
RTVSPropertyOp10
 70
     1
102
RTVSPropertyOp11
 70
     1
102
RTVSPropertyOp12
 70
     1
102
RTVSPropertyOp13
 70
     1
102
RTVSPropertyOp14
 70
     1
102
RTVSPropertyOp15
 70
     1
102
RTVSPropertyOp16
 70
     1
102
RTVSPropertyOp17
 70
     1
102
RTVSPropertyOp18
 70
     1
102
RTVSPropertyOp19
 70
     1
102
RTVSPropertyOp20
 70
     1
102
RTVSPropertyOp21
 70
     1
102
RTVSPropertyOp22
 70
     1
102
RTVSPropertyOp23
 70
     1
102
RTVSPropertyOp24
 70
     1
102
RTVSPropertyOp25
 70
     1
102
RTVSPropertyOp26
 70
     1
102
RTVSPropertyOp27
 70
     1
  0
XRECORD
  5
D78
102
{ACAD_REACTORS
330
D77
102
}
330
D77
100
AcDbXrecord
280
     1
102
RTVSPropertyOp0
 70
     1
102
RTVSPropertyOp1
 70
     1
102
RTVSPropertyOp2
 70
     1
102
RTVSPropertyOp3
 70
     1
102
RTVSPropertyOp4
 70
     1
102
RTVSPropertyOp5
 70
     1
102
RTVSPropertyOp6
 70
     1
102
RTVSPropertyOp7
 70
     1
102
RTVSPropertyOp8
 70
     1
102
RTVSPropertyOp9
 70
     1
102
RTVSPropertyOp10
 70
     1
102
RTVSPropertyOp11
 70
     1
102
RTVSPropertyOp12
 70
     1
102
RTVSPropertyOp13
 70
     1
102
RTVSPropertyOp14
 70
     1
102
RTVSPropertyOp15
 70
     1
102
RTVSPropertyOp16
 70
     1
102
RTVSPropertyOp17
 70
     1
102
RTVSPropertyOp18
 70
     1
102
RTVSPropertyOp19
 70
     1
102
RTVSPropertyOp20
 70
     1
102
RTVSPropertyOp21
 70
     1
102
RTVSPropertyOp22
 70
     1
102
RTVSPropertyOp23
 70
     1
102
RTVSPropertyOp24
 70
     1
102
RTVSPropertyOp25
 70
     1
102
RTVSPropertyOp26
 70
     1
102
RTVSPropertyOp27
 70
     1
  0
XRECORD
  5
D7A
102
{ACAD_REACTORS
330
D79
102
}
330
D79
100
AcDbXrecord
280
     1
102
RTVSPropertyOp0
 70
     1
102
RTVSPropertyOp1
 70
     1
102
RTVSPropertyOp2
 70
     1
102
RTVSPropertyOp3
 70
     1
102
RTVSPropertyOp4
 70
     1
102
RTVSPropertyOp5
 70
     1
102
RTVSPropertyOp6
 70
     1
102
RTVSPropertyOp7
 70
     1
102
RTVSPropertyOp8
 70
     1
102
RTVSPropertyOp9
 70
     1
102
RTVSPropertyOp10
 70
     1
102
RTVSPropertyOp11
 70
     1
102
RTVSPropertyOp12
 70
     1
102
RTVSPropertyOp13
 70
     1
102
RTVSPropertyOp14
 70
     1
102
RTVSPropertyOp15
 70
     1
102
RTVSPropertyOp16
 70
     1
102
RTVSPropertyOp17
 70
     1
102
RTVSPropertyOp18
 70
     1
102
RTVSPropertyOp19
 70
     1
102
RTVSPropertyOp20
 70
     1
102
RTVSPropertyOp21
 70
     1
102
RTVSPropertyOp22
 70
     1
102
RTVSPropertyOp23
 70
     1
102
RTVSPropertyOp24
 70
     1
102
RTVSPropertyOp25
 70
     1
102
RTVSPropertyOp26
 70
     1
102
RTVSPropertyOp27
 70
     1
  0
XRECORD
  5
D7C
102
{ACAD_REACTORS
330
D7B
102
}
330
D7B
100
AcDbXrecord
280
     1
102
RTVSPropertyOp0
 70
     1
102
RTVSPropertyOp1
 70
     1
102
RTVSPropertyOp2
 70
     1
102
RTVSPropertyOp3
 70
     1
102
RTVSPropertyOp4
 70
     1
102
RTVSPropertyOp5
 70
     1
102
RTVSPropertyOp6
 70
     1
102
RTVSPropertyOp7
 70
     1
102
RTVSPropertyOp8
 70
     1
102
RTVSPropertyOp9
 70
     1
102
RTVSPropertyOp10
 70
     1
102
RTVSPropertyOp11
 70
     1
102
RTVSPropertyOp12
 70
     1
102
RTVSPropertyOp13
 70
     1
102
RTVSPropertyOp14
 70
     1
102
RTVSPropertyOp15
 70
     1
102
RTVSPropertyOp16
 70
     1
102
RTVSPropertyOp17
 70
     1
102
RTVSPropertyOp18
 70
     1
102
RTVSPropertyOp19
 70
     1
102
RTVSPropertyOp20
 70
     1
102
RTVSPropertyOp21
 70
     1
102
RTVSPropertyOp22
 70
     1
102
RTVSPropertyOp23
 70
     1
102
RTVSPropertyOp24
 70
     1
102
RTVSPropertyOp25
 70
     1
102
RTVSPropertyOp26
 70
     1
102
RTVSPropertyOp27
 70
     1
  0
XRECORD
  5
D90
102
{ACAD_REACTORS
330
D8F
102
}
330
D8F
100
AcDbXrecord
280
     1
102
RTVSPropertyOp0
 70
     1
102
RTVSPropertyOp1
 70
     1
102
RTVSPropertyOp2
 70
     1
102
RTVSPropertyOp3
 70
     1
102
RTVSPropertyOp4
 70
     1
102
RTVSPropertyOp5
 70
     1
102
RTVSPropertyOp6
 70
     1
102
RTVSPropertyOp7
 70
     1
102
RTVSPropertyOp8
 70
     1
102
RTVSPropertyOp9
 70
     1
102
RTVSPropertyOp10
 70
     1
102
RTVSPropertyOp11
 70
     1
102
RTVSPropertyOp12
 70
     1
102
RTVSPropertyOp13
 70
     1
102
RTVSPropertyOp14
 70
     1
102
RTVSPropertyOp15
 70
     1
102
RTVSPropertyOp16
 70
     1
102
RTVSPropertyOp17
 70
     1
102
RTVSPropertyOp18
 70
     1
102
RTVSPropertyOp19
 70
     1
102
RTVSPropertyOp20
 70
     1
102
RTVSPropertyOp21
 70
     1
102
RTVSPropertyOp22
 70
     1
102
RTVSPropertyOp23
 70
     1
102
RTVSPropertyOp24
 70
     1
102
RTVSPropertyOp25
 70
     1
102
RTVSPropertyOp26
 70
     1
102
RTVSPropertyOp27
 70
     1
  0
XRECORD
  5
D86
102
{ACAD_REACTORS
330
D85
102
}
330
D85
100
AcDbXrecord
280
     1
102
RTVSPropertyOp0
 70
     1
102
RTVSPropertyOp1
 70
     1
102
RTVSPropertyOp2
 70
     1
102
RTVSPropertyOp3
 70
     1
102
RTVSPropertyOp4
 70
     1
102
RTVSPropertyOp5
 70
     1
102
RTVSPropertyOp6
 70
     1
102
RTVSPropertyOp7
 70
     1
102
RTVSPropertyOp8
 70
     1
102
RTVSPropertyOp9
 70
     1
102
RTVSPropertyOp10
 70
     1
102
RTVSPropertyOp11
 70
     1
102
RTVSPropertyOp12
 70
     1
102
RTVSPropertyOp13
 70
     1
102
RTVSPropertyOp14
 70
     1
102
RTVSPropertyOp15
 70
     1
102
RTVSPropertyOp16
 70
     1
102
RTVSPropertyOp17
 70
     1
102
RTVSPropertyOp18
 70
     1
102
RTVSPropertyOp19
 70
     1
102
RTVSPropertyOp20
 70
     1
102
RTVSPropertyOp21
 70
     1
102
RTVSPropertyOp22
 70
     1
102
RTVSPropertyOp23
 70
     1
102
RTVSPropertyOp24
 70
     1
102
RTVSPropertyOp25
 70
     1
102
RTVSPropertyOp26
 70
     1
102
RTVSPropertyOp27
 70
     1
  0
XRECORD
  5
D8E
102
{ACAD_REACTORS
330
D8D
102
}
330
D8D
100
AcDbXrecord
280
     1
102
RTVSPropertyOp0
 70
     1
102
RTVSPropertyOp1
 70
     1
102
RTVSPropertyOp2
 70
     1
102
RTVSPropertyOp3
 70
     1
102
RTVSPropertyOp4
 70
     1
102
RTVSPropertyOp5
 70
     1
102
RTVSPropertyOp6
 70
     1
102
RTVSPropertyOp7
 70
     1
102
RTVSPropertyOp8
 70
     1
102
RTVSPropertyOp9
 70
     1
102
RTVSPropertyOp10
 70
     1
102
RTVSPropertyOp11
 70
     1
102
RTVSPropertyOp12
 70
     1
102
RTVSPropertyOp13
 70
     1
102
RTVSPropertyOp14
 70
     1
102
RTVSPropertyOp15
 70
     1
102
RTVSPropertyOp16
 70
     1
102
RTVSPropertyOp17
 70
     1
102
RTVSPropertyOp18
 70
     1
102
RTVSPropertyOp19
 70
     1
102
RTVSPropertyOp20
 70
     1
102
RTVSPropertyOp21
 70
     1
102
RTVSPropertyOp22
 70
     1
102
RTVSPropertyOp23
 70
     1
102
RTVSPropertyOp24
 70
     1
102
RTVSPropertyOp25
 70
     1
102
RTVSPropertyOp26
 70
     1
102
RTVSPropertyOp27
 70
     1
  0
ENDSEC
  0
EOF
