  0
SECTION
  2
HEADER
  9
$ACADVER
  1
AC1015
  9
$ACADMAINTVER
 70
     6
  9
$DWGCODEPAGE
  3
ANSI_1252
  9
$INSBASE
 10
0.0
 20
0.0
 30
0.0
  9
$EXTMIN
 10
0.0
 20
0.0
 30
0.0
  9
$EXTMAX
 10
25.0
 20
35.0
 30
0.0
  9
$LIMMIN
 10
0.0
 20
0.0
  9
$LIMMAX
 10
420.0
 20
297.0
  9
$ORTHOMODE
 70
     0
  9
$REGENMODE
 70
     1
  9
$FILLMODE
 70
     1
  9
$QTEXTMODE
 70
     0
  9
$MIRRTEXT
 70
     1
  9
$LTSCALE
 40
6.5
  9
$ATTMODE
 70
     1
  9
$TEXTSIZE
 40
2.5
  9
$TRACEWID
 40
1.0
  9
$TEXTSTYLE
  7
Standard
  9
$CLAYER
  8
0
  9
$CELTYPE
  6
ByLayer
  9
$CECOLOR
 62
   256
  9
$CELTSCALE
 40
1.0
  9
$DISPSILH
 70
     0
  9
$DIMSCALE
 40
1.0
  9
$DIMASZ
 40
2.5
  9
$DIMEXO
 40
0.625
  9
$DIMDLI
 40
3.75
  9
$DIMRND
 40
0.0
  9
$DIMDLE
 40
0.0
  9
$DIMEXE
 40
1.25
  9
$DIMTP
 40
0.0
  9
$DIMTM
 40
0.0
  9
$DIMTXT
 40
2.5
  9
$DIMCEN
 40
2.5
  9
$DIMTSZ
 40
0.0
  9
$DIMTOL
 70
     0
  9
$DIMLIM
 70
     0
  9
$DIMTIH
 70
     0
  9
$DIMTOH
 70
     0
  9
$DIMSE1
 70
     0
  9
$DIMSE2
 70
     0
  9
$DIMTAD
 70
     1
  9
$DIMZIN
 70
     8
  9
$DIMBLK
  1

  9
$DIMASO
 70
     1
  9
$DIMSHO
 70
     1
  9
$DIMPOST
  1

  9
$DIMAPOST
  1

  9
$DIMALT
 70
     0
  9
$DIMALTD
 70
     3
  9
$DIMALTF
 40
0.03937007874016
  9
$DIMLFAC
 40
1.0
  9
$DIMTOFL
 70
     1
  9
$DIMTVP
 40
0.0
  9
$DIMTIX
 70
     0
  9
$DIMSOXD
 70
     0
  9
$DIMSAH
 70
     0
  9
$DIMBLK1
  1

  9
$DIMBLK2
  1

  9
$DIMSTYLE
  2
ISO-25
  9
$DIMCLRD
 70
     0
  9
$DIMCLRE
 70
     0
  9
$DIMCLRT
 70
     0
  9
$DIMTFAC
 40
1.0
  9
$DIMGAP
 40
0.625
  9
$DIMJUST
 70
     0
  9
$DIMSD1
 70
     0
  9
$DIMSD2
 70
     0
  9
$DIMTOLJ
 70
     0
  9
$DIMTZIN
 70
     8
  9
$DIMALTZ
 70
     0
  9
$DIMALTTZ
 70
     0
  9
$DIMUPT
 70
     0
  9
$DIMDEC
 70
     2
  9
$DIMTDEC
 70
     2
  9
$DIMALTU
 70
     2
  9
$DIMALTTD
 70
     3
  9
$DIMTXSTY
  7
Standard
  9
$DIMAUNIT
 70
     0
  9
$DIMADEC
 70
     0
  9
$DIMALTRND
 40
0.0
  9
$DIMAZIN
 70
     0
  9
$DIMDSEP
 70
    44
  9
$DIMATFIT
 70
     3
  9
$DIMFRAC
 70
     0
  9
$DIMLDRBLK
  1

  9
$DIMLUNIT
 70
     2
  9
$DIMLWD
 70
    -2
  9
$DIMLWE
 70
    -2
  9
$DIMTMOVE
 70
     0
  9
$LUNITS
 70
     2
  9
$LUPREC
 70
     4
  9
$SKETCHINC
 40
1.0
  9
$FILLETRAD
 40
10.0
  9
$AUNITS
 70
     0
  9
$AUPREC
 70
     0
  9
$MENU
  1
.
  9
$ELEVATION
 40
0.0
  9
$PELEVATION
 40
0.0
  9
$THICKNESS
 40
0.0
  9
$LIMCHECK
 70
     0
  9
$CHAMFERA
 40
10.0
  9
$CHAMFERB
 40
10.0
  9
$CHAMFERC
 40
20.0
  9
$CHAMFERD
 40
0.0
  9
$SKPOLY
 70
     0
  9
$TDCREATE
 40
2458993.93125
  9
$TDUCREATE
 40
2458993.847916667
  9
$TDUPDATE
 40
2458993.934722222
  9
$TDUUPDATE
 40
2458993.851388889
  9
$TDINDWG
 40
0.0000000116
  9
$TDUSRTIMER
 40
0.0000000116
  9
$USRTIMER
 70
     1
  9
$ANGBASE
 50
0.0
  9
$ANGDIR
 70
     0
  9
$PDMODE
 70
     0
  9
$PDSIZE
 40
0.0
  9
$PLINEWID
 40
0.0
  9
$SPLFRAME
 70
     0
  9
$SPLINETYPE
 70
     6
  9
$SPLINESEGS
 70
     8
  9
$HANDSEED
  5
DB2
  9
$SURFTAB1
 70
     6
  9
$SURFTAB2
 70
     6
  9
$SURFTYPE
 70
     6
  9
$SURFU
 70
     6
  9
$SURFV
 70
     6
  9
$UCSBASE
  2

  9
$UCSNAME
  2

  9
$UCSORG
 10
0.0
 20
0.0
 30
0.0
  9
$UCSXDIR
 10
1.0
 20
0.0
 30
0.0
  9
$UCSYDIR
 10
0.0
 20
1.0
 30
0.0
  9
$UCSORTHOREF
  2

  9
$UCSORTHOVIEW
 70
     0
  9
$UCSORGTOP
 10
0.0
 20
0.0
 30
0.0
  9
$UCSORGBOTTOM
 10
0.0
 20
0.0
 30
0.0
  9
$UCSORGLEFT
 10
0.0
 20
0.0
 30
0.0
  9
$UCSORGRIGHT
 10
0.0
 20
0.0
 30
0.0
  9
$UCSORGFRONT
 10
0.0
 20
0.0
 30
0.0
  9
$UCSORGBACK
 10
0.0
 20
0.0
 30
0.0
  9
$PUCSBASE
  2

  9
$PUCSNAME
  2

  9
$PUCSORG
 10
0.0
 20
0.0
 30
0.0
  9
$PUCSXDIR
 10
1.0
 20
0.0
 30
0.0
  9
$PUCSYDIR
 10
0.0
 20
1.0
 30
0.0
  9
$PUCSORTHOREF
  2

  9
$PUCSORTHOVIEW
 70
     0
  9
$PUCSORGTOP
 10
0.0
 20
0.0
 30
0.0
  9
$PUCSORGBOTTOM
 10
0.0
 20
0.0
 30
0.0
  9
$PUCSORGLEFT
 10
0.0
 20
0.0
 30
0.0
  9
$PUCSORGRIGHT
 10
0.0
 20
0.0
 30
0.0
  9
$PUCSORGFRONT
 10
0.0
 20
0.0
 30
0.0
  9
$PUCSORGBACK
 10
0.0
 20
0.0
 30
0.0
  9
$USERI1
 70
     0
  9
$USERI2
 70
     0
  9
$USERI3
 70
     0
  9
$USERI4
 70
     0
  9
$USERI5
 70
     0
  9
$USERR1
 40
0.0
  9
$USERR2
 40
0.0
  9
$USERR3
 40
0.0
  9
$USERR4
 40
0.0
  9
$USERR5
 40
0.0
  9
$WORLDVIEW
 70
     1
  9
$SHADEDGE
 70
     3
  9
$SHADEDIF
 70
    70
  9
$TILEMODE
 70
     1
  9
$MAXACTVP
 70
    64
  9
$PINSBASE
 10
0.0
 20
0.0
 30
0.0
  9
$PLIMCHECK
 70
     0
  9
$PEXTMIN
 10
1.000000000000000E+20
 20
1.000000000000000E+20
 30
1.000000000000000E+20
  9
$PEXTMAX
 10
-1.000000000000000E+20
 20
-1.000000000000000E+20
 30
-1.000000000000000E+20
  9
$PLIMMIN
 10
0.0
 20
0.0
  9
$PLIMMAX
 10
420.0
 20
297.0
  9
$UNITMODE
 70
     0
  9
$VISRETAIN
 70
     1
  9
$PLINEGEN
 70
     0
  9
$PSLTSCALE
 70
     1
  9
$TREEDEPTH
 70
  3020
  9
$CMLSTYLE
  2
Standard
  9
$CMLJUST
 70
     0
  9
$CMLSCALE
 40
20.0
  9
$PROXYGRAPHICS
 70
     1
  9
$MEASUREMENT
 70
     1
  9
$CELWEIGHT
370
    -1
  9
$ENDCAPS
280
     0
  9
$JOINSTYLE
280
     0
  9
$LWDISPLAY
290
     0
  9
$INSUNITS
 70
     4
  9
$HYPERLINKBASE
  1

  9
$STYLESHEET
  1

  9
$XEDIT
290
     1
  9
$CEPSNTYPE
380
     0
  9
$PSTYLEMODE
290
     1
  9
$FINGERPRINTGUID
  2
{E3ACAE87-4A70-4D37-9D5A-57048BA37697}
  9
$VERSIONGUID
  2
{FAEB1C32-E019-11D5-929B-00C0DF256EC4}
  9
$EXTNAMES
290
     1
  9
$PSVPSCALE
 40
0.0
  9
$OLESTARTUP
290
     0
  0
ENDSEC
  0
SECTION
  2
CLASSES
  0
CLASS
  1
ACDBDICTIONARYWDFLT
  2
AcDbDictionaryWithDefault
  3
ObjectDBX Classes
 90
        0
280
     0
281
     0
  0
CLASS
  1
VISUALSTYLE
  2
AcDbVisualStyle
  3
ObjectDBX Classes
 90
     4095
280
     0
281
     0
  0
CLASS
  1
MATERIAL
  2
AcDbMaterial
  3
ObjectDBX Classes
 90
     1153
280
     0
281
     0
  0
CLASS
  1
SCALE
  2
AcDbScale
  3
ObjectDBX Classes
 90
     1153
280
     0
281
     0
  0
CLASS
  1
DICTIONARYVAR
  2
AcDbDictionaryVar
  3
ObjectDBX Classes
 90
        0
280
     0
281
     0
  0
CLASS
  1
ACDBPLACEHOLDER
  2
AcDbPlaceHolder
  3
ObjectDBX Classes
 90
        0
280
     0
281
     0
  0
CLASS
  1
LAYOUT
  2
AcDbLayout
  3
ObjectDBX Classes
 90
        0
280
     0
281
     0
  0
ENDSEC
  0
SECTION
  2
TABLES
  0
TABLE
  2
VPORT
  5
8
330
0
100
AcDbSymbolTable
 70
     1
  0
VPORT
  5
29
330
8
100
AcDbSymbolTableRecord
100
AcDbViewportTableRecord
  2
*Active
 70
     0
 10
0.0
 20
0.0
 11
1.0
 21
1.0
 12
11.26
 22
4.5
 13
0.0
 23
0.0
 14
10.0
 24
10.0
 15
10.0
 25
10.0
 16
0.0
 26
0.0
 36
1.0
 17
0.0
 27
0.0
 37
0.0
 40
9.0
 41
2.503333333333333
 42
50.0
 43
0.0
 44
0.0
 50
0.0
 51
0.0
 71
     0
 72
   100
 73
     1
 74
     3
 75
     0
 76
     0
 77
     0
 78
     0
281
     0
 65
     1
110
0.0
120
0.0
130
0.0
111
1.0
121
0.0
131
0.0
112
0.0
122
1.0
132
0.0
 79
     0
146
0.0
  0
ENDTAB
  0
TABLE
  2
LTYPE
  5
5
330
0
100
AcDbSymbolTable
 70
     9
  0
LTYPE
  5
14
330
5
100
AcDbSymbolTableRecord
100
AcDbLinetypeTableRecord
  2
ByBlock
 70
     0
  3

 72
    65
 73
     0
 40
0.0
  0
LTYPE
  5
15
330
5
100
AcDbSymbolTableRecord
100
AcDbLinetypeTableRecord
  2
ByLayer
 70
     0
  3

 72
    65
 73
     0
 40
0.0
  0
LTYPE
  5
16
330
5
100
AcDbSymbolTableRecord
100
AcDbLinetypeTableRecord
  2
Continuous
 70
     0
  3
Solid line
 72
    65
 73
     0
 40
0.0
  0
LTYPE
  5
45
330
5
100
AcDbSymbolTableRecord
100
AcDbLinetypeTableRecord
  2
phl_thick
 70
     0
  3
THICK
 72
    65
 73
     0
 40
0.0
  0
LTYPE
  5
3F2
330
5
100
AcDbSymbolTableRecord
100
AcDbLinetypeTableRecord
  2
DASH
 70
     0
  3
THIN_DASHED
 72
    65
 73
     2
 40
0.75
 49
0.4
 74
     0
 49
-0.35
 74
     0
  0
LTYPE
  5
400
330
5
100
AcDbSymbolTableRecord
100
AcDbLinetypeTableRecord
  2
ls_2
 70
     0
  3
THIN
 72
    65
 73
     0
 40
0.0
  0
LTYPE
  5
466
330
5
100
AcDbSymbolTableRecord
100
AcDbLinetypeTableRecord
  2
CUT
 70
     0
  3
THICK
 72
    65
 73
     0
 40
0.0
  0
LTYPE
  5
478
330
5
100
AcDbSymbolTableRecord
100
AcDbLinetypeTableRecord
  2
NOCUT
 70
     0
  3
THICK
 72
    65
 73
     0
 40
0.0
  0
LTYPE
  5
5DE
330
5
100
AcDbSymbolTableRecord
100
AcDbLinetypeTableRecord
  2
ls_SK2
 70
     0
  3
THIN
 72
    65
 73
     0
 40
0.0
  0
LTYPE
  5
683
330
5
100
AcDbSymbolTableRecord
100
AcDbLinetypeTableRecord
  2
ls_SK1
 70
     0
  3
THICK
 72
    65
 73
     0
 40
0.0
  0
LTYPE
  5
6FA
330
5
100
AcDbSymbolTableRecord
100
AcDbLinetypeTableRecord
  2
LONGDASH_DASH
 70
     0
  3
THIN_DASHDOT
 72
    65
 73
     4
 40
0.85
 49
0.4
 74
     0
 49
-0.2
 74
     0
 49
0.05
 74
     0
 49
-0.2
 74
     0
  0
ENDTAB
  0
TABLE
  2
LAYER
  5
2
330
0
100
AcDbSymbolTable
 70
    10
  0
LAYER
  5
10
330
2
100
AcDbSymbolTableRecord
100
AcDbLayerTableRecord
  2
0
 70
     0
 62
     7
  6
Continuous
370
    -3
390
F
  0
LAYER
  5
44
330
2
100
AcDbSymbolTableRecord
100
AcDbLayerTableRecord
  2
1
 70
     0
 62
4
  6
CONTINUOUS
370
50
370
    -3
390
F
  0
LAYER
  5
3F1
330
2
100
AcDbSymbolTableRecord
100
AcDbLayerTableRecord
  2
SK3
 70
     0
 62
1
  6
DASH
370
35
370
    -3
390
F
  0
LAYER
  5
3FF
330
2
100
AcDbSymbolTableRecord
100
AcDbLayerTableRecord
  2
2
 70
     0
 62
7
  6
CONTINUOUS
370
25
370
    -3
390
F
  0
LAYER
  5
465
330
2
100
AcDbSymbolTableRecord
100
AcDbLayerTableRecord
  2
CUT
 70
     0
 62
1
  6
CONTINUOUS
370
25
370
    -3
390
F
  0
LAYER
  5
477
330
2
100
AcDbSymbolTableRecord
100
AcDbLayerTableRecord
  2
NOCUT
 70
     0
 62
7
  6
CONTINUOUS
370
25
370
    -3
390
F
  0
LAYER
  5
5DD
330
2
100
AcDbSymbolTableRecord
100
AcDbLayerTableRecord
  2
SK2
 70
     0
 62
7
  6
CONTINUOUS
370
25
370
    -3
390
F
  0
LAYER
  5
682
330
2
100
AcDbSymbolTableRecord
100
AcDbLayerTableRecord
  2
SK1
 70
     0
 62
4
  6
CONTINUOUS
370
50
370
    -3
390
F
  0
LAYER
  5
6F9
330
2
100
AcDbSymbolTableRecord
100
AcDbLayerTableRecord
  2
4
 70
     0
 62
2
  6
LONGDASH_DASH
370
25
370
    -3
390
F
  0
LAYER
  5
6FC
330
2
100
AcDbSymbolTableRecord
100
AcDbLayerTableRecord
  2
SK4
 70
     0
 62
2
  6
LONGDASH_DASH
370
25
370
    -3
390
F
  0
ENDTAB
  0
TABLE
  2
STYLE
  5
3
330
0
100
AcDbSymbolTable
 70
     1
  0
STYLE
  5
11
330
3
100
AcDbSymbolTableRecord
100
AcDbTextStyleTableRecord
  2
Standard
 70
     0
 40
0.0
 41
1.0
 50
0.0
 71
     0
 42
2.5
  3
Monospac821 BT
  4

  0
ENDTAB
  0
TABLE
  2
VIEW
  5
6
330
0
100
AcDbSymbolTable
 70
     0
  0
ENDTAB
  0
TABLE
  2
UCS
  5
7
330
0
100
AcDbSymbolTable
 70
     0
  0
ENDTAB
  0
TABLE
  2
APPID
  5
9
330
0
100
AcDbSymbolTable
 70
     2
  0
APPID
  5
12
330
9
100
AcDbSymbolTableRecord
100
AcDbRegAppTableRecord
  2
ACAD
 70
     0
  0
APPID
  5
3F
330
9
100
AcDbSymbolTableRecord
100
AcDbRegAppTableRecord
  2
ccLab
 70
     0
  0
ENDTAB
  0
TABLE
  2
DIMSTYLE
  5
A
330
0
100
AcDbSymbolTable
 70
     1
100
AcDbDimStyleTable
  0
DIMSTYLE
105
27
330
A
100
AcDbSymbolTableRecord
100
AcDbDimStyleTableRecord
  2
ISO-25
 70
     0
 41
2.5
 42
0.625
 43
3.75
 44
1.25
 73
     0
 74
     0
 77
     1
 78
     8
140
2.5
141
2.5
143
0.03937007874016
147
0.625
171
     3
172
     1
271
     2
272
     2
274
     3
278
    44
283
     0
284
     8
340
11
  0
ENDTAB
  0
TABLE
  2
BLOCK_RECORD
  5
1
330
0
100
AcDbSymbolTable
 70
     2
  0
BLOCK_RECORD
  5
1F
330
1
100
AcDbSymbolTableRecord
100
AcDbBlockTableRecord
  2
*Model_Space
340
22
  0
BLOCK_RECORD
  5
1B
330
1
100
AcDbSymbolTableRecord
100
AcDbBlockTableRecord
  2
*Paper_Space
340
1E
  0
BLOCK_RECORD
  5
23
330
1
100
AcDbSymbolTableRecord
100
AcDbBlockTableRecord
  2
*Paper_Space0
340
26
  0
ENDTAB
  0
ENDSEC
  0
SECTION
  2
BLOCKS
  0
BLOCK
  5
20
330
1F
100
AcDbEntity
  8
0
100
AcDbBlockBegin
  2
*Model_Space
 70
     0
 10
0.0
 20
0.0
 30
0.0
  3
*Model_Space
  1

  0
ENDBLK
  5
21
330
1F
100
AcDbEntity
  8
0
100
AcDbBlockEnd
  0
BLOCK
  5
1C
330
1B
100
AcDbEntity
 67
     1
  8
0
100
AcDbBlockBegin
  2
*Paper_Space
 70
     0
 10
0.0
 20
0.0
 30
0.0
  3
*Paper_Space
  1

  0
ENDBLK
  5
1D
330
1B
100
AcDbEntity
 67
     1
  8
0
100
AcDbBlockEnd
  0
BLOCK
  5
24
330
23
100
AcDbEntity
  8
0
100
AcDbBlockBegin
  2
*Paper_Space0
 70
     0
 10
0.0
 20
0.0
 30
0.0
  3
*Paper_Space0
  1

  0
ENDBLK
  5
25
330
23
100
AcDbEntity
  8
0
100
AcDbBlockEnd
  0
ENDSEC
  0
SECTION
  2
ENTITIES
  0
LINE
  5
6FD
330
1F
100
AcDbEntity
  8
1
  6
CONTINUOUS
370
50
 62
4
100
AcDbLine
 10
33.000092
 20
45.742329
 30
0.0
 11
32.999897
 21
46.892929
 31
0.0
  0
LINE
  5
6FE
330
1F
100
AcDbEntity
  8
1
  6
CONTINUOUS
370
50
 62
4
100
AcDbLine
 10
32.939213
 20
45.742916
 30
0.0
 11
32.939026
 21
46.839005
 31
0.0
  0
LINE
  5
6FF
330
1F
100
AcDbEntity
  8
1
  6
CONTINUOUS
370
50
 62
4
100
AcDbLine
 10
22.546846
 20
44.130539
 30
0.0
 11
22.546812
 21
44.328815
 31
0.0
  0
LINE
  5
700
330
1F
100
AcDbEntity
  8
1
  6
CONTINUOUS
370
50
 62
4
100
AcDbLine
 10
32.940102
 20
29.24305
 30
0.0
 11
32.939026
 21
33.561954
 31
0.0
  0
LINE
  5
701
330
1F
100
AcDbEntity
  8
1
  6
CONTINUOUS
370
50
 62
4
100
AcDbLine
 10
33.000717
 20
31.995478
 30
0.0
 11
33.000317
 21
33.598499
 31
0.0
  0
LINE
  5
702
330
1F
100
AcDbEntity
  8
1
  6
CONTINUOUS
370
50
 62
4
100
AcDbLine
 10
22.546886
 20
31.645334
 30
0.0
 11
22.546812
 21
31.936577
 31
0.0
  0
LINE
  5
703
330
1F
100
AcDbEntity
  8
1
  6
CONTINUOUS
370
50
 62
4
100
AcDbLine
 10
32.940102
 20
12.182158
 30
0.0
 11
32.939026
 21
13.637547
 31
0.0
  0
LINE
  5
704
330
1F
100
AcDbEntity
  8
1
  6
CONTINUOUS
370
50
 62
4
100
AcDbLine
 10
22.547064
 20
12.87942
 30
0.0
 11
22.546812
 21
13.218908
 31
0.0
  0
LINE
  5
705
330
1F
100
AcDbEntity
  8
1
  6
CONTINUOUS
370
50
 62
4
100
AcDbLine
 10
42.578201
 20
-8.328016
 30
0.0
 11
42.576199
 21
-7.992799
 31
0.0
  0
LINE
  5
706
330
1F
100
AcDbEntity
  8
1
  6
CONTINUOUS
370
50
 62
4
100
AcDbLine
 10
42.580036
 20
7.783128
 30
0.0
 11
42.576199
 21
8.178607999999999
 31
0.0
  0
LINE
  5
707
330
1F
100
AcDbEntity
  8
1
  6
CONTINUOUS
370
50
 62
4
100
AcDbLine
 10
22.554653
 20
-8.698058999999999
 30
0.0
 11
22.54546
 21
-8.277822
 31
0.0
  0
LINE
  5
708
330
1F
100
AcDbEntity
  8
1
  6
CONTINUOUS
370
50
 62
4
100
AcDbLine
 10
22.555103
 20
12.648743
 30
0.0
 11
22.545372
 21
13.051552
 31
0.0
  0
LINE
  5
709
330
1F
100
AcDbEntity
  8
1
  6
CONTINUOUS
370
50
 62
4
100
AcDbLine
 10
22.55525
 20
-28.339367
 30
0.0
 11
22.545502
 21
-27.98176
 31
0.0
  0
LINE
  5
70A
330
1F
100
AcDbEntity
  8
1
  6
CONTINUOUS
370
50
 62
4
100
AcDbLine
 10
22.55541
 20
31.493948
 30
0.0
 11
22.545504
 21
31.80541
 31
0.0
  0
LINE
  5
70B
330
1F
100
AcDbEntity
  8
1
  6
CONTINUOUS
370
50
 62
4
100
AcDbLine
 10
42.593716
 20
-8.669628
 30
0.0
 11
42.578201
 21
-8.328016
 31
0.0
  0
LINE
  5
70C
330
1F
100
AcDbEntity
  8
1
  6
CONTINUOUS
370
50
 62
4
100
AcDbLine
 10
22.559084
 20
-42.399361
 30
0.0
 11
22.545502
 21
-42.138283
 31
0.0
  0
LINE
  5
70D
330
1F
100
AcDbEntity
  8
1
  6
CONTINUOUS
370
50
 62
4
100
AcDbLine
 10
44.255089
 20
6.021264
 30
0.0
 11
44.240116
 21
6.283933999999999
 31
0.0
  0
LINE
  5
70E
330
1F
100
AcDbEntity
  8
1
  6
CONTINUOUS
370
50
 62
4
100
AcDbLine
 10
42.602852
 20
7.389075999999999
 30
0.0
 11
42.580036
 21
7.783128
 31
0.0
  0
LINE
  5
70F
330
1F
100
AcDbEntity
  8
1
  6
CONTINUOUS
370
50
 62
4
100
AcDbLine
 10
44.269154
 20
-11.455733
 30
0.0
 11
44.240116
 21
-10.960376
 31
0.0
  0
LINE
  5
710
330
1F
100
AcDbEntity
  8
1
  6
CONTINUOUS
370
50
 62
4
100
AcDbLine
 10
44.271332
 20
5.758357
 30
0.0
 11
44.255089
 21
6.021264
 31
0.0
  0
LINE
  5
711
330
1F
100
AcDbEntity
  8
1
  6
CONTINUOUS
370
50
 62
4
100
AcDbLine
 10
22.555359
 20
44.107868
 30
0.0
 11
22.545504
 21
44.260281
 31
0.0
  0
LINE
  5
712
330
1F
100
AcDbEntity
  8
1
  6
CONTINUOUS
370
50
 62
4
100
AcDbLine
 10
22.582436
 20
-9.120512
 30
0.0
 11
22.554653
 21
-8.698058999999999
 31
0.0
  0
LINE
  5
713
330
1F
100
AcDbEntity
  8
1
  6
CONTINUOUS
370
50
 62
4
100
AcDbLine
 10
44.28884499999999
 20
5.495194
 30
0.0
 11
44.271332
 21
5.758357
 31
0.0
  0
LINE
  5
714
330
1F
100
AcDbEntity
  8
1
  6
CONTINUOUS
370
50
 62
4
100
AcDbLine
 10
44.302628
 20
-11.951984
 30
0.0
 11
44.269154
 21
-11.455733
 31
0.0
  0
LINE
  5
715
330
1F
100
AcDbEntity
  8
1
  6
CONTINUOUS
370
50
 62
4
100
AcDbLine
 10
44.307629
 20
5.231755
 30
0.0
 11
44.28884499999999
 21
5.495194
 31
0.0
  0
LINE
  5
716
330
1F
100
AcDbEntity
  8
1
  6
CONTINUOUS
370
50
 62
4
100
AcDbLine
 10
22.583464
 20
12.2517
 30
0.0
 11
22.555103
 21
12.648743
 31
0.0
  0
LINE
  5
717
330
1F
100
AcDbEntity
  8
1
  6
CONTINUOUS
370
50
 62
4
100
AcDbLine
 10
44.32769
 20
4.968021999999999
 30
0.0
 11
44.307629
 21
5.231755
 31
0.0
  0
LINE
  5
718
330
1F
100
AcDbEntity
  8
1
  6
CONTINUOUS
370
50
 62
4
100
AcDbLine
 10
44.340565
 20
-12.449257
 30
0.0
 11
44.302628
 21
-11.951984
 31
0.0
  0
LINE
  5
719
330
1F
100
AcDbEntity
  8
1
  6
CONTINUOUS
370
50
 62
4
100
AcDbLine
 10
22.583443
 20
-28.707783
 30
0.0
 11
22.55525
 21
-28.339367
 31
0.0
  0
LINE
  5
71A
330
1F
100
AcDbEntity
  8
1
  6
CONTINUOUS
370
50
 62
4
100
AcDbLine
 10
44.34903
 20
4.703975
 30
0.0
 11
44.32769
 21
4.968021999999999
 31
0.0
  0
LINE
  5
71B
330
1F
100
AcDbEntity
  8
1
  6
CONTINUOUS
370
50
 62
4
100
AcDbLine
 10
42.622902
 20
-9.017298
 30
0.0
 11
42.593716
 21
-8.669628
 31
0.0
  0
LINE
  5
71C
330
1F
100
AcDbEntity
  8
1
  6
CONTINUOUS
370
50
 62
4
100
AcDbLine
 10
44.382977
 20
-12.947681
 30
0.0
 11
44.340565
 21
-12.449257
 31
0.0
  0
LINE
  5
71D
330
1F
100
AcDbEntity
  8
1
  6
CONTINUOUS
370
50
 62
4
100
AcDbLine
 10
44.42989
 20
-13.447387
 30
0.0
 11
44.382977
 21
-12.947681
 31
0.0
  0
LINE
  5
71E
330
1F
100
AcDbEntity
  8
1
  6
CONTINUOUS
370
50
 62
4
100
AcDbLine
 10
22.58374
 20
31.206245
 30
0.0
 11
22.55541
 21
31.493948
 31
0.0
  0
LINE
  5
71F
330
1F
100
AcDbEntity
  8
1
  6
CONTINUOUS
370
50
 62
4
100
AcDbLine
 10
44.481323
 20
-13.948504
 30
0.0
 11
44.42989
 21
-13.447387
 31
0.0
  0
LINE
  5
720
330
1F
100
AcDbEntity
  8
1
  6
CONTINUOUS
370
50
 62
4
100
AcDbLine
 10
42.644913
 20
6.998310999999999
 30
0.0
 11
42.602852
 21
7.389075999999999
 31
0.0
  0
LINE
  5
721
330
1F
100
AcDbEntity
  8
1
  6
CONTINUOUS
370
50
 62
4
100
AcDbLine
 10
22.628384
 20
-9.546849
 30
0.0
 11
22.582436
 21
-9.120512
 31
0.0
  0
LINE
  5
722
330
1F
100
AcDbEntity
  8
1
  6
CONTINUOUS
370
50
 62
4
100
AcDbLine
 10
22.630272
 20
11.863081
 30
0.0
 11
22.583464
 21
12.2517
 31
0.0
  0
LINE
  5
723
330
1F
100
AcDbEntity
  8
1
  6
CONTINUOUS
370
50
 62
4
100
AcDbLine
 10
22.629492
 20
-29.087585
 30
0.0
 11
22.583443
 21
-28.707783
 31
0.0
  0
LINE
  5
724
330
1F
100
AcDbEntity
  8
1
  6
CONTINUOUS
370
50
 62
4
100
AcDbLine
 10
42.66592
 20
-9.368996
 30
0.0
 11
42.622902
 21
-9.017298
 31
0.0
  0
LINE
  5
725
330
1F
100
AcDbEntity
  8
1
  6
CONTINUOUS
370
50
 62
4
100
AcDbLine
 10
22.59824
 20
-42.689949
 30
0.0
 11
22.559084
 21
-42.399361
 31
0.0
  0
LINE
  5
726
330
1F
100
AcDbEntity
  8
1
  6
CONTINUOUS
370
50
 62
4
100
AcDbLine
 10
7.342
 20
-34.535542
 30
0.0
 11
7.341228
 21
-34.529892
 31
0.0
  0
LINE
  5
727
330
1F
100
AcDbEntity
  8
1
  6
CONTINUOUS
370
50
 62
4
100
AcDbLine
 10
22.691959
 20
-9.974726
 30
0.0
 11
22.628384
 21
-9.546849
 31
0.0
  0
LINE
  5
728
330
1F
100
AcDbEntity
  8
1
  6
CONTINUOUS
370
50
 62
4
100
AcDbLine
 10
7.342
 20
-34.535542
 30
0.0
 11
7.341015
 21
-34.529152
 31
0.0
  0
LINE
  5
729
330
1F
100
AcDbEntity
  8
1
  6
CONTINUOUS
370
50
 62
4
100
AcDbLine
 10
42.706429
 20
6.61435
 30
0.0
 11
42.644913
 21
6.998310999999999
 31
0.0
  0
LINE
  5
72A
330
1F
100
AcDbEntity
  8
1
  6
CONTINUOUS
370
50
 62
4
100
AcDbLine
 10
42.72279
 20
-9.722707999999999
 30
0.0
 11
42.66592
 21
-9.368996
 31
0.0
  0
LINE
  5
72B
330
1F
100
AcDbEntity
  8
1
  6
CONTINUOUS
370
50
 62
4
100
AcDbLine
 10
22.692856
 20
-29.479912
 30
0.0
 11
22.629492
 21
-29.087585
 31
0.0
  0
LINE
  5
72C
330
1F
100
AcDbEntity
  8
1
  6
CONTINUOUS
370
50
 62
4
100
AcDbLine
 10
22.695164
 20
11.485393
 30
0.0
 11
22.630272
 21
11.863081
 31
0.0
  0
LINE
  5
72D
330
1F
100
AcDbEntity
  8
1
  6
CONTINUOUS
370
50
 62
4
100
AcDbLine
 10
22.629913
 20
30.940628
 30
0.0
 11
22.58374
 21
31.206245
 31
0.0
  0
LINE
  5
72E
330
1F
100
AcDbEntity
  8
1
  6
CONTINUOUS
370
50
 62
4
100
AcDbLine
 10
22.772579
 20
-10.401814
 30
0.0
 11
22.691959
 21
-9.974726
 31
0.0
  0
LINE
  5
72F
330
1F
100
AcDbEntity
  8
1
  6
CONTINUOUS
370
50
 62
4
100
AcDbLine
 10
22.772781
 20
-29.882757
 30
0.0
 11
22.692856
 21
-29.479912
 31
0.0
  0
LINE
  5
730
330
1F
100
AcDbEntity
  8
1
  6
CONTINUOUS
370
50
 62
4
100
AcDbLine
 10
42.793011
 20
-10.076465
 30
0.0
 11
42.72279
 21
-9.722707999999999
 31
0.0
  0
LINE
  5
731
330
1F
100
AcDbEntity
  8
1
  6
CONTINUOUS
370
50
 62
4
100
AcDbLine
 10
22.6621
 20
-43.010773
 30
0.0
 11
22.59824
 21
-42.689949
 31
0.0
  0
LINE
  5
732
330
1F
100
AcDbEntity
  8
1
  6
CONTINUOUS
370
50
 62
4
100
AcDbLine
 10
42.786877
 20
6.240279999999999
 30
0.0
 11
42.706429
 21
6.61435
 31
0.0
  0
LINE
  5
733
330
1F
100
AcDbEntity
  8
1
  6
CONTINUOUS
370
50
 62
4
100
AcDbLine
 10
22.777077
 20
11.120583
 30
0.0
 11
22.695164
 21
11.485393
 31
0.0
  0
LINE
  5
734
330
1F
100
AcDbEntity
  8
1
  6
CONTINUOUS
370
50
 62
4
100
AcDbLine
 10
22.869188
 20
-10.825948
 30
0.0
 11
22.772579
 21
-10.401814
 31
0.0
  0
LINE
  5
735
330
1F
100
AcDbEntity
  8
1
  6
CONTINUOUS
370
50
 62
4
100
AcDbLine
 10
22.583645
 20
43.98402
 30
0.0
 11
22.555359
 21
44.107868
 31
0.0
  0
LINE
  5
736
330
1F
100
AcDbEntity
  8
1
  6
CONTINUOUS
370
50
 62
4
100
AcDbLine
 10
22.8685
 20
-30.294123
 30
0.0
 11
22.772781
 21
-29.882757
 31
0.0
  0
LINE
  5
737
330
1F
100
AcDbEntity
  8
1
  6
CONTINUOUS
370
50
 62
4
100
AcDbLine
 10
42.87595
 20
-10.428308
 30
0.0
 11
42.793011
 21
-10.076465
 31
0.0
  0
LINE
  5
738
330
1F
100
AcDbEntity
  8
1
  6
CONTINUOUS
370
50
 62
4
100
AcDbLine
 10
22.749561
 20
-43.360271
 30
0.0
 11
22.6621
 21
-43.010773
 31
0.0
  0
LINE
  5
739
330
1F
100
AcDbEntity
  8
1
  6
CONTINUOUS
370
50
 62
4
100
AcDbLine
 10
22.554512
 20
-47.98266599999999
 30
0.0
 11
22.545424
 21
-47.947495
 31
0.0
  0
LINE
  5
73A
330
1F
100
AcDbEntity
  8
1
  6
CONTINUOUS
370
50
 62
4
100
AcDbLine
 10
22.693384
 20
30.695169
 30
0.0
 11
22.629913
 21
30.940628
 31
0.0
  0
LINE
  5
73B
330
1F
100
AcDbEntity
  8
1
  6
CONTINUOUS
370
50
 62
4
100
AcDbLine
 10
22.978979
 20
-30.711954
 30
0.0
 11
22.8685
 21
-30.294123
 31
0.0
  0
LINE
  5
73C
330
1F
100
AcDbEntity
  8
1
  6
CONTINUOUS
370
50
 62
4
100
AcDbLine
 10
22.980494
 20
-11.245041
 30
0.0
 11
22.869188
 21
-10.825948
 31
0.0
  0
LINE
  5
73D
330
1F
100
AcDbEntity
  8
1
  6
CONTINUOUS
370
50
 62
4
100
AcDbLine
 10
42.885223
 20
5.878877
 30
0.0
 11
42.786877
 21
6.240279999999999
 31
0.0
  0
LINE
  5
73E
330
1F
100
AcDbEntity
  8
1
  6
CONTINUOUS
370
50
 62
4
100
AcDbLine
 10
42.970982
 20
-10.77633
 30
0.0
 11
42.87595
 21
-10.428308
 31
0.0
  0
LINE
  5
73F
330
1F
100
AcDbEntity
  8
1
  6
CONTINUOUS
370
50
 62
4
100
AcDbLine
 10
22.874784
 20
10.770466
 30
0.0
 11
22.777077
 21
11.120583
 31
0.0
  0
LINE
  5
740
330
1F
100
AcDbEntity
  8
1
  6
CONTINUOUS
370
50
 62
4
100
AcDbLine
 10
22.859373
 20
-43.735542
 30
0.0
 11
22.749561
 21
-43.360271
 31
0.0
  0
LINE
  5
741
330
1F
100
AcDbEntity
  8
1
  6
CONTINUOUS
370
50
 62
4
100
AcDbLine
 10
23.102959
 20
-31.134142
 30
0.0
 11
22.978979
 21
-30.711954
 31
0.0
  0
LINE
  5
742
330
1F
100
AcDbEntity
  8
1
  6
CONTINUOUS
370
50
 62
4
100
AcDbLine
 10
23.1052
 20
-11.65703
 30
0.0
 11
22.980494
 21
-11.245041
 31
0.0
  0
LINE
  5
743
330
1F
100
AcDbEntity
  8
1
  6
CONTINUOUS
370
50
 62
4
100
AcDbLine
 10
43.07724
 20
-11.118985
 30
0.0
 11
42.970982
 21
-10.77633
 31
0.0
  0
LINE
  5
744
330
1F
100
AcDbEntity
  8
1
  6
CONTINUOUS
370
50
 62
4
100
AcDbLine
 10
23.239164
 20
-31.558577
 30
0.0
 11
23.102959
 21
-31.134142
 31
0.0
  0
LINE
  5
745
330
1F
100
AcDbEntity
  8
1
  6
CONTINUOUS
370
50
 62
4
100
AcDbLine
 10
22.989935
 20
-44.133385
 30
0.0
 11
22.859373
 21
-43.735542
 31
0.0
  0
LINE
  5
746
330
1F
100
AcDbEntity
  8
1
  6
CONTINUOUS
370
50
 62
4
100
AcDbLine
 10
43.000408
 20
5.532763
 30
0.0
 11
42.885223
 21
5.878877
 31
0.0
  0
LINE
  5
747
330
1F
100
AcDbEntity
  8
1
  6
CONTINUOUS
370
50
 62
4
100
AcDbLine
 10
22.987022
 20
10.43665
 30
0.0
 11
22.874784
 21
10.770466
 31
0.0
  0
LINE
  5
748
330
1F
100
AcDbEntity
  8
1
  6
CONTINUOUS
370
50
 62
4
100
AcDbLine
 10
23.241894
 20
-12.060247
 30
0.0
 11
23.1052
 21
-11.65703
 31
0.0
  0
LINE
  5
749
330
1F
100
AcDbEntity
  8
1
  6
CONTINUOUS
370
50
 62
4
100
AcDbLine
 10
23.386318
 20
-31.983257
 30
0.0
 11
23.239164
 21
-31.558577
 31
0.0
  0
LINE
  5
74A
330
1F
100
AcDbEntity
  8
1
  6
CONTINUOUS
370
50
 62
4
100
AcDbLine
 10
43.193573
 20
-11.454637
 30
0.0
 11
43.07724
 21
-11.118985
 31
0.0
  0
LINE
  5
74B
330
1F
100
AcDbEntity
  8
1
  6
CONTINUOUS
370
50
 62
4
100
AcDbLine
 10
22.773399
 20
30.470415
 30
0.0
 11
22.693384
 21
30.695169
 31
0.0
  0
LINE
  5
74C
330
1F
100
AcDbEntity
  8
1
  6
CONTINUOUS
370
50
 62
4
100
AcDbLine
 10
23.139183
 20
-44.550179
 30
0.0
 11
22.989935
 21
-44.133385
 31
0.0
  0
LINE
  5
74D
330
1F
100
AcDbEntity
  8
1
  6
CONTINUOUS
370
50
 62
4
100
AcDbLine
 10
23.542963
 20
-32.406303
 30
0.0
 11
23.386318
 21
-31.983257
 31
0.0
  0
LINE
  5
74E
330
1F
100
AcDbEntity
  8
1
  6
CONTINUOUS
370
50
 62
4
100
AcDbLine
 10
23.388901
 20
-12.453118
 30
0.0
 11
23.241894
 21
-12.060247
 31
0.0
  0
LINE
  5
74F
330
1F
100
AcDbEntity
  8
1
  6
CONTINUOUS
370
50
 62
4
100
AcDbLine
 10
43.318817
 20
-11.78161
 30
0.0
 11
43.193573
 21
-11.454637
 31
0.0
  0
LINE
  5
750
330
1F
100
AcDbEntity
  8
1
  6
CONTINUOUS
370
50
 62
4
100
AcDbLine
 10
23.305019
 20
-44.982273
 30
0.0
 11
23.139183
 21
-44.550179
 31
0.0
  0
LINE
  5
751
330
1F
100
AcDbEntity
  8
1
  6
CONTINUOUS
370
50
 62
4
100
AcDbLine
 10
23.707558
 20
-32.825706
 30
0.0
 11
23.542963
 21
-32.406303
 31
0.0
  0
LINE
  5
752
330
1F
100
AcDbEntity
  8
1
  6
CONTINUOUS
370
50
 62
4
100
AcDbLine
 10
23.112152
 20
10.120027
 30
0.0
 11
22.987022
 21
10.43665
 31
0.0
  0
LINE
  5
753
330
1F
100
AcDbEntity
  8
1
  6
CONTINUOUS
370
50
 62
4
100
AcDbLine
 10
43.13086699999999
 20
5.203784
 30
0.0
 11
43.000408
 21
5.532763
 31
0.0
  0
LINE
  5
754
330
1F
100
AcDbEntity
  8
1
  6
CONTINUOUS
370
50
 62
4
100
AcDbLine
 10
7.341228
 20
-34.529892
 30
0.0
 11
7.338907
 21
-34.524139
 31
0.0
  0
LINE
  5
755
330
1F
100
AcDbEntity
  8
1
  6
CONTINUOUS
370
50
 62
4
100
AcDbLine
 10
23.485241
 20
-45.426102
 30
0.0
 11
23.305019
 21
-44.982273
 31
0.0
  0
LINE
  5
756
330
1F
100
AcDbEntity
  8
1
  6
CONTINUOUS
370
50
 62
4
100
AcDbLine
 10
23.544502
 20
-12.834004
 30
0.0
 11
23.388901
 21
-12.453118
 31
0.0
  0
LINE
  5
757
330
1F
100
AcDbEntity
  8
1
  6
CONTINUOUS
370
50
 62
4
100
AcDbLine
 10
23.878559
 20
-33.239456
 30
0.0
 11
23.707558
 21
-32.825706
 31
0.0
  0
LINE
  5
758
330
1F
100
AcDbEntity
  8
1
  6
CONTINUOUS
370
50
 62
4
100
AcDbLine
 10
43.45171
 20
-12.098308
 30
0.0
 11
43.318817
 21
-11.78161
 31
0.0
  0
LINE
  5
759
330
1F
100
AcDbEntity
  8
1
  6
CONTINUOUS
370
50
 62
4
100
AcDbLine
 10
23.677345
 20
-45.877789
 30
0.0
 11
23.485241
 21
-45.426102
 31
0.0
  0
LINE
  5
75A
330
1F
100
AcDbEntity
  8
1
  6
CONTINUOUS
370
50
 62
4
100
AcDbLine
 10
24.054352
 20
-33.645584
 30
0.0
 11
23.878559
 21
-33.239456
 31
0.0
  0
LINE
  5
75B
330
1F
100
AcDbEntity
  8
1
  6
CONTINUOUS
370
50
 62
4
100
AcDbLine
 10
22.581907
 20
-48.04586399999999
 30
0.0
 11
22.554512
 21
-47.98266599999999
 31
0.0
  0
LINE
  5
75C
330
1F
100
AcDbEntity
  8
1
  6
CONTINUOUS
370
50
 62
4
100
AcDbLine
 10
23.878784
 20
-46.333366
 30
0.0
 11
23.677345
 21
-45.877789
 31
0.0
  0
LINE
  5
75D
330
1F
100
AcDbEntity
  8
1
  6
CONTINUOUS
370
50
 62
4
100
AcDbLine
 10
23.70694
 20
-13.201339
 30
0.0
 11
23.544502
 21
-12.834004
 31
0.0
  0
LINE
  5
75E
330
1F
100
AcDbEntity
  8
1
  6
CONTINUOUS
370
50
 62
4
100
AcDbLine
 10
24.233244
 20
-34.042179
 30
0.0
 11
24.054352
 21
-33.645584
 31
0.0
  0
LINE
  5
75F
330
1F
100
AcDbEntity
  8
1
  6
CONTINUOUS
370
50
 62
4
100
AcDbLine
 10
7.341015
 20
-34.529152
 30
0.0
 11
7.338055
 21
-34.522644
 31
0.0
  0
LINE
  5
760
330
1F
100
AcDbEntity
  8
1
  6
CONTINUOUS
370
50
 62
4
100
AcDbLine
 10
43.59075199999999
 20
-12.403367
 30
0.0
 11
43.45171
 21
-12.098308
 31
0.0
  0
LINE
  5
761
330
1F
100
AcDbEntity
  8
1
  6
CONTINUOUS
370
50
 62
4
100
AcDbLine
 10
23.248335
 20
9.821499
 30
0.0
 11
23.112152
 21
10.120027
 31
0.0
  0
LINE
  5
762
330
1F
100
AcDbEntity
  8
1
  6
CONTINUOUS
370
50
 62
4
100
AcDbLine
 10
24.086906
 20
-46.788799
 30
0.0
 11
23.878784
 21
-46.333366
 31
0.0
  0
LINE
  5
763
330
1F
100
AcDbEntity
  8
1
  6
CONTINUOUS
370
50
 62
4
100
AcDbLine
 10
43.274681
 20
4.893723
 30
0.0
 11
43.13086699999999
 21
5.203784
 31
0.0
  0
LINE
  5
764
330
1F
100
AcDbEntity
  8
1
  6
CONTINUOUS
370
50
 62
4
100
AcDbLine
 10
24.413538
 20
-34.42733
 30
0.0
 11
24.233244
 21
-34.042179
 31
0.0
  0
LINE
  5
765
330
1F
100
AcDbEntity
  8
1
  6
CONTINUOUS
370
50
 62
4
100
AcDbLine
 10
24.298923
 20
-47.239933
 30
0.0
 11
24.086906
 21
-46.788799
 31
0.0
  0
LINE
  5
766
330
1F
100
AcDbEntity
  8
1
  6
CONTINUOUS
370
50
 62
4
100
AcDbLine
 10
22.869188
 20
30.266897
 30
0.0
 11
22.773399
 21
30.470415
 31
0.0
  0
LINE
  5
767
330
1F
100
AcDbEntity
  8
1
  6
CONTINUOUS
370
50
 62
4
100
AcDbLine
 10
23.874283
 20
-13.553803
 30
0.0
 11
23.70694
 21
-13.201339
 31
0.0
  0
LINE
  5
768
330
1F
100
AcDbEntity
  8
1
  6
CONTINUOUS
370
50
 62
4
100
AcDbLine
 10
22.62978
 20
43.887344
 30
0.0
 11
22.583645
 21
43.98402
 31
0.0
  0
LINE
  5
769
330
1F
100
AcDbEntity
  8
1
  6
CONTINUOUS
370
50
 62
4
100
AcDbLine
 10
24.512262
 20
-47.683083
 30
0.0
 11
24.298923
 21
-47.239933
 31
0.0
  0
LINE
  5
76A
330
1F
100
AcDbEntity
  8
1
  6
CONTINUOUS
370
50
 62
4
100
AcDbLine
 10
24.595232
 20
-34.802639
 30
0.0
 11
24.413538
 21
-34.42733
 31
0.0
  0
LINE
  5
76B
330
1F
100
AcDbEntity
  8
1
  6
CONTINUOUS
370
50
 62
4
100
AcDbLine
 10
24.730616
 20
-48.127277
 30
0.0
 11
24.512262
 21
-47.683083
 31
0.0
  0
LINE
  5
76C
330
1F
100
AcDbEntity
  8
1
  6
CONTINUOUS
370
50
 62
4
100
AcDbLine
 10
43.734383
 20
-12.695471
 30
0.0
 11
43.59075199999999
 21
-12.403367
 31
0.0
  0
LINE
  5
76D
330
1F
100
AcDbEntity
  8
1
  6
CONTINUOUS
370
50
 62
4
100
AcDbLine
 10
24.781849
 20
-35.176403
 30
0.0
 11
24.595232
 21
-34.802639
 31
0.0
  0
LINE
  5
76E
330
1F
100
AcDbEntity
  8
1
  6
CONTINUOUS
370
50
 62
4
100
AcDbLine
 10
24.955849
 20
-48.576954
 30
0.0
 11
24.730616
 21
-48.127277
 31
0.0
  0
LINE
  5
76F
330
1F
100
AcDbEntity
  8
1
  6
CONTINUOUS
370
50
 62
4
100
AcDbLine
 10
22.627691
 20
-48.137024
 30
0.0
 11
22.581907
 21
-48.04586399999999
 31
0.0
  0
LINE
  5
770
330
1F
100
AcDbEntity
  8
1
  6
CONTINUOUS
370
50
 62
4
100
AcDbLine
 10
24.044575
 20
-13.890136
 30
0.0
 11
23.874283
 21
-13.553803
 31
0.0
  0
LINE
  5
771
330
1F
100
AcDbEntity
  8
1
  6
CONTINUOUS
370
50
 62
4
100
AcDbLine
 10
25.187452
 20
-49.031471
 30
0.0
 11
24.955849
 21
-48.576954
 31
0.0
  0
LINE
  5
772
330
1F
100
AcDbEntity
  8
1
  6
CONTINUOUS
370
50
 62
4
100
AcDbLine
 10
24.97331
 20
-35.54887799999999
 30
0.0
 11
24.781849
 21
-35.176403
 31
0.0
  0
LINE
  5
773
330
1F
100
AcDbEntity
  8
1
  6
CONTINUOUS
370
50
 62
4
100
AcDbLine
 10
25.424911
 20
-49.490189
 30
0.0
 11
25.187452
 21
-49.031471
 31
0.0
  0
LINE
  5
774
330
1F
100
AcDbEntity
  8
1
  6
CONTINUOUS
370
50
 62
4
100
AcDbLine
 10
23.3937
 20
9.541934
 30
0.0
 11
23.248335
 21
9.821499
 31
0.0
  0
LINE
  5
775
330
1F
100
AcDbEntity
  8
1
  6
CONTINUOUS
370
50
 62
4
100
AcDbLine
 10
25.667715
 20
-49.952461
 30
0.0
 11
25.424911
 21
-49.490189
 31
0.0
  0
LINE
  5
776
330
1F
100
AcDbEntity
  8
1
  6
CONTINUOUS
370
50
 62
4
100
AcDbLine
 10
43.882019
 20
-12.975107
 30
0.0
 11
43.734383
 21
-12.695471
 31
0.0
  0
LINE
  5
777
330
1F
100
AcDbEntity
  8
1
  6
CONTINUOUS
370
50
 62
4
100
AcDbLine
 10
25.169304
 20
-35.919815
 30
0.0
 11
24.97331
 21
-35.54887799999999
 31
0.0
  0
LINE
  5
778
330
1F
100
AcDbEntity
  8
1
  6
CONTINUOUS
370
50
 62
4
100
AcDbLine
 10
25.915352
 20
-50.417652
 30
0.0
 11
25.667715
 21
-49.952461
 31
0.0
  0
LINE
  5
779
330
1F
100
AcDbEntity
  8
1
  6
CONTINUOUS
370
50
 62
4
100
AcDbLine
 10
24.216932
 20
-14.211079
 30
0.0
 11
24.044575
 21
-13.890136
 31
0.0
  0
LINE
  5
77A
330
1F
100
AcDbEntity
  8
1
  6
CONTINUOUS
370
50
 62
4
100
AcDbLine
 10
22.691027
 20
-48.254745
 30
0.0
 11
22.627691
 21
-48.137024
 31
0.0
  0
LINE
  5
77B
330
1F
100
AcDbEntity
  8
1
  6
CONTINUOUS
370
50
 62
4
100
AcDbLine
 10
26.167309
 20
-50.885113
 30
0.0
 11
25.915352
 21
-50.417652
 31
0.0
  0
LINE
  5
77C
330
1F
100
AcDbEntity
  8
1
  6
CONTINUOUS
370
50
 62
4
100
AcDbLine
 10
25.36952
 20
-36.288982
 30
0.0
 11
25.169304
 21
-35.919815
 31
0.0
  0
LINE
  5
77D
330
1F
100
AcDbEntity
  8
1
  6
CONTINUOUS
370
50
 62
4
100
AcDbLine
 10
26.423075
 20
-51.35420999999999
 30
0.0
 11
26.167309
 21
-50.885113
 31
0.0
  0
LINE
  5
77E
330
1F
100
AcDbEntity
  8
1
  6
CONTINUOUS
370
50
 62
4
100
AcDbLine
 10
25.573648
 20
-36.656128
 30
0.0
 11
25.36952
 21
-36.288982
 31
0.0
  0
LINE
  5
77F
330
1F
100
AcDbEntity
  8
1
  6
CONTINUOUS
370
50
 62
4
100
AcDbLine
 10
22.770876
 20
-48.397346
 30
0.0
 11
22.691027
 21
-48.254745
 31
0.0
  0
LINE
  5
780
330
1F
100
AcDbEntity
  8
1
  6
CONTINUOUS
370
50
 62
4
100
AcDbLine
 10
44.036976
 20
-13.249418
 30
0.0
 11
43.882019
 21
-12.975107
 31
0.0
  0
LINE
  5
781
330
1F
100
AcDbEntity
  8
1
  6
CONTINUOUS
370
50
 62
4
100
AcDbLine
 10
24.394791
 20
-14.524691
 30
0.0
 11
24.216932
 21
-14.211079
 31
0.0
  0
LINE
  5
782
330
1F
100
AcDbEntity
  8
1
  6
CONTINUOUS
370
50
 62
4
100
AcDbLine
 10
25.781378
 20
-37.021015
 30
0.0
 11
25.573648
 21
-36.656128
 31
0.0
  0
LINE
  5
783
330
1F
100
AcDbEntity
  8
1
  6
CONTINUOUS
370
50
 62
4
100
AcDbLine
 10
22.865963
 20
-48.562824
 30
0.0
 11
22.770876
 21
-48.397346
 31
0.0
  0
LINE
  5
784
330
1F
100
AcDbEntity
  8
1
  6
CONTINUOUS
370
50
 62
4
100
AcDbLine
 10
23.070213
 20
-48.846306
 30
0.0
 11
22.546812
 21
-47.94118899999999
 31
0.0
  0
LINE
  5
785
330
1F
100
AcDbEntity
  8
1
  6
CONTINUOUS
370
50
 62
4
100
AcDbLine
 10
23.603275
 20
-49.768021
 30
0.0
 11
23.070213
 21
-48.846306
 31
0.0
  0
LINE
  5
786
330
1F
100
AcDbEntity
  8
1
  6
CONTINUOUS
370
50
 62
4
100
AcDbLine
 10
24.146269
 20
-50.706795
 30
0.0
 11
23.603275
 21
-49.768021
 31
0.0
  0
LINE
  5
787
330
1F
100
AcDbEntity
  8
1
  6
CONTINUOUS
370
50
 62
4
100
AcDbLine
 10
24.699469
 20
-51.663109
 30
0.0
 11
24.146269
 21
-50.706795
 31
0.0
  0
LINE
  5
788
330
1F
100
AcDbEntity
  8
1
  6
CONTINUOUS
370
50
 62
4
100
AcDbLine
 10
25.263165
 20
-52.637463
 30
0.0
 11
24.699469
 21
-51.663109
 31
0.0
  0
LINE
  5
789
330
1F
100
AcDbEntity
  8
1
  6
CONTINUOUS
370
50
 62
4
100
AcDbLine
 10
25.837656
 20
-53.630375
 30
0.0
 11
25.263165
 21
-52.637463
 31
0.0
  0
LINE
  5
78A
330
1F
100
AcDbEntity
  8
1
  6
CONTINUOUS
370
50
 62
4
100
AcDbLine
 10
26.423258
 20
-54.642384
 30
0.0
 11
25.837656
 21
-53.630375
 31
0.0
  0
LINE
  5
78B
330
1F
100
AcDbEntity
  8
1
  6
CONTINUOUS
370
50
 62
4
100
AcDbLine
 10
22.865267
 20
-48.561634
 30
0.0
 11
15.0
 21
-35.0
 31
0.0
  0
LINE
  5
78C
330
1F
100
AcDbEntity
  8
1
  6
CONTINUOUS
370
50
 62
4
100
AcDbLine
 10
25.992399
 20
-37.383404
 30
0.0
 11
25.781378
 21
-37.021015
 31
0.0
  0
LINE
  5
78D
330
1F
100
AcDbEntity
  8
1
  6
CONTINUOUS
370
50
 62
4
100
AcDbLine
 10
23.005569
 20
-48.801136
 30
0.0
 11
22.865963
 21
-48.562824
 31
0.0
  0
LINE
  5
78E
330
1F
100
AcDbEntity
  8
1
  6
CONTINUOUS
370
50
 62
4
100
AcDbLine
 10
23.546148
 20
9.281770999999999
 30
0.0
 11
23.3937
 21
9.541934
 31
0.0
  0
LINE
  5
78F
330
1F
100
AcDbEntity
  8
1
  6
CONTINUOUS
370
50
 62
4
100
AcDbLine
 10
23.162601
 20
-49.065365
 30
0.0
 11
23.005569
 21
-48.801136
 31
0.0
  0
LINE
  5
790
330
1F
100
AcDbEntity
  8
1
  6
CONTINUOUS
370
50
 62
4
100
AcDbLine
 10
26.206402
 20
-37.743046
 30
0.0
 11
25.992399
 21
-37.383404
 31
0.0
  0
LINE
  5
791
330
1F
100
AcDbEntity
  8
1
  6
CONTINUOUS
370
50
 62
4
100
AcDbLine
 10
24.578293
 20
-14.831914
 30
0.0
 11
24.394791
 21
-14.524691
 31
0.0
  0
LINE
  5
792
330
1F
100
AcDbEntity
  8
1
  6
CONTINUOUS
370
50
 62
4
100
AcDbLine
 10
23.332197
 20
-49.348022
 30
0.0
 11
23.162601
 21
-49.065365
 31
0.0
  0
LINE
  5
793
330
1F
100
AcDbEntity
  8
1
  6
CONTINUOUS
370
50
 62
4
100
AcDbLine
 10
44.199184
 20
-13.518458
 30
0.0
 11
44.036976
 21
-13.249418
 31
0.0
  0
LINE
  5
794
330
1F
100
AcDbEntity
  8
1
  6
CONTINUOUS
370
50
 62
4
100
AcDbLine
 10
23.51059
 20
-49.643463
 30
0.0
 11
23.332197
 21
-49.348022
 31
0.0
  0
LINE
  5
795
330
1F
100
AcDbEntity
  8
1
  6
CONTINUOUS
370
50
 62
4
100
AcDbLine
 10
23.701864
 20
-49.958889
 30
0.0
 11
23.51059
 21
-49.643463
 31
0.0
  0
LINE
  5
796
330
1F
100
AcDbEntity
  8
1
  6
CONTINUOUS
370
50
 62
4
100
AcDbLine
 10
44.886528
 20
-29.136414
 30
0.0
 11
44.686211
 21
-28.806145
 31
0.0
  0
LINE
  5
797
330
1F
100
AcDbEntity
  8
1
  6
CONTINUOUS
370
50
 62
4
100
AcDbLine
 10
22.979723
 20
30.084749
 30
0.0
 11
22.869188
 21
30.266897
 31
0.0
  0
LINE
  5
798
330
1F
100
AcDbEntity
  8
1
  6
CONTINUOUS
370
50
 62
4
100
AcDbLine
 10
26.423075
 20
-38.099705
 30
0.0
 11
26.206402
 21
-37.743046
 31
0.0
  0
LINE
  5
799
330
1F
100
AcDbEntity
  8
1
  6
CONTINUOUS
370
50
 62
4
100
AcDbLine
 10
23.905834
 20
-50.294296
 30
0.0
 11
23.701864
 21
-49.958889
 31
0.0
  0
LINE
  5
79A
330
1F
100
AcDbEntity
  8
1
  6
CONTINUOUS
370
50
 62
4
100
AcDbLine
 10
24.767071
 20
-15.132688
 30
0.0
 11
24.578293
 21
-14.831914
 31
0.0
  0
LINE
  5
79B
330
1F
100
AcDbEntity
  8
1
  6
CONTINUOUS
370
50
 62
4
100
AcDbLine
 10
45.091736
 20
-29.46171
 30
0.0
 11
44.886528
 21
-29.136414
 31
0.0
  0
LINE
  5
79C
330
1F
100
AcDbEntity
  8
1
  6
CONTINUOUS
370
50
 62
4
100
AcDbLine
 10
23.070213
 20
-42.884521
 30
0.0
 11
22.546812
 21
-42.05822
 31
0.0
  0
LINE
  5
79D
330
1F
100
AcDbEntity
  8
1
  6
CONTINUOUS
370
50
 62
4
100
AcDbLine
 10
23.603275
 20
-43.725975
 30
0.0
 11
23.070213
 21
-42.884521
 31
0.0
  0
LINE
  5
79E
330
1F
100
AcDbEntity
  8
1
  6
CONTINUOUS
370
50
 62
4
100
AcDbLine
 10
24.146269
 20
-44.583004
 30
0.0
 11
23.603275
 21
-43.725975
 31
0.0
  0
LINE
  5
79F
330
1F
100
AcDbEntity
  8
1
  6
CONTINUOUS
370
50
 62
4
100
AcDbLine
 10
24.699469
 20
-45.456047
 30
0.0
 11
24.146269
 21
-44.583004
 31
0.0
  0
LINE
  5
7A0
330
1F
100
AcDbEntity
  8
1
  6
CONTINUOUS
370
50
 62
4
100
AcDbLine
 10
25.263165
 20
-46.345558
 30
0.0
 11
24.699469
 21
-45.456047
 31
0.0
  0
LINE
  5
7A1
330
1F
100
AcDbEntity
  8
1
  6
CONTINUOUS
370
50
 62
4
100
AcDbLine
 10
25.837656
 20
-47.252014
 30
0.0
 11
25.263165
 21
-46.345558
 31
0.0
  0
LINE
  5
7A2
330
1F
100
AcDbEntity
  8
1
  6
CONTINUOUS
370
50
 62
4
100
AcDbLine
 10
26.423258
 20
-48.1759
 30
0.0
 11
25.837656
 21
-47.252014
 31
0.0
  0
LINE
  5
7A3
330
1F
100
AcDbEntity
  8
1
  6
CONTINUOUS
370
50
 62
4
100
AcDbLine
 10
44.368065
 20
-13.781256
 30
0.0
 11
44.199184
 21
-13.518458
 31
0.0
  0
LINE
  5
7A4
330
1F
100
AcDbEntity
  8
1
  6
CONTINUOUS
370
50
 62
4
100
AcDbLine
 10
23.703459
 20
9.041198999999999
 30
0.0
 11
23.546148
 21
9.281770999999999
 31
0.0
  0
LINE
  5
7A5
330
1F
100
AcDbEntity
  8
1
  6
CONTINUOUS
370
50
 62
4
100
AcDbLine
 10
45.300949
 20
-29.780859
 30
0.0
 11
45.091736
 21
-29.46171
 31
0.0
  0
LINE
  5
7A6
330
1F
100
AcDbEntity
  8
1
  6
CONTINUOUS
370
50
 62
4
100
AcDbLine
 10
24.960758
 20
-15.426949
 30
0.0
 11
24.767071
 21
-15.132688
 31
0.0
  0
LINE
  5
7A7
330
1F
100
AcDbEntity
  8
1
  6
CONTINUOUS
370
50
 62
4
100
AcDbLine
 10
7.338907
 20
-34.524139
 30
0.0
 11
7.33503
 21
-34.518314
 31
0.0
  0
LINE
  5
7A8
330
1F
100
AcDbEntity
  8
1
  6
CONTINUOUS
370
50
 62
4
100
AcDbLine
 10
45.513317
 20
-30.092789
 30
0.0
 11
45.300949
 21
-29.780859
 31
0.0
  0
LINE
  5
7A9
330
1F
100
AcDbEntity
  8
1
  6
CONTINUOUS
370
50
 62
4
100
AcDbLine
 10
44.543026
 20
-14.036841
 30
0.0
 11
44.368065
 21
-13.781256
 31
0.0
  0
LINE
  5
7AA
330
1F
100
AcDbEntity
  8
1
  6
CONTINUOUS
370
50
 62
4
100
AcDbLine
 10
25.158989
 20
-15.714633
 30
0.0
 11
24.960758
 21
-15.426949
 31
0.0
  0
LINE
  5
7AB
330
1F
100
AcDbEntity
  8
1
  6
CONTINUOUS
370
50
 62
4
100
AcDbLine
 10
45.727947
 20
-30.396564
 30
0.0
 11
45.513317
 21
-30.092789
 31
0.0
  0
LINE
  5
7AC
330
1F
100
AcDbEntity
  8
1
  6
CONTINUOUS
370
50
 62
4
100
AcDbLine
 10
25.361397
 20
-15.995679
 30
0.0
 11
25.158989
 21
-15.714633
 31
0.0
  0
LINE
  5
7AD
330
1F
100
AcDbEntity
  8
1
  6
CONTINUOUS
370
50
 62
4
100
AcDbLine
 10
23.864025
 20
8.819555
 30
0.0
 11
23.703459
 21
9.041198999999999
 31
0.0
  0
LINE
  5
7AE
330
1F
100
AcDbEntity
  8
1
  6
CONTINUOUS
370
50
 62
4
100
AcDbLine
 10
44.723434
 20
-14.284348
 30
0.0
 11
44.543026
 21
-14.036841
 31
0.0
  0
LINE
  5
7AF
330
1F
100
AcDbEntity
  8
1
  6
CONTINUOUS
370
50
 62
4
100
AcDbLine
 10
45.943909
 20
-30.691219
 30
0.0
 11
45.727947
 21
-30.396564
 31
0.0
  0
LINE
  5
7B0
330
1F
100
AcDbEntity
  8
1
  6
CONTINUOUS
370
50
 62
4
100
AcDbLine
 10
7.338055
 20
-34.522644
 30
0.0
 11
7.33311
 21
-34.516041
 31
0.0
  0
LINE
  5
7B1
330
1F
100
AcDbEntity
  8
1
  6
CONTINUOUS
370
50
 62
4
100
AcDbLine
 10
25.567612
 20
-16.270023
 30
0.0
 11
25.361397
 21
-15.995679
 31
0.0
  0
LINE
  5
7B2
330
1F
100
AcDbEntity
  8
1
  6
CONTINUOUS
370
50
 62
4
100
AcDbLine
 10
46.160267
 20
-30.975782
 30
0.0
 11
45.943909
 21
-30.691219
 31
0.0
  0
LINE
  5
7B3
330
1F
100
AcDbEntity
  8
1
  6
CONTINUOUS
370
50
 62
4
100
AcDbLine
 10
23.103741
 20
29.923748
 30
0.0
 11
22.979723
 21
30.084749
 31
0.0
  0
LINE
  5
7B4
330
1F
100
AcDbEntity
  8
1
  6
CONTINUOUS
370
50
 62
4
100
AcDbLine
 10
44.908607
 20
-14.523075
 30
0.0
 11
44.723434
 21
-14.284348
 31
0.0
  0
LINE
  5
7B5
330
1F
100
AcDbEntity
  8
1
  6
CONTINUOUS
370
50
 62
4
100
AcDbLine
 10
25.777269
 20
-16.537603
 30
0.0
 11
25.567612
 21
-16.270023
 31
0.0
  0
LINE
  5
7B6
330
1F
100
AcDbEntity
  8
1
  6
CONTINUOUS
370
50
 62
4
100
AcDbLine
 10
46.37607999999999
 20
-31.249331
 30
0.0
 11
46.160267
 21
-30.975782
 31
0.0
  0
LINE
  5
7B7
330
1F
100
AcDbEntity
  8
1
  6
CONTINUOUS
370
50
 62
4
100
AcDbLine
 10
24.030813
 20
8.610604
 30
0.0
 11
23.864025
 21
8.819555
 31
0.0
  0
LINE
  5
7B8
330
1F
100
AcDbEntity
  8
1
  6
CONTINUOUS
370
50
 62
4
100
AcDbLine
 10
25.990002
 20
-16.798359
 30
0.0
 11
25.777269
 21
-16.537603
 31
0.0
  0
LINE
  5
7B9
330
1F
100
AcDbEntity
  8
1
  6
CONTINUOUS
370
50
 62
4
100
AcDbLine
 10
46.590412
 20
-31.511126
 30
0.0
 11
46.37607999999999
 21
-31.249331
 31
0.0
  0
LINE
  5
7BA
330
1F
100
AcDbEntity
  8
1
  6
CONTINUOUS
370
50
 62
4
100
AcDbLine
 10
45.09784699999999
 20
-14.752342
 30
0.0
 11
44.908607
 21
-14.523075
 31
0.0
  0
LINE
  5
7BB
330
1F
100
AcDbEntity
  8
1
  6
CONTINUOUS
370
50
 62
4
100
AcDbLine
 10
26.205442
 20
-17.052223
 30
0.0
 11
25.990002
 21
-16.798359
 31
0.0
  0
LINE
  5
7BC
330
1F
100
AcDbEntity
  8
1
  6
CONTINUOUS
370
50
 62
4
100
AcDbLine
 10
46.802315
 20
-31.760489
 30
0.0
 11
46.590412
 21
-31.511126
 31
0.0
  0
LINE
  5
7BD
330
1F
100
AcDbEntity
  8
1
  6
CONTINUOUS
370
50
 62
4
100
AcDbLine
 10
24.204222
 20
8.4129
 30
0.0
 11
24.030813
 21
8.610604
 31
0.0
  0
LINE
  5
7BE
330
1F
100
AcDbEntity
  8
1
  6
CONTINUOUS
370
50
 62
4
100
AcDbLine
 10
45.290459
 20
-14.971465
 30
0.0
 11
45.09784699999999
 21
-14.752342
 31
0.0
  0
LINE
  5
7BF
330
1F
100
AcDbEntity
  8
1
  6
CONTINUOUS
370
50
 62
4
100
AcDbLine
 10
26.423223
 20
-17.299135
 30
0.0
 11
26.205442
 21
-17.052223
 31
0.0
  0
LINE
  5
7C0
330
1F
100
AcDbEntity
  8
1
  6
CONTINUOUS
370
50
 62
4
100
AcDbLine
 10
47.010849
 20
-31.996742
 30
0.0
 11
46.802315
 21
-31.760489
 31
0.0
  0
LINE
  5
7C1
330
1F
100
AcDbEntity
  8
1
  6
CONTINUOUS
370
50
 62
4
100
AcDbLine
 10
22.693216
 20
43.816399
 30
0.0
 11
22.62978
 21
43.887344
 31
0.0
  0
LINE
  5
7C2
330
1F
100
AcDbEntity
  8
1
  6
CONTINUOUS
370
50
 62
4
100
AcDbLine
 10
23.070213
 20
-28.428934
 30
0.0
 11
22.546812
 21
-27.845106
 31
0.0
  0
LINE
  5
7C3
330
1F
100
AcDbEntity
  8
1
  6
CONTINUOUS
370
50
 62
4
100
AcDbLine
 10
23.603275
 20
-29.023468
 30
0.0
 11
23.070213
 21
-28.428934
 31
0.0
  0
LINE
  5
7C4
330
1F
100
AcDbEntity
  8
1
  6
CONTINUOUS
370
50
 62
4
100
AcDbLine
 10
24.146269
 20
-29.629005
 30
0.0
 11
23.603275
 21
-29.023468
 31
0.0
  0
LINE
  5
7C5
330
1F
100
AcDbEntity
  8
1
  6
CONTINUOUS
370
50
 62
4
100
AcDbLine
 10
24.699469
 20
-30.245859
 30
0.0
 11
24.146269
 21
-29.629005
 31
0.0
  0
LINE
  5
7C6
330
1F
100
AcDbEntity
  8
1
  6
CONTINUOUS
370
50
 62
4
100
AcDbLine
 10
25.263165
 20
-30.87435
 30
0.0
 11
24.699469
 21
-30.245859
 31
0.0
  0
LINE
  5
7C7
330
1F
100
AcDbEntity
  8
1
  6
CONTINUOUS
370
50
 62
4
100
AcDbLine
 10
25.837656
 20
-31.514812
 30
0.0
 11
25.263165
 21
-30.87435
 31
0.0
  0
LINE
  5
7C8
330
1F
100
AcDbEntity
  8
1
  6
CONTINUOUS
370
50
 62
4
100
AcDbLine
 10
26.423258
 20
-32.167591
 30
0.0
 11
25.837656
 21
-31.514812
 31
0.0
  0
LINE
  5
7C9
330
1F
100
AcDbEntity
  8
1
  6
CONTINUOUS
370
50
 62
4
100
AcDbLine
 10
47.221985
 20
-32.226665
 30
0.0
 11
47.010849
 21
-31.996742
 31
0.0
  0
LINE
  5
7CA
330
1F
100
AcDbEntity
  8
1
  6
CONTINUOUS
370
50
 62
4
100
AcDbLine
 10
7.33503
 20
-34.518314
 30
0.0
 11
7.329591
 21
-34.512432
 31
0.0
  0
LINE
  5
7CB
330
1F
100
AcDbEntity
  8
1
  6
CONTINUOUS
370
50
 62
4
100
AcDbLine
 10
45.485775
 20
-15.179838
 30
0.0
 11
45.290459
 21
-14.971465
 31
0.0
  0
LINE
  5
7CC
330
1F
100
AcDbEntity
  8
1
  6
CONTINUOUS
370
50
 62
4
100
AcDbLine
 10
47.439823
 20
-32.454128
 30
0.0
 11
47.221985
 21
-32.226665
 31
0.0
  0
LINE
  5
7CD
330
1F
100
AcDbEntity
  8
1
  6
CONTINUOUS
370
50
 62
4
100
AcDbLine
 10
24.38381
 20
8.226258999999999
 30
0.0
 11
24.204222
 21
8.4129
 31
0.0
  0
LINE
  5
7CE
330
1F
100
AcDbEntity
  8
1
  6
CONTINUOUS
370
50
 62
4
100
AcDbLine
 10
23.239971
 20
29.783655
 30
0.0
 11
23.103741
 21
29.923748
 31
0.0
  0
LINE
  5
7CF
330
1F
100
AcDbEntity
  8
1
  6
CONTINUOUS
370
50
 62
4
100
AcDbLine
 10
47.776001
 20
49.904667
 30
0.0
 11
47.189602
 21
50.497311
 31
0.0
  0
LINE
  5
7D0
330
1F
100
AcDbEntity
  8
1
  6
CONTINUOUS
370
50
 62
4
100
AcDbLine
 10
47.189602
 20
50.497311
 30
0.0
 11
46.596359
 21
51.096725
 31
0.0
  0
LINE
  5
7D1
330
1F
100
AcDbEntity
  8
1
  6
CONTINUOUS
370
50
 62
4
100
AcDbLine
 10
46.596359
 20
51.096725
 30
0.0
 11
45.99615499999999
 21
51.70303
 31
0.0
  0
LINE
  5
7D2
330
1F
100
AcDbEntity
  8
1
  6
CONTINUOUS
370
50
 62
4
100
AcDbLine
 10
45.99615499999999
 20
51.70303
 30
0.0
 11
45.388866
 21
52.316345
 31
0.0
  0
LINE
  5
7D3
330
1F
100
AcDbEntity
  8
1
  6
CONTINUOUS
370
50
 62
4
100
AcDbLine
 10
45.388866
 20
52.316345
 30
0.0
 11
44.774372
 21
52.936798
 31
0.0
  0
LINE
  5
7D4
330
1F
100
AcDbEntity
  8
1
  6
CONTINUOUS
370
50
 62
4
100
AcDbLine
 10
44.774372
 20
52.936798
 30
0.0
 11
44.152546
 21
53.564514
 31
0.0
  0
LINE
  5
7D5
330
1F
100
AcDbEntity
  8
1
  6
CONTINUOUS
370
50
 62
4
100
AcDbLine
 10
44.152546
 20
53.564514
 30
0.0
 11
43.523258
 21
54.199627
 31
0.0
  0
LINE
  5
7D6
330
1F
100
AcDbEntity
  8
1
  6
CONTINUOUS
370
50
 62
4
100
AcDbLine
 10
47.776001
 20
50.130562
 30
0.0
 11
47.189518
 21
50.720673
 31
0.0
  0
LINE
  5
7D7
330
1F
100
AcDbEntity
  8
1
  6
CONTINUOUS
370
50
 62
4
100
AcDbLine
 10
47.189518
 20
50.720673
 30
0.0
 11
46.596218
 21
51.317558
 31
0.0
  0
LINE
  5
7D8
330
1F
100
AcDbEntity
  8
1
  6
CONTINUOUS
370
50
 62
4
100
AcDbLine
 10
46.596218
 20
51.317558
 30
0.0
 11
45.995983
 21
51.921333
 31
0.0
  0
LINE
  5
7D9
330
1F
100
AcDbEntity
  8
1
  6
CONTINUOUS
370
50
 62
4
100
AcDbLine
 10
45.995983
 20
51.921333
 30
0.0
 11
45.388699
 21
52.532124
 31
0.0
  0
LINE
  5
7DA
330
1F
100
AcDbEntity
  8
1
  6
CONTINUOUS
370
50
 62
4
100
AcDbLine
 10
45.388699
 20
52.532124
 30
0.0
 11
44.774231
 21
53.150051
 31
0.0
  0
LINE
  5
7DB
330
1F
100
AcDbEntity
  8
1
  6
CONTINUOUS
370
50
 62
4
100
AcDbLine
 10
44.774231
 20
53.150051
 30
0.0
 11
44.152462
 21
53.775246
 31
0.0
  0
LINE
  5
7DC
330
1F
100
AcDbEntity
  8
1
  6
CONTINUOUS
370
50
 62
4
100
AcDbLine
 10
44.152462
 20
53.775246
 30
0.0
 11
43.523258
 21
54.407833
 31
0.0
  0
LINE
  5
7DD
330
1F
100
AcDbEntity
  8
1
  6
CONTINUOUS
370
50
 62
4
100
AcDbLine
 10
45.683117
 20
-15.377055
 30
0.0
 11
45.485775
 21
-15.179838
 31
0.0
  0
LINE
  5
7DE
330
1F
100
AcDbEntity
  8
1
  6
CONTINUOUS
370
50
 62
4
100
AcDbLine
 10
47.661736
 20
-32.675453
 30
0.0
 11
47.439823
 21
-32.454128
 31
0.0
  0
LINE
  5
7DF
330
1F
100
AcDbEntity
  8
1
  6
CONTINUOUS
370
50
 62
4
100
AcDbLine
 10
47.694328
 20
-32.707211
 30
0.0
 11
47.678028
 21
-32.691338
 31
0.0
  0
LINE
  5
7E0
330
1F
100
AcDbEntity
  8
1
  6
CONTINUOUS
370
50
 62
4
100
AcDbLine
 10
47.75964399999999
 20
-32.770802
 30
0.0
 11
47.743298
 21
-32.754887
 31
0.0
  0
LINE
  5
7E1
330
1F
100
AcDbEntity
  8
1
  6
CONTINUOUS
370
50
 62
4
100
AcDbLine
 10
47.743298
 20
-32.754887
 30
0.0
 11
47.726963
 21
-32.738983
 31
0.0
  0
LINE
  5
7E2
330
1F
100
AcDbEntity
  8
1
  6
CONTINUOUS
370
50
 62
4
100
AcDbLine
 10
47.678028
 20
-32.691338
 30
0.0
 11
47.661736
 21
-32.675476
 31
0.0
  0
LINE
  5
7E3
330
1F
100
AcDbEntity
  8
1
  6
CONTINUOUS
370
50
 62
4
100
AcDbLine
 10
47.726963
 20
-32.738983
 30
0.0
 11
47.71064
 21
-32.723091
 31
0.0
  0
LINE
  5
7E4
330
1F
100
AcDbEntity
  8
1
  6
CONTINUOUS
370
50
 62
4
100
AcDbLine
 10
47.71064
 20
-32.723091
 30
0.0
 11
47.694328
 21
-32.707211
 31
0.0
  0
LINE
  5
7E5
330
1F
100
AcDbEntity
  8
1
  6
CONTINUOUS
370
50
 62
4
100
AcDbLine
 10
47.776001
 20
-32.786724
 30
0.0
 11
47.75964399999999
 21
-32.770802
 31
0.0
  0
LINE
  5
7E6
330
1F
100
AcDbEntity
  8
1
  6
CONTINUOUS
370
50
 62
4
100
AcDbLine
 10
7.33311
 20
-34.516041
 30
0.0
 11
7.326171
 21
-34.509384
 31
0.0
  0
LINE
  5
7E7
330
1F
100
AcDbEntity
  8
1
  6
CONTINUOUS
370
50
 62
4
100
AcDbLine
 10
24.569141
 20
8.050497
 30
0.0
 11
24.38381
 21
8.226258999999999
 31
0.0
  0
LINE
  5
7E8
330
1F
100
AcDbEntity
  8
1
  6
CONTINUOUS
370
50
 62
4
100
AcDbLine
 10
45.881752
 20
-15.562725
 30
0.0
 11
45.683117
 21
-15.377055
 31
0.0
  0
LINE
  5
7E9
330
1F
100
AcDbEntity
  8
1
  6
CONTINUOUS
370
50
 62
4
100
AcDbLine
 10
45.306999
 20
-29.494434
 30
0.0
 11
44.84273899999999
 21
-29.071566
 31
0.0
  0
LINE
  5
7EA
330
1F
100
AcDbEntity
  8
1
  6
CONTINUOUS
370
50
 62
4
100
AcDbLine
 10
47.776001
 20
41.771393
 30
0.0
 11
47.189602
 21
42.305298
 31
0.0
  0
LINE
  5
7EB
330
1F
100
AcDbEntity
  8
1
  6
CONTINUOUS
370
50
 62
4
100
AcDbLine
 10
45.780716
 20
-29.925682
 30
0.0
 11
45.306999
 21
-29.494434
 31
0.0
  0
LINE
  5
7EC
330
1F
100
AcDbEntity
  8
1
  6
CONTINUOUS
370
50
 62
4
100
AcDbLine
 10
47.189602
 20
42.305298
 30
0.0
 11
46.596359
 21
42.845306
 31
0.0
  0
LINE
  5
7ED
330
1F
100
AcDbEntity
  8
1
  6
CONTINUOUS
370
50
 62
4
100
AcDbLine
 10
46.596359
 20
42.845306
 30
0.0
 11
45.99615499999999
 21
43.391521
 31
0.0
  0
LINE
  5
7EE
330
1F
100
AcDbEntity
  8
1
  6
CONTINUOUS
370
50
 62
4
100
AcDbLine
 10
46.26417199999999
 20
-30.365566
 30
0.0
 11
45.780716
 21
-29.925682
 31
0.0
  0
LINE
  5
7EF
330
1F
100
AcDbEntity
  8
1
  6
CONTINUOUS
370
50
 62
4
100
AcDbLine
 10
45.99615499999999
 20
43.391521
 30
0.0
 11
45.388866
 21
43.944054
 31
0.0
  0
LINE
  5
7F0
330
1F
100
AcDbEntity
  8
1
  6
CONTINUOUS
370
50
 62
4
100
AcDbLine
 10
45.388866
 20
43.944054
 30
0.0
 11
44.774372
 21
44.503017
 31
0.0
  0
LINE
  5
7F1
330
1F
100
AcDbEntity
  8
1
  6
CONTINUOUS
370
50
 62
4
100
AcDbLine
 10
44.774372
 20
44.503017
 30
0.0
 11
44.152546
 21
45.068527
 31
0.0
  0
LINE
  5
7F2
330
1F
100
AcDbEntity
  8
1
  6
CONTINUOUS
370
50
 62
4
100
AcDbLine
 10
46.75766
 20
-30.814354
 30
0.0
 11
46.26417199999999
 21
-30.365566
 31
0.0
  0
LINE
  5
7F3
330
1F
100
AcDbEntity
  8
1
  6
CONTINUOUS
370
50
 62
4
100
AcDbLine
 10
44.152546
 20
45.068527
 30
0.0
 11
43.523258
 21
45.640701
 31
0.0
  0
LINE
  5
7F4
330
1F
100
AcDbEntity
  8
1
  6
CONTINUOUS
370
50
 62
4
100
AcDbLine
 10
47.261497
 20
-31.272327
 30
0.0
 11
46.75766
 21
-30.814354
 31
0.0
  0
LINE
  5
7F5
330
1F
100
AcDbEntity
  8
1
  6
CONTINUOUS
370
50
 62
4
100
AcDbLine
 10
47.776001
 20
-31.739773
 30
0.0
 11
47.261497
 21
-31.272327
 31
0.0
  0
LINE
  5
7F6
330
1F
100
AcDbEntity
  8
1
  6
CONTINUOUS
370
50
 62
4
100
AcDbLine
 10
47.776001
 20
47.60111999999999
 30
0.0
 11
47.189518
 21
48.132767
 31
0.0
  0
LINE
  5
7F7
330
1F
100
AcDbEntity
  8
1
  6
CONTINUOUS
370
50
 62
4
100
AcDbLine
 10
47.189518
 20
48.132767
 30
0.0
 11
46.596218
 21
48.670513
 31
0.0
  0
LINE
  5
7F8
330
1F
100
AcDbEntity
  8
1
  6
CONTINUOUS
370
50
 62
4
100
AcDbLine
 10
46.596218
 20
48.670513
 30
0.0
 11
45.995983
 21
49.21447
 31
0.0
  0
LINE
  5
7F9
330
1F
100
AcDbEntity
  8
1
  6
CONTINUOUS
370
50
 62
4
100
AcDbLine
 10
45.995983
 20
49.21447
 30
0.0
 11
45.388699
 21
49.764748
 31
0.0
  0
LINE
  5
7FA
330
1F
100
AcDbEntity
  8
1
  6
CONTINUOUS
370
50
 62
4
100
AcDbLine
 10
45.388699
 20
49.764748
 30
0.0
 11
44.774231
 21
50.321457
 31
0.0
  0
LINE
  5
7FB
330
1F
100
AcDbEntity
  8
1
  6
CONTINUOUS
370
50
 62
4
100
AcDbLine
 10
44.774231
 20
50.321457
 30
0.0
 11
44.152462
 21
50.884708
 31
0.0
  0
LINE
  5
7FC
330
1F
100
AcDbEntity
  8
1
  6
CONTINUOUS
370
50
 62
4
100
AcDbLine
 10
44.152462
 20
50.884708
 30
0.0
 11
43.523258
 21
51.454624
 31
0.0
  0
LINE
  5
7FD
330
1F
100
AcDbEntity
  8
1
  6
CONTINUOUS
370
50
 62
4
100
AcDbLine
 10
46.080952
 20
-15.736454
 30
0.0
 11
45.881752
 21
-15.562725
 31
0.0
  0
LINE
  5
7FE
330
1F
100
AcDbEntity
  8
1
  6
CONTINUOUS
370
50
 62
4
100
AcDbLine
 10
24.759775
 20
7.885428999999999
 30
0.0
 11
24.569141
 21
8.050497
 31
0.0
  0
LINE
  5
7FF
330
1F
100
AcDbEntity
  8
1
  6
CONTINUOUS
370
50
 62
4
100
AcDbLine
 10
7.329591
 20
-34.512432
 30
0.0
 11
7.322584
 21
-34.506519
 31
0.0
  0
LINE
  5
800
330
1F
100
AcDbEntity
  8
1
  6
CONTINUOUS
370
50
 62
4
100
AcDbLine
 10
23.387131
 20
29.664108
 30
0.0
 11
23.239971
 21
29.783655
 31
0.0
  0
LINE
  5
801
330
1F
100
AcDbEntity
  8
1
  6
CONTINUOUS
370
50
 62
4
100
AcDbLine
 10
46.27997999999999
 20
-15.897861
 30
0.0
 11
46.080952
 21
-15.736454
 31
0.0
  0
LINE
  5
802
330
1F
100
AcDbEntity
  8
1
  6
CONTINUOUS
370
50
 62
4
100
AcDbLine
 10
24.955276
 20
7.730871
 30
0.0
 11
24.759775
 21
7.885428999999999
 31
0.0
  0
LINE
  5
803
330
1F
100
AcDbEntity
  8
1
  6
CONTINUOUS
370
50
 62
4
100
AcDbLine
 10
46.478107
 20
-16.046749
 30
0.0
 11
46.27997999999999
 21
-15.897861
 31
0.0
  0
LINE
  5
804
330
1F
100
AcDbEntity
  8
1
  6
CONTINUOUS
370
50
 62
4
100
AcDbLine
 10
7.326171
 20
-34.509384
 30
0.0
 11
7.317227
 21
-34.502697
 31
0.0
  0
LINE
  5
805
330
1F
100
AcDbEntity
  8
1
  6
CONTINUOUS
370
50
 62
4
100
AcDbLine
 10
25.155205
 20
7.586639
 30
0.0
 11
24.955276
 21
7.730871
 31
0.0
  0
LINE
  5
806
330
1F
100
AcDbEntity
  8
1
  6
CONTINUOUS
370
50
 62
4
100
AcDbLine
 10
26.672926
 20
6.751499
 30
0.0
 11
26.4233
 21
6.927747999999999
 31
0.0
  0
LINE
  5
807
330
1F
100
AcDbEntity
  8
1
  6
CONTINUOUS
370
50
 62
4
100
AcDbLine
 10
46.674599
 20
-16.183077
 30
0.0
 11
46.478107
 21
-16.046749
 31
0.0
  0
LINE
  5
808
330
1F
100
AcDbEntity
  8
1
  6
CONTINUOUS
370
50
 62
4
100
AcDbLine
 10
7.322584
 20
-34.506519
 30
0.0
 11
7.314000999999999
 21
-34.500595
 31
0.0
  0
LINE
  5
809
330
1F
100
AcDbEntity
  8
1
  6
CONTINUOUS
370
50
 62
4
100
AcDbLine
 10
26.672926
 20
-17.467531
 30
0.0
 11
26.4233
 21
-17.299095
 31
0.0
  0
LINE
  5
80A
330
1F
100
AcDbEntity
  8
1
  6
CONTINUOUS
370
50
 62
4
100
AcDbLine
 10
26.929441
 20
6.582510999999999
 30
0.0
 11
26.672926
 21
6.751499
 31
0.0
  0
LINE
  5
80B
330
1F
100
AcDbEntity
  8
1
  6
CONTINUOUS
370
50
 62
4
100
AcDbLine
 10
25.359123
 20
7.452548999999999
 30
0.0
 11
25.155205
 21
7.586639
 31
0.0
  0
LINE
  5
80C
330
1F
100
AcDbEntity
  8
1
  6
CONTINUOUS
370
50
 62
4
100
AcDbLine
 10
46.868713
 20
-16.306808
 30
0.0
 11
46.674599
 21
-16.183077
 31
0.0
  0
LINE
  5
80D
330
1F
100
AcDbEntity
  8
1
  6
CONTINUOUS
370
50
 62
4
100
AcDbLine
 10
23.543768
 20
29.564302
 30
0.0
 11
23.387131
 21
29.664108
 31
0.0
  0
LINE
  5
80E
330
1F
100
AcDbEntity
  8
1
  6
CONTINUOUS
370
50
 62
4
100
AcDbLine
 10
47.776001
 20
25.364779
 30
0.0
 11
47.189602
 21
25.734201
 31
0.0
  0
LINE
  5
80F
330
1F
100
AcDbEntity
  8
1
  6
CONTINUOUS
370
50
 62
4
100
AcDbLine
 10
47.189602
 20
25.734201
 30
0.0
 11
46.596359
 21
26.107847
 31
0.0
  0
LINE
  5
810
330
1F
100
AcDbEntity
  8
1
  6
CONTINUOUS
370
50
 62
4
100
AcDbLine
 10
46.596359
 20
26.107847
 30
0.0
 11
45.99615499999999
 21
26.48579
 31
0.0
  0
LINE
  5
811
330
1F
100
AcDbEntity
  8
1
  6
CONTINUOUS
370
50
 62
4
100
AcDbLine
 10
45.99615499999999
 20
26.48579
 30
0.0
 11
45.388866
 21
26.868105
 31
0.0
  0
LINE
  5
812
330
1F
100
AcDbEntity
  8
1
  6
CONTINUOUS
370
50
 62
4
100
AcDbLine
 10
45.388866
 20
26.868105
 30
0.0
 11
44.774372
 21
27.254869
 31
0.0
  0
LINE
  5
813
330
1F
100
AcDbEntity
  8
1
  6
CONTINUOUS
370
50
 62
4
100
AcDbLine
 10
44.774372
 20
27.254869
 30
0.0
 11
44.152546
 21
27.646166
 31
0.0
  0
LINE
  5
814
330
1F
100
AcDbEntity
  8
1
  6
CONTINUOUS
370
50
 62
4
100
AcDbLine
 10
44.152546
 20
27.646166
 30
0.0
 11
43.523258
 21
28.042074
 31
0.0
  0
LINE
  5
815
330
1F
100
AcDbEntity
  8
1
  6
CONTINUOUS
370
50
 62
4
100
AcDbLine
 10
26.929441
 20
-17.62879
 30
0.0
 11
26.672926
 21
-17.467531
 31
0.0
  0
LINE
  5
816
330
1F
100
AcDbEntity
  8
1
  6
CONTINUOUS
370
50
 62
4
100
AcDbLine
 10
47.776001
 20
26.868095
 30
0.0
 11
47.27376899999999
 21
27.183214
 31
0.0
  0
LINE
  5
817
330
1F
100
AcDbEntity
  8
1
  6
CONTINUOUS
370
50
 62
4
100
AcDbLine
 10
47.27376899999999
 20
27.183214
 30
0.0
 11
46.766541
 21
27.501427
 31
0.0
  0
LINE
  5
818
330
1F
100
AcDbEntity
  8
1
  6
CONTINUOUS
370
50
 62
4
100
AcDbLine
 10
46.766541
 20
27.501427
 30
0.0
 11
46.25424599999999
 21
27.822779
 31
0.0
  0
LINE
  5
819
330
1F
100
AcDbEntity
  8
1
  6
CONTINUOUS
370
50
 62
4
100
AcDbLine
 10
47.776001
 20
35.643692
 30
0.0
 11
47.189518
 21
36.011574
 31
0.0
  0
LINE
  5
81A
330
1F
100
AcDbEntity
  8
1
  6
CONTINUOUS
370
50
 62
4
100
AcDbLine
 10
46.25424599999999
 20
27.822779
 30
0.0
 11
45.736809
 21
28.147318
 31
0.0
  0
LINE
  5
81B
330
1F
100
AcDbEntity
  8
1
  6
CONTINUOUS
370
50
 62
4
100
AcDbLine
 10
47.189518
 20
36.011574
 30
0.0
 11
46.596218
 21
36.383678
 31
0.0
  0
LINE
  5
81C
330
1F
100
AcDbEntity
  8
1
  6
CONTINUOUS
370
50
 62
4
100
AcDbLine
 10
45.736809
 20
28.147318
 30
0.0
 11
45.214149
 21
28.475094
 31
0.0
  0
LINE
  5
81D
330
1F
100
AcDbEntity
  8
1
  6
CONTINUOUS
370
50
 62
4
100
AcDbLine
 10
46.596218
 20
36.383678
 30
0.0
 11
45.995983
 21
36.760078
 31
0.0
  0
LINE
  5
81E
330
1F
100
AcDbEntity
  8
1
  6
CONTINUOUS
370
50
 62
4
100
AcDbLine
 10
45.214149
 20
28.475094
 30
0.0
 11
44.686195
 21
28.806154
 31
0.0
  0
LINE
  5
81F
330
1F
100
AcDbEntity
  8
1
  6
CONTINUOUS
370
50
 62
4
100
AcDbLine
 10
45.995983
 20
36.760078
 30
0.0
 11
45.388699
 21
37.140854
 31
0.0
  0
LINE
  5
820
330
1F
100
AcDbEntity
  8
1
  6
CONTINUOUS
370
50
 62
4
100
AcDbLine
 10
45.388699
 20
37.140854
 30
0.0
 11
44.774231
 21
37.526077
 31
0.0
  0
LINE
  5
821
330
1F
100
AcDbEntity
  8
1
  6
CONTINUOUS
370
50
 62
4
100
AcDbLine
 10
44.774231
 20
37.526077
 30
0.0
 11
44.152462
 21
37.915833
 31
0.0
  0
LINE
  5
822
330
1F
100
AcDbEntity
  8
1
  6
CONTINUOUS
370
50
 62
4
100
AcDbLine
 10
44.152462
 20
37.915833
 30
0.0
 11
43.523258
 21
38.3102
 31
0.0
  0
LINE
  5
823
330
1F
100
AcDbEntity
  8
1
  6
CONTINUOUS
370
50
 62
4
100
AcDbLine
 10
34.651825
 20
28.175804
 30
0.0
 11
32.940102
 21
29.24305
 31
0.0
  0
LINE
  5
824
330
1F
100
AcDbEntity
  8
1
  6
CONTINUOUS
370
50
 62
4
100
AcDbLine
 10
38.009193
 20
28.872734
 30
0.0
 11
33.000717
 21
31.995478
 31
0.0
  0
LINE
  5
825
330
1F
100
AcDbEntity
  8
1
  6
CONTINUOUS
370
50
 62
4
100
AcDbLine
 10
27.192411
 20
6.421196
 30
0.0
 11
26.929441
 21
6.582510999999999
 31
0.0
  0
LINE
  5
826
330
1F
100
AcDbEntity
  8
1
  6
CONTINUOUS
370
50
 62
4
100
AcDbLine
 10
7.317227
 20
-34.502697
 30
0.0
 11
7.306271
 21
-34.496017
 31
0.0
  0
LINE
  5
827
330
1F
100
AcDbEntity
  8
1
  6
CONTINUOUS
370
50
 62
4
100
AcDbLine
 10
25.566591
 20
7.328415
 30
0.0
 11
25.359123
 21
7.452548999999999
 31
0.0
  0
LINE
  5
828
330
1F
100
AcDbEntity
  8
1
  6
CONTINUOUS
370
50
 62
4
100
AcDbLine
 10
26.672926
 20
29.633312
 30
0.0
 11
26.4233
 21
29.782467
 31
0.0
  0
LINE
  5
829
330
1F
100
AcDbEntity
  8
1
  6
CONTINUOUS
370
50
 62
4
100
AcDbLine
 10
27.192411
 20
-17.782509
 30
0.0
 11
26.929441
 21
-17.62879
 31
0.0
  0
LINE
  5
82A
330
1F
100
AcDbEntity
  8
1
  6
CONTINUOUS
370
50
 62
4
100
AcDbLine
 10
47.060192
 20
-16.418169
 30
0.0
 11
46.868713
 21
-16.306808
 31
0.0
  0
LINE
  5
82B
330
1F
100
AcDbEntity
  8
1
  6
CONTINUOUS
370
50
 62
4
100
AcDbLine
 10
7.314000999999999
 20
-34.500595
 30
0.0
 11
7.303836
 21
-34.494686
 31
0.0
  0
LINE
  5
82C
330
1F
100
AcDbEntity
  8
1
  6
CONTINUOUS
370
50
 62
4
100
AcDbLine
 10
27.461363
 20
6.267899
 30
0.0
 11
27.192411
 21
6.421196
 31
0.0
  0
LINE
  5
82D
330
1F
100
AcDbEntity
  8
1
  6
CONTINUOUS
370
50
 62
4
100
AcDbLine
 10
22.773203
 20
43.77084
 30
0.0
 11
22.693216
 21
43.816399
 31
0.0
  0
LINE
  5
82E
330
1F
100
AcDbEntity
  8
1
  6
CONTINUOUS
370
50
 62
4
100
AcDbLine
 10
26.929441
 20
29.490065
 30
0.0
 11
26.672926
 21
29.633312
 31
0.0
  0
LINE
  5
82F
330
1F
100
AcDbEntity
  8
1
  6
CONTINUOUS
370
50
 62
4
100
AcDbLine
 10
25.777172
 20
7.214055
 30
0.0
 11
25.566591
 21
7.328415
 31
0.0
  0
LINE
  5
830
330
1F
100
AcDbEntity
  8
1
  6
CONTINUOUS
370
50
 62
4
100
AcDbLine
 10
27.461363
 20
-17.928392
 30
0.0
 11
27.192411
 21
-17.782509
 31
0.0
  0
LINE
  5
831
330
1F
100
AcDbEntity
  8
1
  6
CONTINUOUS
370
50
 62
4
100
AcDbLine
 10
27.735815
 20
6.122962999999999
 30
0.0
 11
27.461363
 21
6.267899
 31
0.0
  0
LINE
  5
832
330
1F
100
AcDbEntity
  8
1
  6
CONTINUOUS
370
50
 62
4
100
AcDbLine
 10
47.25604999999999
 20
-16.521082
 30
0.0
 11
47.060192
 21
-16.418169
 31
0.0
  0
LINE
  5
833
330
1F
100
AcDbEntity
  8
1
  6
CONTINUOUS
370
50
 62
4
100
AcDbLine
 10
27.192411
 20
29.353106
 30
0.0
 11
26.929441
 21
29.490065
 31
0.0
  0
LINE
  5
834
330
1F
100
AcDbEntity
  8
1
  6
CONTINUOUS
370
50
 62
4
100
AcDbLine
 10
7.306271
 20
-34.496017
 30
0.0
 11
7.293291
 21
-34.48938
 31
0.0
  0
LINE
  5
835
330
1F
100
AcDbEntity
  8
1
  6
CONTINUOUS
370
50
 62
4
100
AcDbLine
 10
26.672905
 20
-38.226894
 30
0.0
 11
26.4233
 21
-38.09964
 31
0.0
  0
LINE
  5
836
330
1F
100
AcDbEntity
  8
1
  6
CONTINUOUS
370
50
 62
4
100
AcDbLine
 10
27.735815
 20
-18.066145
 30
0.0
 11
27.461363
 21
-17.928392
 31
0.0
  0
LINE
  5
837
330
1F
100
AcDbEntity
  8
1
  6
CONTINUOUS
370
50
 62
4
100
AcDbLine
 10
7.303836
 20
-34.494686
 30
0.0
 11
7.292084
 21
-34.488811
 31
0.0
  0
LINE
  5
838
330
1F
100
AcDbEntity
  8
1
  6
CONTINUOUS
370
50
 62
4
100
AcDbLine
 10
23.708344
 20
29.483356
 30
0.0
 11
23.543768
 21
29.564302
 31
0.0
  0
LINE
  5
839
330
1F
100
AcDbEntity
  8
1
  6
CONTINUOUS
370
50
 62
4
100
AcDbLine
 10
25.990427
 20
7.109281999999999
 30
0.0
 11
25.777172
 21
7.214055
 31
0.0
  0
LINE
  5
83A
330
1F
100
AcDbEntity
  8
1
  6
CONTINUOUS
370
50
 62
4
100
AcDbLine
 10
28.015293
 20
5.986733
 30
0.0
 11
27.735815
 21
6.122962999999999
 31
0.0
  0
LINE
  5
83B
330
1F
100
AcDbEntity
  8
1
  6
CONTINUOUS
370
50
 62
4
100
AcDbLine
 10
27.461363
 20
29.222757
 30
0.0
 11
27.192411
 21
29.353106
 31
0.0
  0
LINE
  5
83C
330
1F
100
AcDbEntity
  8
1
  6
CONTINUOUS
370
50
 62
4
100
AcDbLine
 10
26.929401
 20
-38.348473
 30
0.0
 11
26.672905
 21
-38.226894
 31
0.0
  0
LINE
  5
83D
330
1F
100
AcDbEntity
  8
1
  6
CONTINUOUS
370
50
 62
4
100
AcDbLine
 10
47.45725299999999
 20
-16.615242
 30
0.0
 11
47.25604999999999
 21
-16.521082
 31
0.0
  0
LINE
  5
83E
330
1F
100
AcDbEntity
  8
1
  6
CONTINUOUS
370
50
 62
4
100
AcDbLine
 10
28.015293
 20
-18.195467
 30
0.0
 11
27.735815
 21
-18.066145
 31
0.0
  0
LINE
  5
83F
330
1F
100
AcDbEntity
  8
1
  6
CONTINUOUS
370
50
 62
4
100
AcDbLine
 10
27.735815
 20
29.099342
 30
0.0
 11
27.461363
 21
29.222757
 31
0.0
  0
LINE
  5
840
330
1F
100
AcDbEntity
  8
1
  6
CONTINUOUS
370
50
 62
4
100
AcDbLine
 10
28.299318
 20
5.859553
 30
0.0
 11
28.015293
 21
5.986733
 31
0.0
  0
LINE
  5
841
330
1F
100
AcDbEntity
  8
1
  6
CONTINUOUS
370
50
 62
4
100
AcDbLine
 10
26.205921
 20
7.013911999999999
 30
0.0
 11
25.990427
 21
7.109281999999999
 31
0.0
  0
LINE
  5
842
330
1F
100
AcDbEntity
  8
1
  6
CONTINUOUS
370
50
 62
4
100
AcDbLine
 10
27.19236
 20
-38.464149
 30
0.0
 11
26.929401
 21
-38.348473
 31
0.0
  0
LINE
  5
843
330
1F
100
AcDbEntity
  8
1
  6
CONTINUOUS
370
50
 62
4
100
AcDbLine
 10
7.293291
 20
-34.48938
 30
0.0
 11
7.278278999999999
 21
-34.482811
 31
0.0
  0
LINE
  5
844
330
1F
100
AcDbEntity
  8
1
  6
CONTINUOUS
370
50
 62
4
100
AcDbLine
 10
7.292084
 20
-34.488811
 30
0.0
 11
7.278735999999999
 21
-34.48299799999999
 31
0.0
  0
LINE
  5
845
330
1F
100
AcDbEntity
  8
1
  6
CONTINUOUS
370
50
 62
4
100
AcDbLine
 10
23.070213
 20
-8.342646
 30
0.0
 11
22.546812
 21
-8.116927
 31
0.0
  0
LINE
  5
846
330
1F
100
AcDbEntity
  8
1
  6
CONTINUOUS
370
50
 62
4
100
AcDbLine
 10
23.603275
 20
-8.572505
 30
0.0
 11
23.070213
 21
-8.342646
 31
0.0
  0
LINE
  5
847
330
1F
100
AcDbEntity
  8
1
  6
CONTINUOUS
370
50
 62
4
100
AcDbLine
 10
24.146269
 20
-8.806619
 30
0.0
 11
23.603275
 21
-8.572505
 31
0.0
  0
LINE
  5
848
330
1F
100
AcDbEntity
  8
1
  6
CONTINUOUS
370
50
 62
4
100
AcDbLine
 10
24.699469
 20
-9.045107999999999
 30
0.0
 11
24.146269
 21
-8.806619
 31
0.0
  0
LINE
  5
849
330
1F
100
AcDbEntity
  8
1
  6
CONTINUOUS
370
50
 62
4
100
AcDbLine
 10
25.263165
 20
-9.288096999999999
 30
0.0
 11
24.699469
 21
-9.045107999999999
 31
0.0
  0
LINE
  5
84A
330
1F
100
AcDbEntity
  8
1
  6
CONTINUOUS
370
50
 62
4
100
AcDbLine
 10
25.837656
 20
-9.535715999999999
 30
0.0
 11
25.263165
 21
-9.288096999999999
 31
0.0
  0
LINE
  5
84B
330
1F
100
AcDbEntity
  8
1
  6
CONTINUOUS
370
50
 62
4
100
AcDbLine
 10
26.423258
 20
-9.788096999999999
 30
0.0
 11
25.837656
 21
-9.535715999999999
 31
0.0
  0
LINE
  5
84C
330
1F
100
AcDbEntity
  8
1
  6
CONTINUOUS
370
50
 62
4
100
AcDbLine
 10
28.299318
 20
-18.316063
 30
0.0
 11
28.015293
 21
-18.195467
 31
0.0
  0
LINE
  5
84D
330
1F
100
AcDbEntity
  8
1
  6
CONTINUOUS
370
50
 62
4
100
AcDbLine
 10
28.015293
 20
28.983187
 30
0.0
 11
27.735815
 21
29.099342
 31
0.0
  0
LINE
  5
84E
330
1F
100
AcDbEntity
  8
1
  6
CONTINUOUS
370
50
 62
4
100
AcDbLine
 10
28.587444
 20
5.741744
 30
0.0
 11
28.299318
 21
5.859553
 31
0.0
  0
LINE
  5
84F
330
1F
100
AcDbEntity
  8
1
  6
CONTINUOUS
370
50
 62
4
100
AcDbLine
 10
47.661736
 20
-16.698702
 30
0.0
 11
47.45725299999999
 21
-16.615242
 31
0.0
  0
LINE
  5
850
330
1F
100
AcDbEntity
  8
1
  6
CONTINUOUS
370
50
 62
4
100
AcDbLine
 10
27.461302
 20
-38.573723
 30
0.0
 11
27.19236
 21
-38.464149
 31
0.0
  0
LINE
  5
851
330
1F
100
AcDbEntity
  8
1
  6
CONTINUOUS
370
50
 62
4
100
AcDbLine
 10
26.423256
 20
6.927715999999999
 30
0.0
 11
26.205921
 21
7.013911999999999
 31
0.0
  0
LINE
  5
852
330
1F
100
AcDbEntity
  8
1
  6
CONTINUOUS
370
50
 62
4
100
AcDbLine
 10
28.587444
 20
-18.427658
 30
0.0
 11
28.299318
 21
-18.316063
 31
0.0
  0
LINE
  5
853
330
1F
100
AcDbEntity
  8
1
  6
CONTINUOUS
370
50
 62
4
100
AcDbLine
 10
7.278735999999999
 20
-34.48299799999999
 30
0.0
 11
7.263814
 21
-34.477261
 31
0.0
  0
LINE
  5
854
330
1F
100
AcDbEntity
  8
1
  6
CONTINUOUS
370
50
 62
4
100
AcDbLine
 10
28.299318
 20
28.874613
 30
0.0
 11
28.015293
 21
28.983187
 31
0.0
  0
LINE
  5
855
330
1F
100
AcDbEntity
  8
1
  6
CONTINUOUS
370
50
 62
4
100
AcDbLine
 10
7.278278999999999
 20
-34.482811
 30
0.0
 11
7.261266
 21
-34.47634499999999
 31
0.0
  0
LINE
  5
856
330
1F
100
AcDbEntity
  8
1
  6
CONTINUOUS
370
50
 62
4
100
AcDbLine
 10
47.694328
 20
-16.711048
 30
0.0
 11
47.678028
 21
-16.704887
 31
0.0
  0
LINE
  5
857
330
1F
100
AcDbEntity
  8
1
  6
CONTINUOUS
370
50
 62
4
100
AcDbLine
 10
47.743298
 20
-16.729555
 30
0.0
 11
47.726963
 21
-16.723381
 31
0.0
  0
LINE
  5
858
330
1F
100
AcDbEntity
  8
1
  6
CONTINUOUS
370
50
 62
4
100
AcDbLine
 10
47.776001
 20
-16.741913
 30
0.0
 11
47.75964399999999
 21
-16.735731
 31
0.0
  0
LINE
  5
859
330
1F
100
AcDbEntity
  8
1
  6
CONTINUOUS
370
50
 62
4
100
AcDbLine
 10
47.71064
 20
-16.717213
 30
0.0
 11
47.694328
 21
-16.711048
 31
0.0
  0
LINE
  5
85A
330
1F
100
AcDbEntity
  8
1
  6
CONTINUOUS
370
50
 62
4
100
AcDbLine
 10
47.678028
 20
-16.704887
 30
0.0
 11
47.661736
 21
-16.69873
 31
0.0
  0
LINE
  5
85B
330
1F
100
AcDbEntity
  8
1
  6
CONTINUOUS
370
50
 62
4
100
AcDbLine
 10
47.726963
 20
-16.723381
 30
0.0
 11
47.71064
 21
-16.717213
 31
0.0
  0
LINE
  5
85C
330
1F
100
AcDbEntity
  8
1
  6
CONTINUOUS
370
50
 62
4
100
AcDbLine
 10
47.75964399999999
 20
-16.735731
 30
0.0
 11
47.743298
 21
-16.729555
 31
0.0
  0
LINE
  5
85D
330
1F
100
AcDbEntity
  8
1
  6
CONTINUOUS
370
50
 62
4
100
AcDbLine
 10
27.735752
 20
-38.677006
 30
0.0
 11
27.461302
 21
-38.573723
 31
0.0
  0
LINE
  5
85E
330
1F
100
AcDbEntity
  8
1
  6
CONTINUOUS
370
50
 62
4
100
AcDbLine
 10
28.879242
 20
5.63347
 30
0.0
 11
28.587444
 21
5.741744
 31
0.0
  0
LINE
  5
85F
330
1F
100
AcDbEntity
  8
1
  6
CONTINUOUS
370
50
 62
4
100
AcDbLine
 10
26.672926
 20
46.645885
 30
0.0
 11
26.4233
 21
46.7384
 31
0.0
  0
LINE
  5
860
330
1F
100
AcDbEntity
  8
1
  6
CONTINUOUS
370
50
 62
4
100
AcDbLine
 10
23.879313
 20
29.420387
 30
0.0
 11
23.708344
 21
29.483356
 31
0.0
  0
LINE
  5
861
330
1F
100
AcDbEntity
  8
1
  6
CONTINUOUS
370
50
 62
4
100
AcDbLine
 10
28.879242
 20
-18.530125
 30
0.0
 11
28.587444
 21
-18.427658
 31
0.0
  0
LINE
  5
862
330
1F
100
AcDbEntity
  8
1
  6
CONTINUOUS
370
50
 62
4
100
AcDbLine
 10
28.587444
 20
28.773924
 30
0.0
 11
28.299318
 21
28.874613
 31
0.0
  0
LINE
  5
863
330
1F
100
AcDbEntity
  8
1
  6
CONTINUOUS
370
50
 62
4
100
AcDbLine
 10
26.929441
 20
46.556747
 30
0.0
 11
26.672926
 21
46.645885
 31
0.0
  0
LINE
  5
864
330
1F
100
AcDbEntity
  8
1
  6
CONTINUOUS
370
50
 62
4
100
AcDbLine
 10
28.01523
 20
-38.77381099999999
 30
0.0
 11
27.735752
 21
-38.677006
 31
0.0
  0
LINE
  5
865
330
1F
100
AcDbEntity
  8
1
  6
CONTINUOUS
370
50
 62
4
100
AcDbLine
 10
7.263814
 20
-34.477261
 30
0.0
 11
7.247406
 21
-34.471626
 31
0.0
  0
LINE
  5
866
330
1F
100
AcDbEntity
  8
1
  6
CONTINUOUS
370
50
 62
4
100
AcDbLine
 10
7.261266
 20
-34.47634499999999
 30
0.0
 11
7.242376999999999
 21
-34.470013
 31
0.0
  0
LINE
  5
867
330
1F
100
AcDbEntity
  8
1
  6
CONTINUOUS
370
50
 62
4
100
AcDbLine
 10
29.174154
 20
5.534844
 30
0.0
 11
28.879242
 21
5.63347
 31
0.0
  0
LINE
  5
868
330
1F
100
AcDbEntity
  8
1
  6
CONTINUOUS
370
50
 62
4
100
AcDbLine
 10
27.192411
 20
46.471272
 30
0.0
 11
26.929441
 21
46.556747
 31
0.0
  0
LINE
  5
869
330
1F
100
AcDbEntity
  8
1
  6
CONTINUOUS
370
50
 62
4
100
AcDbLine
 10
28.879242
 20
28.681286
 30
0.0
 11
28.587444
 21
28.773924
 31
0.0
  0
LINE
  5
86A
330
1F
100
AcDbEntity
  8
1
  6
CONTINUOUS
370
50
 62
4
100
AcDbLine
 10
28.299259
 20
-38.863941
 30
0.0
 11
28.01523
 21
-38.77381099999999
 31
0.0
  0
LINE
  5
86B
330
1F
100
AcDbEntity
  8
1
  6
CONTINUOUS
370
50
 62
4
100
AcDbLine
 10
29.174154
 20
-18.623377
 30
0.0
 11
28.879242
 21
-18.530125
 31
0.0
  0
LINE
  5
86C
330
1F
100
AcDbEntity
  8
1
  6
CONTINUOUS
370
50
 62
4
100
AcDbLine
 10
7.247406
 20
-34.471626
 30
0.0
 11
7.229606
 21
-34.466114
 31
0.0
  0
LINE
  5
86D
330
1F
100
AcDbEntity
  8
1
  6
CONTINUOUS
370
50
 62
4
100
AcDbLine
 10
27.461363
 20
46.38968999999999
 30
0.0
 11
27.192411
 21
46.471272
 31
0.0
  0
LINE
  5
86E
330
1F
100
AcDbEntity
  8
1
  6
CONTINUOUS
370
50
 62
4
100
AcDbLine
 10
7.242376999999999
 20
-34.470013
 30
0.0
 11
7.221750999999999
 21
-34.46384
 31
0.0
  0
LINE
  5
86F
330
1F
100
AcDbEntity
  8
1
  6
CONTINUOUS
370
50
 62
4
100
AcDbLine
 10
29.471605
 20
5.445986
 30
0.0
 11
29.174154
 21
5.534844
 31
0.0
  0
LINE
  5
870
330
1F
100
AcDbEntity
  8
1
  6
CONTINUOUS
370
50
 62
4
100
AcDbLine
 10
45.314373
 20
-14.587269
 30
0.0
 11
44.851414
 21
-14.450922
 31
0.0
  0
LINE
  5
871
330
1F
100
AcDbEntity
  8
1
  6
CONTINUOUS
370
50
 62
4
100
AcDbLine
 10
45.786736
 20
-14.726307
 30
0.0
 11
45.314373
 21
-14.587269
 31
0.0
  0
LINE
  5
872
330
1F
100
AcDbEntity
  8
1
  6
CONTINUOUS
370
50
 62
4
100
AcDbLine
 10
46.268776
 20
-14.868116
 30
0.0
 11
45.786736
 21
-14.726307
 31
0.0
  0
LINE
  5
873
330
1F
100
AcDbEntity
  8
1
  6
CONTINUOUS
370
50
 62
4
100
AcDbLine
 10
46.760796
 20
-15.012786
 30
0.0
 11
46.268776
 21
-14.868116
 31
0.0
  0
LINE
  5
874
330
1F
100
AcDbEntity
  8
1
  6
CONTINUOUS
370
50
 62
4
100
AcDbLine
 10
47.263096
 20
-15.160402
 30
0.0
 11
46.760796
 21
-15.012786
 31
0.0
  0
LINE
  5
875
330
1F
100
AcDbEntity
  8
1
  6
CONTINUOUS
370
50
 62
4
100
AcDbLine
 10
47.776001
 20
-15.311061
 30
0.0
 11
47.263096
 21
-15.160402
 31
0.0
  0
LINE
  5
876
330
1F
100
AcDbEntity
  8
1
  6
CONTINUOUS
370
50
 62
4
100
AcDbLine
 10
43.129921
 20
-10.637234
 30
0.0
 11
42.91428
 21
-10.574452
 31
0.0
  0
LINE
  5
877
330
1F
100
AcDbEntity
  8
1
  6
CONTINUOUS
370
50
 62
4
100
AcDbLine
 10
43.347656
 20
-10.70062
 30
0.0
 11
43.129921
 21
-10.637234
 31
0.0
  0
LINE
  5
878
330
1F
100
AcDbEntity
  8
1
  6
CONTINUOUS
370
50
 62
4
100
AcDbLine
 10
43.567509
 20
-10.764618
 30
0.0
 11
43.347656
 21
-10.70062
 31
0.0
  0
LINE
  5
879
330
1F
100
AcDbEntity
  8
1
  6
CONTINUOUS
370
50
 62
4
100
AcDbLine
 10
43.789516
 20
-10.829237
 30
0.0
 11
43.567509
 21
-10.764618
 31
0.0
  0
LINE
  5
87A
330
1F
100
AcDbEntity
  8
1
  6
CONTINUOUS
370
50
 62
4
100
AcDbLine
 10
44.01371
 20
-10.894486
 30
0.0
 11
43.789516
 21
-10.829237
 31
0.0
  0
LINE
  5
87B
330
1F
100
AcDbEntity
  8
1
  6
CONTINUOUS
370
50
 62
4
100
AcDbLine
 10
44.240116
 20
-10.960376
 30
0.0
 11
44.01371
 21
-10.894486
 31
0.0
  0
LINE
  5
87C
330
1F
100
AcDbEntity
  8
1
  6
CONTINUOUS
370
50
 62
4
100
AcDbLine
 10
28.587389
 20
-38.94722
 30
0.0
 11
28.299259
 21
-38.863941
 31
0.0
  0
LINE
  5
87D
330
1F
100
AcDbEntity
  8
1
  6
CONTINUOUS
370
50
 62
4
100
AcDbLine
 10
29.174154
 20
28.596823
 30
0.0
 11
28.879242
 21
28.681286
 31
0.0
  0
LINE
  5
87E
330
1F
100
AcDbEntity
  8
1
  6
CONTINUOUS
370
50
 62
4
100
AcDbLine
 10
29.471605
 20
-18.707325
 30
0.0
 11
29.174154
 21
-18.623377
 31
0.0
  0
LINE
  5
87F
330
1F
100
AcDbEntity
  8
1
  6
CONTINUOUS
370
50
 62
4
100
AcDbLine
 10
27.735815
 20
46.312241
 30
0.0
 11
27.461363
 21
46.38968999999999
 31
0.0
  0
LINE
  5
880
330
1F
100
AcDbEntity
  8
1
  6
CONTINUOUS
370
50
 62
4
100
AcDbLine
 10
7.229606
 20
-34.466114
 30
0.0
 11
7.210513
 21
-34.460739
 31
0.0
  0
LINE
  5
881
330
1F
100
AcDbEntity
  8
1
  6
CONTINUOUS
370
50
 62
4
100
AcDbLine
 10
7.221750999999999
 20
-34.46384
 30
0.0
 11
7.199527
 21
-34.457855
 31
0.0
  0
LINE
  5
882
330
1F
100
AcDbEntity
  8
1
  6
CONTINUOUS
370
50
 62
4
100
AcDbLine
 10
29.771027
 20
5.367013
 30
0.0
 11
29.471605
 21
5.445986
 31
0.0
  0
LINE
  5
883
330
1F
100
AcDbEntity
  8
1
  6
CONTINUOUS
370
50
 62
4
100
AcDbLine
 10
24.055063
 20
29.374306
 30
0.0
 11
23.879313
 21
29.420387
 31
0.0
  0
LINE
  5
884
330
1F
100
AcDbEntity
  8
1
  6
CONTINUOUS
370
50
 62
4
100
AcDbLine
 10
28.879194
 20
-39.02359
 30
0.0
 11
28.587389
 21
-38.94722
 31
0.0
  0
LINE
  5
885
330
1F
100
AcDbEntity
  8
1
  6
CONTINUOUS
370
50
 62
4
100
AcDbLine
 10
28.015293
 20
46.239166
 30
0.0
 11
27.735815
 21
46.312241
 31
0.0
  0
LINE
  5
886
330
1F
100
AcDbEntity
  8
1
  6
CONTINUOUS
370
50
 62
4
100
AcDbLine
 10
7.210513
 20
-34.460739
 30
0.0
 11
7.190220999999999
 21
-34.455521
 31
0.0
  0
LINE
  5
887
330
1F
100
AcDbEntity
  8
1
  6
CONTINUOUS
370
50
 62
4
100
AcDbLine
 10
29.471605
 20
28.520653
 30
0.0
 11
29.174154
 21
28.596823
 31
0.0
  0
LINE
  5
888
330
1F
100
AcDbEntity
  8
1
  6
CONTINUOUS
370
50
 62
4
100
AcDbLine
 10
29.771027
 20
-18.781878
 30
0.0
 11
29.471605
 21
-18.707325
 31
0.0
  0
LINE
  5
889
330
1F
100
AcDbEntity
  8
1
  6
CONTINUOUS
370
50
 62
4
100
AcDbLine
 10
26.672926
 20
-51.41497
 30
0.0
 11
26.4233
 21
-51.354084
 31
0.0
  0
LINE
  5
88A
330
1F
100
AcDbEntity
  8
1
  6
CONTINUOUS
370
50
 62
4
100
AcDbLine
 10
7.199527
 20
-34.457855
 30
0.0
 11
7.175844
 21
-34.452084
 31
0.0
  0
LINE
  5
88B
330
1F
100
AcDbEntity
  8
1
  6
CONTINUOUS
370
50
 62
4
100
AcDbLine
 10
28.299318
 20
46.1707
 30
0.0
 11
28.015293
 21
46.239166
 31
0.0
  0
LINE
  5
88C
330
1F
100
AcDbEntity
  8
1
  6
CONTINUOUS
370
50
 62
4
100
AcDbLine
 10
7.190220999999999
 20
-34.455521
 30
0.0
 11
7.168828
 21
-34.450478
 31
0.0
  0
LINE
  5
88D
330
1F
100
AcDbEntity
  8
1
  6
CONTINUOUS
370
50
 62
4
100
AcDbLine
 10
29.174114
 20
-39.093002
 30
0.0
 11
28.879194
 21
-39.02359
 31
0.0
  0
LINE
  5
88E
330
1F
100
AcDbEntity
  8
1
  6
CONTINUOUS
370
50
 62
4
100
AcDbLine
 10
30.071844
 20
5.298042
 30
0.0
 11
29.771027
 21
5.367013
 31
0.0
  0
LINE
  5
88F
330
1F
100
AcDbEntity
  8
1
  6
CONTINUOUS
370
50
 62
4
100
AcDbLine
 10
29.771027
 20
28.452902
 30
0.0
 11
29.471605
 21
28.520653
 31
0.0
  0
LINE
  5
890
330
1F
100
AcDbEntity
  8
1
  6
CONTINUOUS
370
50
 62
4
100
AcDbLine
 10
26.929441
 20
-51.472805
 30
0.0
 11
26.672926
 21
-51.41497
 31
0.0
  0
LINE
  5
891
330
1F
100
AcDbEntity
  8
1
  6
CONTINUOUS
370
50
 62
4
100
AcDbLine
 10
47.776001
 20
3.93436
 30
0.0
 11
47.189602
 21
4.066130999999999
 31
0.0
  0
LINE
  5
892
330
1F
100
AcDbEntity
  8
1
  6
CONTINUOUS
370
50
 62
4
100
AcDbLine
 10
47.189602
 20
4.066130999999999
 30
0.0
 11
46.596359
 21
4.199409
 31
0.0
  0
LINE
  5
893
330
1F
100
AcDbEntity
  8
1
  6
CONTINUOUS
370
50
 62
4
100
AcDbLine
 10
46.596359
 20
4.199409
 30
0.0
 11
45.99615499999999
 21
4.334223
 31
0.0
  0
LINE
  5
894
330
1F
100
AcDbEntity
  8
1
  6
CONTINUOUS
370
50
 62
4
100
AcDbLine
 10
45.99615499999999
 20
4.334223
 30
0.0
 11
45.388866
 21
4.470597
 31
0.0
  0
LINE
  5
895
330
1F
100
AcDbEntity
  8
1
  6
CONTINUOUS
370
50
 62
4
100
AcDbLine
 10
45.388866
 20
4.470597
 30
0.0
 11
44.774372
 21
4.608561
 31
0.0
  0
LINE
  5
896
330
1F
100
AcDbEntity
  8
1
  6
CONTINUOUS
370
50
 62
4
100
AcDbLine
 10
44.774372
 20
4.608561
 30
0.0
 11
44.152546
 21
4.748143
 31
0.0
  0
LINE
  5
897
330
1F
100
AcDbEntity
  8
1
  6
CONTINUOUS
370
50
 62
4
100
AcDbLine
 10
44.152546
 20
4.748143
 30
0.0
 11
43.523258
 21
4.88937
 31
0.0
  0
LINE
  5
898
330
1F
100
AcDbEntity
  8
1
  6
CONTINUOUS
370
50
 62
4
100
AcDbLine
 10
47.776001
 20
5.683604
 30
0.0
 11
47.189518
 21
5.814977
 31
0.0
  0
LINE
  5
899
330
1F
100
AcDbEntity
  8
1
  6
CONTINUOUS
370
50
 62
4
100
AcDbLine
 10
47.189518
 20
5.814977
 30
0.0
 11
46.596218
 21
5.947855
 31
0.0
  0
LINE
  5
89A
330
1F
100
AcDbEntity
  8
1
  6
CONTINUOUS
370
50
 62
4
100
AcDbLine
 10
46.596218
 20
5.947855
 30
0.0
 11
45.995983
 21
6.082267
 31
0.0
  0
LINE
  5
89B
330
1F
100
AcDbEntity
  8
1
  6
CONTINUOUS
370
50
 62
4
100
AcDbLine
 10
45.995983
 20
6.082267
 30
0.0
 11
45.388699
 21
6.218237999999999
 31
0.0
  0
LINE
  5
89C
330
1F
100
AcDbEntity
  8
1
  6
CONTINUOUS
370
50
 62
4
100
AcDbLine
 10
45.388699
 20
6.218237999999999
 30
0.0
 11
44.774231
 21
6.355798
 31
0.0
  0
LINE
  5
89D
330
1F
100
AcDbEntity
  8
1
  6
CONTINUOUS
370
50
 62
4
100
AcDbLine
 10
44.774231
 20
6.355798
 30
0.0
 11
44.152462
 21
6.494973
 31
0.0
  0
LINE
  5
89E
330
1F
100
AcDbEntity
  8
1
  6
CONTINUOUS
370
50
 62
4
100
AcDbLine
 10
44.152462
 20
6.494973
 30
0.0
 11
43.523258
 21
6.635791999999999
 31
0.0
  0
LINE
  5
89F
330
1F
100
AcDbEntity
  8
1
  6
CONTINUOUS
370
50
 62
4
100
AcDbLine
 10
47.776001
 20
16.626595
 30
0.0
 11
47.189518
 21
16.757847
 31
0.0
  0
LINE
  5
8A0
330
1F
100
AcDbEntity
  8
1
  6
CONTINUOUS
370
50
 62
4
100
AcDbLine
 10
47.189518
 20
16.757847
 30
0.0
 11
46.596218
 21
16.890606
 31
0.0
  0
LINE
  5
8A1
330
1F
100
AcDbEntity
  8
1
  6
CONTINUOUS
370
50
 62
4
100
AcDbLine
 10
46.596218
 20
16.890606
 30
0.0
 11
45.995983
 21
17.0249
 31
0.0
  0
LINE
  5
8A2
330
1F
100
AcDbEntity
  8
1
  6
CONTINUOUS
370
50
 62
4
100
AcDbLine
 10
45.995983
 20
17.0249
 30
0.0
 11
45.388699
 21
17.160757
 31
0.0
  0
LINE
  5
8A3
330
1F
100
AcDbEntity
  8
1
  6
CONTINUOUS
370
50
 62
4
100
AcDbLine
 10
45.388699
 20
17.160757
 30
0.0
 11
44.774231
 21
17.298201
 31
0.0
  0
LINE
  5
8A4
330
1F
100
AcDbEntity
  8
1
  6
CONTINUOUS
370
50
 62
4
100
AcDbLine
 10
44.774231
 20
17.298201
 30
0.0
 11
44.152462
 21
17.437262
 31
0.0
  0
LINE
  5
8A5
330
1F
100
AcDbEntity
  8
1
  6
CONTINUOUS
370
50
 62
4
100
AcDbLine
 10
44.152462
 20
17.437262
 30
0.0
 11
43.523258
 21
17.577971
 31
0.0
  0
LINE
  5
8A6
330
1F
100
AcDbEntity
  8
1
  6
CONTINUOUS
370
50
 62
4
100
AcDbLine
 10
37.948578
 20
11.067656
 30
0.0
 11
32.940102
 21
12.182158
 31
0.0
  0
LINE
  5
8A7
330
1F
100
AcDbEntity
  8
1
  6
CONTINUOUS
370
50
 62
4
100
AcDbLine
 10
38.009193
 20
14.466242
 30
0.0
 11
36.731743
 21
14.750504
 31
0.0
  0
LINE
  5
8A8
330
1F
100
AcDbEntity
  8
1
  6
CONTINUOUS
370
50
 62
4
100
AcDbLine
 10
7.175844
 20
-34.452084
 30
0.0
 11
7.150839
 21
-34.446552
 31
0.0
  0
LINE
  5
8A9
330
1F
100
AcDbEntity
  8
1
  6
CONTINUOUS
370
50
 62
4
100
AcDbLine
 10
28.587444
 20
46.10707499999999
 30
0.0
 11
28.299318
 21
46.1707
 31
0.0
  0
LINE
  5
8AA
330
1F
100
AcDbEntity
  8
1
  6
CONTINUOUS
370
50
 62
4
100
AcDbLine
 10
7.168828
 20
-34.450478
 30
0.0
 11
7.14643
 21
-34.445629
 31
0.0
  0
LINE
  5
8AB
330
1F
100
AcDbEntity
  8
1
  6
CONTINUOUS
370
50
 62
4
100
AcDbLine
 10
30.071844
 20
-18.846947
 30
0.0
 11
29.771027
 21
-18.781878
 31
0.0
  0
LINE
  5
8AC
330
1F
100
AcDbEntity
  8
1
  6
CONTINUOUS
370
50
 62
4
100
AcDbLine
 10
22.868969
 20
43.750301
 30
0.0
 11
22.773203
 21
43.77084
 31
0.0
  0
LINE
  5
8AD
330
1F
100
AcDbEntity
  8
1
  6
CONTINUOUS
370
50
 62
4
100
AcDbLine
 10
29.471575
 20
-39.155415
 30
0.0
 11
29.174114
 21
-39.093002
 31
0.0
  0
LINE
  5
8AE
330
1F
100
AcDbEntity
  8
1
  6
CONTINUOUS
370
50
 62
4
100
AcDbLine
 10
27.192411
 20
-51.527531
 30
0.0
 11
26.929441
 21
-51.472805
 31
0.0
  0
LINE
  5
8AF
330
1F
100
AcDbEntity
  8
1
  6
CONTINUOUS
370
50
 62
4
100
AcDbLine
 10
7.150839
 20
-34.446552
 30
0.0
 11
7.124652999999999
 21
-34.441288
 31
0.0
  0
LINE
  5
8B0
330
1F
100
AcDbEntity
  8
1
  6
CONTINUOUS
370
50
 62
4
100
AcDbLine
 10
28.879242
 20
46.048424
 30
0.0
 11
28.587444
 21
46.10707499999999
 31
0.0
  0
LINE
  5
8B1
330
1F
100
AcDbEntity
  8
1
  6
CONTINUOUS
370
50
 62
4
100
AcDbLine
 10
7.14643
 20
-34.445629
 30
0.0
 11
7.123124
 21
-34.440994
 31
0.0
  0
LINE
  5
8B2
330
1F
100
AcDbEntity
  8
1
  6
CONTINUOUS
370
50
 62
4
100
AcDbLine
 10
30.071844
 20
28.39369
 30
0.0
 11
29.771027
 21
28.452902
 31
0.0
  0
LINE
  5
8B3
330
1F
100
AcDbEntity
  8
1
  6
CONTINUOUS
370
50
 62
4
100
AcDbLine
 10
30.373484
 20
5.239185
 30
0.0
 11
30.071844
 21
5.298042
 31
0.0
  0
LINE
  5
8B4
330
1F
100
AcDbEntity
  8
1
  6
CONTINUOUS
370
50
 62
4
100
AcDbLine
 10
27.461363
 20
-51.57909799999999
 30
0.0
 11
27.192411
 21
-51.527531
 31
0.0
  0
LINE
  5
8B5
330
1F
100
AcDbEntity
  8
1
  6
CONTINUOUS
370
50
 62
4
100
AcDbLine
 10
29.771006
 20
-39.210785
 30
0.0
 11
29.471575
 21
-39.155415
 31
0.0
  0
LINE
  5
8B6
330
1F
100
AcDbEntity
  8
1
  6
CONTINUOUS
370
50
 62
4
100
AcDbLine
 10
30.373484
 20
-18.902447
 30
0.0
 11
30.071844
 21
-18.846947
 31
0.0
  0
LINE
  5
8B7
330
1F
100
AcDbEntity
  8
1
  6
CONTINUOUS
370
50
 62
4
100
AcDbLine
 10
7.124652999999999
 20
-34.441288
 30
0.0
 11
7.097357
 21
-34.436306
 31
0.0
  0
LINE
  5
8B8
330
1F
100
AcDbEntity
  8
1
  6
CONTINUOUS
370
50
 62
4
100
AcDbLine
 10
7.123124
 20
-34.440994
 30
0.0
 11
7.098957
 21
-34.436584
 31
0.0
  0
LINE
  5
8B9
330
1F
100
AcDbEntity
  8
1
  6
CONTINUOUS
370
50
 62
4
100
AcDbLine
 10
29.174154
 20
45.99485
 30
0.0
 11
28.879242
 21
46.048424
 31
0.0
  0
LINE
  5
8BA
330
1F
100
AcDbEntity
  8
1
  6
CONTINUOUS
370
50
 62
4
100
AcDbLine
 10
27.735815
 20
-51.627457
 30
0.0
 11
27.461363
 21
-51.57909799999999
 31
0.0
  0
LINE
  5
8BB
330
1F
100
AcDbEntity
  8
1
  6
CONTINUOUS
370
50
 62
4
100
AcDbLine
 10
24.233904
 20
29.34375
 30
0.0
 11
24.055063
 21
29.374306
 31
0.0
  0
LINE
  5
8BC
330
1F
100
AcDbEntity
  8
1
  6
CONTINUOUS
370
50
 62
4
100
AcDbLine
 10
30.373484
 20
28.343132
 30
0.0
 11
30.071844
 21
28.39369
 31
0.0
  0
LINE
  5
8BD
330
1F
100
AcDbEntity
  8
1
  6
CONTINUOUS
370
50
 62
4
100
AcDbLine
 10
7.098957
 20
-34.436584
 30
0.0
 11
7.073483
 21
-34.43232
 31
0.0
  0
LINE
  5
8BE
330
1F
100
AcDbEntity
  8
1
  6
CONTINUOUS
370
50
 62
4
100
AcDbLine
 10
7.097357
 20
-34.436306
 30
0.0
 11
7.068391
 21
-34.431511
 31
0.0
  0
LINE
  5
8BF
330
1F
100
AcDbEntity
  8
1
  6
CONTINUOUS
370
50
 62
4
100
AcDbLine
 10
29.471605
 20
45.946457
 30
0.0
 11
29.174154
 21
45.99485
 31
0.0
  0
LINE
  5
8C0
330
1F
100
AcDbEntity
  8
1
  6
CONTINUOUS
370
50
 62
4
100
AcDbLine
 10
30.675348
 20
5.190422
 30
0.0
 11
30.373484
 21
5.239185
 31
0.0
  0
LINE
  5
8C1
330
1F
100
AcDbEntity
  8
1
  6
CONTINUOUS
370
50
 62
4
100
AcDbLine
 10
28.015293
 20
-51.672565
 30
0.0
 11
27.735815
 21
-51.627457
 31
0.0
  0
LINE
  5
8C2
330
1F
100
AcDbEntity
  8
1
  6
CONTINUOUS
370
50
 62
4
100
AcDbLine
 10
30.071831
 20
-39.259064
 30
0.0
 11
29.771006
 21
-39.210785
 31
0.0
  0
LINE
  5
8C3
330
1F
100
AcDbEntity
  8
1
  6
CONTINUOUS
370
50
 62
4
100
AcDbLine
 10
7.073483
 20
-34.43232
 30
0.0
 11
7.046640999999999
 21
-34.4282
 31
0.0
  0
LINE
  5
8C4
330
1F
100
AcDbEntity
  8
1
  6
CONTINUOUS
370
50
 62
4
100
AcDbLine
 10
30.675348
 20
-18.948412
 30
0.0
 11
30.373484
 21
-18.902447
 31
0.0
  0
LINE
  5
8C5
330
1F
100
AcDbEntity
  8
1
  6
CONTINUOUS
370
50
 62
4
100
AcDbLine
 10
7.068391
 20
-34.431511
 30
0.0
 11
7.037706
 21
-34.426903
 31
0.0
  0
LINE
  5
8C6
330
1F
100
AcDbEntity
  8
1
  6
CONTINUOUS
370
50
 62
4
100
AcDbLine
 10
28.299318
 20
-51.714371
 30
0.0
 11
28.015293
 21
-51.672565
 31
0.0
  0
LINE
  5
8C7
330
1F
100
AcDbEntity
  8
1
  6
CONTINUOUS
370
50
 62
4
100
AcDbLine
 10
29.771027
 20
45.903343
 30
0.0
 11
29.471605
 21
45.946457
 31
0.0
  0
LINE
  5
8C8
330
1F
100
AcDbEntity
  8
1
  6
CONTINUOUS
370
50
 62
4
100
AcDbLine
 10
7.046640999999999
 20
-34.4282
 30
0.0
 11
7.018524999999999
 21
-34.424236
 31
0.0
  0
LINE
  5
8C9
330
1F
100
AcDbEntity
  8
1
  6
CONTINUOUS
370
50
 62
4
100
AcDbLine
 10
30.675348
 20
28.301229
 30
0.0
 11
30.373484
 21
28.343132
 31
0.0
  0
LINE
  5
8CA
330
1F
100
AcDbEntity
  8
1
  6
CONTINUOUS
370
50
 62
4
100
AcDbLine
 10
30.37348
 20
-39.300217
 30
0.0
 11
30.071831
 21
-39.259064
 31
0.0
  0
LINE
  5
8CB
330
1F
100
AcDbEntity
  8
1
  6
CONTINUOUS
370
50
 62
4
100
AcDbLine
 10
7.037706
 20
-34.426903
 30
0.0
 11
7.005433999999999
 21
-34.422508
 31
0.0
  0
LINE
  5
8CC
330
1F
100
AcDbEntity
  8
1
  6
CONTINUOUS
370
50
 62
4
100
AcDbLine
 10
28.587444
 20
-51.752838
 30
0.0
 11
28.299318
 21
-51.714371
 31
0.0
  0
LINE
  5
8CD
330
1F
100
AcDbEntity
  8
1
  6
CONTINUOUS
370
50
 62
4
100
AcDbLine
 10
7.018524999999999
 20
-34.424236
 30
0.0
 11
6.989225999999999
 21
-34.42046
 31
0.0
  0
LINE
  5
8CE
330
1F
100
AcDbEntity
  8
1
  6
CONTINUOUS
370
50
 62
4
100
AcDbLine
 10
30.976812
 20
5.151603
 30
0.0
 11
30.675348
 21
5.190422
 31
0.0
  0
LINE
  5
8CF
330
1F
100
AcDbEntity
  8
1
  6
CONTINUOUS
370
50
 62
4
100
AcDbLine
 10
30.071844
 20
45.86562
 30
0.0
 11
29.771027
 21
45.903343
 31
0.0
  0
LINE
  5
8D0
330
1F
100
AcDbEntity
  8
1
  6
CONTINUOUS
370
50
 62
4
100
AcDbLine
 10
7.005433999999999
 20
-34.422508
 30
0.0
 11
6.971709
 21
-34.418358
 31
0.0
  0
LINE
  5
8D1
330
1F
100
AcDbEntity
  8
1
  6
CONTINUOUS
370
50
 62
4
100
AcDbLine
 10
30.976812
 20
-18.984989
 30
0.0
 11
30.675348
 21
-18.948412
 31
0.0
  0
LINE
  5
8D2
330
1F
100
AcDbEntity
  8
1
  6
CONTINUOUS
370
50
 62
4
100
AcDbLine
 10
28.879242
 20
-51.787975
 30
0.0
 11
28.587444
 21
-51.752838
 31
0.0
  0
LINE
  5
8D3
330
1F
100
AcDbEntity
  8
1
  6
CONTINUOUS
370
50
 62
4
100
AcDbLine
 10
6.989225999999999
 20
-34.42046
 30
0.0
 11
6.958838999999999
 21
-34.416885
 31
0.0
  0
LINE
  5
8D4
330
1F
100
AcDbEntity
  8
1
  6
CONTINUOUS
370
50
 62
4
100
AcDbLine
 10
30.675352
 20
-39.334282
 30
0.0
 11
30.37348
 21
-39.300217
 31
0.0
  0
LINE
  5
8D5
330
1F
100
AcDbEntity
  8
1
  6
CONTINUOUS
370
50
 62
4
100
AcDbLine
 10
30.976812
 20
28.267857
 30
0.0
 11
30.675348
 21
28.301229
 31
0.0
  0
LINE
  5
8D6
330
1F
100
AcDbEntity
  8
1
  6
CONTINUOUS
370
50
 62
4
100
AcDbLine
 10
6.971709
 20
-34.418358
 30
0.0
 11
6.936663999999999
 21
-34.414486
 31
0.0
  0
LINE
  5
8D7
330
1F
100
AcDbEntity
  8
1
  6
CONTINUOUS
370
50
 62
4
100
AcDbLine
 10
29.174154
 20
-51.81979399999999
 30
0.0
 11
28.879242
 21
-51.787975
 31
0.0
  0
LINE
  5
8D8
330
1F
100
AcDbEntity
  8
1
  6
CONTINUOUS
370
50
 62
4
100
AcDbLine
 10
30.373484
 20
45.833374
 30
0.0
 11
30.071844
 21
45.86562
 31
0.0
  0
LINE
  5
8D9
330
1F
100
AcDbEntity
  8
1
  6
CONTINUOUS
370
50
 62
4
100
AcDbLine
 10
6.958838999999999
 20
-34.416885
 30
0.0
 11
6.927454999999999
 21
-34.413536
 31
0.0
  0
LINE
  5
8DA
330
1F
100
AcDbEntity
  8
1
  6
CONTINUOUS
370
50
 62
4
100
AcDbLine
 10
6.936663999999999
 20
-34.414486
 30
0.0
 11
6.900431999999999
 21
-34.410919
 31
0.0
  0
LINE
  5
8DB
330
1F
100
AcDbEntity
  8
1
  6
CONTINUOUS
370
50
 62
4
100
AcDbLine
 10
31.277252
 20
5.122573
 30
0.0
 11
30.976812
 21
5.151603
 31
0.0
  0
LINE
  5
8DC
330
1F
100
AcDbEntity
  8
1
  6
CONTINUOUS
370
50
 62
4
100
AcDbLine
 10
6.927454999999999
 20
-34.413536
 30
0.0
 11
6.895166
 21
-34.410435
 31
0.0
  0
LINE
  5
8DD
330
1F
100
AcDbEntity
  8
1
  6
CONTINUOUS
370
50
 62
4
100
AcDbLine
 10
29.471605
 20
-51.848305
 30
0.0
 11
29.174154
 21
-51.81979399999999
 31
0.0
  0
LINE
  5
8DE
330
1F
100
AcDbEntity
  8
1
  6
CONTINUOUS
370
50
 62
4
100
AcDbLine
 10
24.414141
 20
29.327341
 30
0.0
 11
24.233904
 21
29.34375
 31
0.0
  0
LINE
  5
8DF
330
1F
100
AcDbEntity
  8
1
  6
CONTINUOUS
370
50
 62
4
100
AcDbLine
 10
31.277252
 20
-19.012333
 30
0.0
 11
30.976812
 21
-18.984989
 31
0.0
  0
LINE
  5
8E0
330
1F
100
AcDbEntity
  8
1
  6
CONTINUOUS
370
50
 62
4
100
AcDbLine
 10
30.97682
 20
-39.361374
 30
0.0
 11
30.675352
 21
-39.334282
 31
0.0
  0
LINE
  5
8E1
330
1F
100
AcDbEntity
  8
1
  6
CONTINUOUS
370
50
 62
4
100
AcDbLine
 10
30.675348
 20
45.806629
 30
0.0
 11
30.373484
 21
45.833374
 31
0.0
  0
LINE
  5
8E2
330
1F
100
AcDbEntity
  8
1
  6
CONTINUOUS
370
50
 62
4
100
AcDbLine
 10
6.900431999999999
 20
-34.410919
 30
0.0
 11
6.863146
 21
-34.407692
 31
0.0
  0
LINE
  5
8E3
330
1F
100
AcDbEntity
  8
1
  6
CONTINUOUS
370
50
 62
4
100
AcDbLine
 10
6.895166
 20
-34.410435
 30
0.0
 11
6.862067
 21
-34.407604
 31
0.0
  0
LINE
  5
8E4
330
1F
100
AcDbEntity
  8
1
  6
CONTINUOUS
370
50
 62
4
100
AcDbLine
 10
29.771027
 20
-51.87352
 30
0.0
 11
29.471605
 21
-51.848305
 31
0.0
  0
LINE
  5
8E5
330
1F
100
AcDbEntity
  8
1
  6
CONTINUOUS
370
50
 62
4
100
AcDbLine
 10
31.277252
 20
28.242891
 30
0.0
 11
30.976812
 21
28.267857
 31
0.0
  0
LINE
  5
8E6
330
1F
100
AcDbEntity
  8
1
  6
CONTINUOUS
370
50
 62
4
100
AcDbLine
 10
6.862067
 20
-34.407604
 30
0.0
 11
6.828251
 21
-34.40506
 31
0.0
  0
LINE
  5
8E7
330
1F
100
AcDbEntity
  8
1
  6
CONTINUOUS
370
50
 62
4
100
AcDbLine
 10
6.863146
 20
-34.407692
 30
0.0
 11
6.824945
 21
-34.404831
 31
0.0
  0
LINE
  5
8E8
330
1F
100
AcDbEntity
  8
1
  6
CONTINUOUS
370
50
 62
4
100
AcDbLine
 10
30.071844
 20
-51.895447
 30
0.0
 11
29.771027
 21
-51.87352
 31
0.0
  0
LINE
  5
8E9
330
1F
100
AcDbEntity
  8
1
  6
CONTINUOUS
370
50
 62
4
100
AcDbLine
 10
30.976812
 20
45.78531599999999
 30
0.0
 11
30.675348
 21
45.806629
 31
0.0
  0
LINE
  5
8EA
330
1F
100
AcDbEntity
  8
1
  6
CONTINUOUS
370
50
 62
4
100
AcDbLine
 10
26.672926
 20
54.41967
 30
0.0
 11
26.4233
 21
54.437222
 31
0.0
  0
LINE
  5
8EB
330
1F
100
AcDbEntity
  8
1
  6
CONTINUOUS
370
50
 62
4
100
AcDbLine
 10
26.929441
 20
54.40229799999999
 30
0.0
 11
26.672926
 21
54.41967
 31
0.0
  0
LINE
  5
8EC
330
1F
100
AcDbEntity
  8
1
  6
CONTINUOUS
370
50
 62
4
100
AcDbLine
 10
31.277262
 20
-39.381611
 30
0.0
 11
30.97682
 21
-39.361374
 31
0.0
  0
LINE
  5
8ED
330
1F
100
AcDbEntity
  8
1
  6
CONTINUOUS
370
50
 62
4
100
AcDbLine
 10
6.828251
 20
-34.40506
 30
0.0
 11
6.793839999999999
 21
-34.402813
 31
0.0
  0
LINE
  5
8EE
330
1F
100
AcDbEntity
  8
1
  6
CONTINUOUS
370
50
 62
4
100
AcDbLine
 10
31.57604
 20
5.103179
 30
0.0
 11
31.277252
 21
5.122573
 31
0.0
  0
LINE
  5
8EF
330
1F
100
AcDbEntity
  8
1
  6
CONTINUOUS
370
50
 62
4
100
AcDbLine
 10
27.192411
 20
54.385231
 30
0.0
 11
26.929441
 21
54.40229799999999
 31
0.0
  0
LINE
  5
8F0
330
1F
100
AcDbEntity
  8
1
  6
CONTINUOUS
370
50
 62
4
100
AcDbLine
 10
6.824945
 20
-34.404831
 30
0.0
 11
6.786002
 21
-34.402348
 31
0.0
  0
LINE
  5
8F1
330
1F
100
AcDbEntity
  8
1
  6
CONTINUOUS
370
50
 62
4
100
AcDbLine
 10
27.461363
 20
54.368572
 30
0.0
 11
27.192411
 21
54.385231
 31
0.0
  0
LINE
  5
8F2
330
1F
100
AcDbEntity
  8
1
  6
CONTINUOUS
370
50
 62
4
100
AcDbLine
 10
30.373484
 20
-51.914101
 30
0.0
 11
30.071844
 21
-51.895447
 31
0.0
  0
LINE
  5
8F3
330
1F
100
AcDbEntity
  8
1
  6
CONTINUOUS
370
50
 62
4
100
AcDbLine
 10
31.57604
 20
-19.030592
 30
0.0
 11
31.277252
 21
-19.012333
 31
0.0
  0
LINE
  5
8F4
330
1F
100
AcDbEntity
  8
1
  6
CONTINUOUS
370
50
 62
4
100
AcDbLine
 10
27.735815
 20
54.352432
 30
0.0
 11
27.461363
 21
54.368572
 31
0.0
  0
LINE
  5
8F5
330
1F
100
AcDbEntity
  8
1
  6
CONTINUOUS
370
50
 62
4
100
AcDbLine
 10
31.57604
 20
28.226204
 30
0.0
 11
31.277252
 21
28.242891
 31
0.0
  0
LINE
  5
8F6
330
1F
100
AcDbEntity
  8
1
  6
CONTINUOUS
370
50
 62
4
100
AcDbLine
 10
6.793839999999999
 20
-34.402813
 30
0.0
 11
6.758973999999999
 21
-34.400867
 31
0.0
  0
LINE
  5
8F7
330
1F
100
AcDbEntity
  8
1
  6
CONTINUOUS
370
50
 62
4
100
AcDbLine
 10
28.015293
 20
54.33691
 30
0.0
 11
27.735815
 21
54.352432
 31
0.0
  0
LINE
  5
8F8
330
1F
100
AcDbEntity
  8
1
  6
CONTINUOUS
370
50
 62
4
100
AcDbLine
 10
6.786002
 20
-34.402348
 30
0.0
 11
6.746518999999999
 21
-34.400249
 31
0.0
  0
LINE
  5
8F9
330
1F
100
AcDbEntity
  8
1
  6
CONTINUOUS
370
50
 62
4
100
AcDbLine
 10
31.277252
 20
45.76935599999999
 30
0.0
 11
30.976812
 21
45.78531599999999
 31
0.0
  0
LINE
  5
8FA
330
1F
100
AcDbEntity
  8
1
  6
CONTINUOUS
370
50
 62
4
100
AcDbLine
 10
28.299318
 20
54.322117
 30
0.0
 11
28.015293
 21
54.33691
 31
0.0
  0
LINE
  5
8FB
330
1F
100
AcDbEntity
  8
1
  6
CONTINUOUS
370
50
 62
4
100
AcDbLine
 10
30.675348
 20
-51.929512
 30
0.0
 11
30.373484
 21
-51.914101
 31
0.0
  0
LINE
  5
8FC
330
1F
100
AcDbEntity
  8
1
  6
CONTINUOUS
370
50
 62
4
100
AcDbLine
 10
28.587444
 20
54.308151
 30
0.0
 11
28.299318
 21
54.322117
 31
0.0
  0
LINE
  5
8FD
330
1F
100
AcDbEntity
  8
1
  6
CONTINUOUS
370
50
 62
4
100
AcDbLine
 10
6.758973999999999
 20
-34.400867
 30
0.0
 11
6.723790999999999
 21
-34.39922
 31
0.0
  0
LINE
  5
8FE
330
1F
100
AcDbEntity
  8
1
  6
CONTINUOUS
370
50
 62
4
100
AcDbLine
 10
31.576048
 20
-39.395123
 30
0.0
 11
31.277262
 21
-39.381611
 31
0.0
  0
LINE
  5
8FF
330
1F
100
AcDbEntity
  8
1
  6
CONTINUOUS
370
50
 62
4
100
AcDbLine
 10
28.879242
 20
54.295105
 30
0.0
 11
28.587444
 21
54.308151
 31
0.0
  0
LINE
  5
900
330
1F
100
AcDbEntity
  8
1
  6
CONTINUOUS
370
50
 62
4
100
AcDbLine
 10
6.746518999999999
 20
-34.400249
 30
0.0
 11
6.706695
 21
-34.398529
 31
0.0
  0
LINE
  5
901
330
1F
100
AcDbEntity
  8
1
  6
CONTINUOUS
370
50
 62
4
100
AcDbLine
 10
29.174154
 20
54.28303099999999
 30
0.0
 11
28.879242
 21
54.295105
 31
0.0
  0
LINE
  5
902
330
1F
100
AcDbEntity
  8
1
  6
CONTINUOUS
370
50
 62
4
100
AcDbLine
 10
30.976812
 20
-51.941753
 30
0.0
 11
30.675348
 21
-51.929512
 31
0.0
  0
LINE
  5
903
330
1F
100
AcDbEntity
  8
1
  6
CONTINUOUS
370
50
 62
4
100
AcDbLine
 10
6.723790999999999
 20
-34.39922
 30
0.0
 11
6.688429999999999
 21
-34.397869
 31
0.0
  0
LINE
  5
904
330
1F
100
AcDbEntity
  8
1
  6
CONTINUOUS
370
50
 62
4
100
AcDbLine
 10
29.471605
 20
54.271999
 30
0.0
 11
29.174154
 21
54.28303099999999
 31
0.0
  0
LINE
  5
905
330
1F
100
AcDbEntity
  8
1
  6
CONTINUOUS
370
50
 62
4
100
AcDbLine
 10
31.57604
 20
45.758682
 30
0.0
 11
31.277252
 21
45.76935599999999
 31
0.0
  0
LINE
  5
906
330
1F
100
AcDbEntity
  8
1
  6
CONTINUOUS
370
50
 62
4
100
AcDbLine
 10
6.706695
 20
-34.398529
 30
0.0
 11
6.666729999999999
 21
-34.39719
 31
0.0
  0
LINE
  5
907
330
1F
100
AcDbEntity
  8
1
  6
CONTINUOUS
370
50
 62
4
100
AcDbLine
 10
31.872553
 20
5.093266
 30
0.0
 11
31.57604
 21
5.103179
 31
0.0
  0
LINE
  5
908
330
1F
100
AcDbEntity
  8
1
  6
CONTINUOUS
370
50
 62
4
100
AcDbLine
 10
29.771027
 20
54.262066
 30
0.0
 11
29.471605
 21
54.271999
 31
0.0
  0
LINE
  5
909
330
1F
100
AcDbEntity
  8
1
  6
CONTINUOUS
370
50
 62
4
100
AcDbLine
 10
31.872553
 20
-19.039923
 30
0.0
 11
31.57604
 21
-19.030592
 31
0.0
  0
LINE
  5
90A
330
1F
100
AcDbEntity
  8
1
  6
CONTINUOUS
370
50
 62
4
100
AcDbLine
 10
31.277252
 20
-51.950882
 30
0.0
 11
30.976812
 21
-51.941753
 31
0.0
  0
LINE
  5
90B
330
1F
100
AcDbEntity
  8
1
  6
CONTINUOUS
370
50
 62
4
100
AcDbLine
 10
6.688429999999999
 20
-34.397869
 30
0.0
 11
6.653032
 21
-34.39682
 31
0.0
  0
LINE
  5
90C
330
1F
100
AcDbEntity
  8
1
  6
CONTINUOUS
370
50
 62
4
100
AcDbLine
 10
30.071844
 20
54.2533
 30
0.0
 11
29.771027
 21
54.262066
 31
0.0
  0
LINE
  5
90D
330
1F
100
AcDbEntity
  8
1
  6
CONTINUOUS
370
50
 62
4
100
AcDbLine
 10
31.872553
 20
28.21767
 30
0.0
 11
31.57604
 21
28.226204
 31
0.0
  0
LINE
  5
90E
330
1F
100
AcDbEntity
  8
1
  6
CONTINUOUS
370
50
 62
4
100
AcDbLine
 10
30.373484
 20
54.245754
 30
0.0
 11
30.071844
 21
54.2533
 31
0.0
  0
LINE
  5
90F
330
1F
100
AcDbEntity
  8
1
  6
CONTINUOUS
370
50
 62
4
100
AcDbLine
 10
6.666729999999999
 20
-34.39719
 30
0.0
 11
6.626825999999999
 21
-34.396236
 31
0.0
  0
LINE
  5
910
330
1F
100
AcDbEntity
  8
1
  6
CONTINUOUS
370
50
 62
4
100
AcDbLine
 10
31.872553
 20
-39.402023
 30
0.0
 11
31.576048
 21
-39.395123
 31
0.0
  0
LINE
  5
911
330
1F
100
AcDbEntity
  8
1
  6
CONTINUOUS
370
50
 62
4
100
AcDbLine
 10
6.653032
 20
-34.39682
 30
0.0
 11
6.617735
 21
-34.396072
 31
0.0
  0
LINE
  5
912
330
1F
100
AcDbEntity
  8
1
  6
CONTINUOUS
370
50
 62
4
100
AcDbLine
 10
30.675348
 20
54.239468
 30
0.0
 11
30.373484
 21
54.245754
 31
0.0
  0
LINE
  5
913
330
1F
100
AcDbEntity
  8
1
  6
CONTINUOUS
370
50
 62
4
100
AcDbLine
 10
31.57604
 20
-51.95696299999999
 30
0.0
 11
31.277252
 21
-51.950882
 31
0.0
  0
LINE
  5
914
330
1F
100
AcDbEntity
  8
1
  6
CONTINUOUS
370
50
 62
4
100
AcDbLine
 10
24.595785
 20
29.323677
 30
0.0
 11
24.414141
 21
29.327341
 31
0.0
  0
LINE
  5
915
330
1F
100
AcDbEntity
  8
1
  6
CONTINUOUS
370
50
 62
4
100
AcDbLine
 10
31.872553
 20
45.75322
 30
0.0
 11
31.57604
 21
45.758682
 31
0.0
  0
LINE
  5
916
330
1F
100
AcDbEntity
  8
1
  6
CONTINUOUS
370
50
 62
4
100
AcDbLine
 10
42.576172
 20
8.178601
 30
0.0
 11
31.999565
 21
8.358946999999999
 31
0.0
  0
LINE
  5
917
330
1F
100
AcDbEntity
  8
1
  6
CONTINUOUS
370
50
 62
4
100
AcDbLine
 10
42.659782
 20
10.500351
 30
0.0
 11
29.667885
 21
10.72188
 31
0.0
  0
LINE
  5
918
330
1F
100
AcDbEntity
  8
1
  6
CONTINUOUS
370
50
 62
4
100
AcDbLine
 10
44.240116
 20
10.960376
 30
0.0
 11
37.948578
 21
11.067656
 31
0.0
  0
LINE
  5
919
330
1F
100
AcDbEntity
  8
1
  6
CONTINUOUS
370
50
 62
4
100
AcDbLine
 10
44.526276
 20
14.355117
 30
0.0
 11
38.009193
 21
14.466242
 31
0.0
  0
LINE
  5
91A
330
1F
100
AcDbEntity
  8
1
  6
CONTINUOUS
370
50
 62
4
100
AcDbLine
 10
47.661736
 20
-16.69873
 30
0.0
 11
31.874212
 21
-16.430601
 31
0.0
  0
LINE
  5
91B
330
1F
100
AcDbEntity
  8
1
  6
CONTINUOUS
370
50
 62
4
100
AcDbLine
 10
42.576172
 20
-7.992791
 30
0.0
 11
36.623241
 21
-7.891689
 31
0.0
  0
LINE
  5
91C
330
1F
100
AcDbEntity
  8
1
  6
CONTINUOUS
370
50
 62
4
100
AcDbLine
 10
30.976812
 20
54.234432
 30
0.0
 11
30.675348
 21
54.239468
 31
0.0
  0
LINE
  5
91D
330
1F
100
AcDbEntity
  8
1
  6
CONTINUOUS
370
50
 62
4
100
AcDbLine
 10
6.626825999999999
 20
-34.396236
 30
0.0
 11
6.587183
 21
-34.395664
 31
0.0
  0
LINE
  5
91E
330
1F
100
AcDbEntity
  8
1
  6
CONTINUOUS
370
50
 62
4
100
AcDbLine
 10
44.526276
 20
28.783176
 30
0.0
 11
38.009193
 21
28.872734
 31
0.0
  0
LINE
  5
91F
330
1F
100
AcDbEntity
  8
1
  6
CONTINUOUS
370
50
 62
4
100
AcDbLine
 10
47.661736
 20
-32.675476
 30
0.0
 11
31.874212
 21
-32.461525
 31
0.0
  0
LINE
  5
920
330
1F
100
AcDbEntity
  8
1
  6
CONTINUOUS
370
50
 62
4
100
AcDbLine
 10
6.617735
 20
-34.396072
 30
0.0
 11
6.582676999999999
 21
-34.395622
 31
0.0
  0
LINE
  5
921
330
1F
100
AcDbEntity
  8
1
  6
CONTINUOUS
370
50
 62
4
100
AcDbLine
 10
31.277252
 20
54.23064
 30
0.0
 11
30.976812
 21
54.234432
 31
0.0
  0
LINE
  5
922
330
1F
100
AcDbEntity
  8
1
  6
CONTINUOUS
370
50
 62
4
100
AcDbLine
 10
31.872553
 20
-51.960068
 30
0.0
 11
31.57604
 21
-51.95696299999999
 31
0.0
  0
LINE
  5
923
330
1F
100
AcDbEntity
  8
1
  6
CONTINUOUS
370
50
 62
4
100
AcDbLine
 10
31.57604
 20
54.228092
 30
0.0
 11
31.277252
 21
54.23064
 31
0.0
  0
LINE
  5
924
330
1F
100
AcDbEntity
  8
1
  6
CONTINUOUS
370
50
 62
4
100
AcDbLine
 10
6.587183
 20
-34.395664
 30
0.0
 11
6.548
 21
-34.395473
 31
0.0
  0
LINE
  5
925
330
1F
100
AcDbEntity
  8
1
  6
CONTINUOUS
370
50
 62
4
100
AcDbLine
 10
31.872553
 20
54.22678399999999
 30
0.0
 11
31.57604
 21
54.228092
 31
0.0
  0
LINE
  5
926
330
1F
100
AcDbEntity
  8
1
  6
CONTINUOUS
370
50
 62
4
100
AcDbLine
 10
6.582676999999999
 20
-34.395622
 30
0.0
 11
6.548
 21
-34.395473
 31
0.0
  0
LINE
  5
927
330
1F
100
AcDbEntity
  8
1
  6
CONTINUOUS
370
50
 62
4
100
AcDbLine
 10
7.342
 20
-35.0
 30
0.0
 11
15.0
 21
-35.0
 31
0.0
  0
LINE
  5
928
330
1F
100
AcDbEntity
  8
1
  6
CONTINUOUS
370
50
 62
4
100
AcDbLine
 10
0.7939999999999999
 20
-34.395473
 30
0.0
 11
6.548
 21
-34.395473
 31
0.0
  0
LINE
  5
929
330
1F
100
AcDbEntity
  8
1
  6
CONTINUOUS
370
50
 62
4
100
AcDbLine
 10
0.7939999999999999
 20
34.395473
 30
0.0
 11
6.548
 21
34.395473
 31
0.0
  0
LINE
  5
92A
330
1F
100
AcDbEntity
  8
1
  6
CONTINUOUS
370
50
 62
4
100
AcDbLine
 10
7.342
 20
35.0
 30
0.0
 11
15.0
 21
35.0
 31
0.0
  0
LINE
  5
92B
330
1F
100
AcDbEntity
  8
1
  6
CONTINUOUS
370
50
 62
4
100
AcDbLine
 10
6.548
 20
34.395473
 30
0.0
 11
6.582676999999999
 21
34.395622
 31
0.0
  0
LINE
  5
92C
330
1F
100
AcDbEntity
  8
1
  6
CONTINUOUS
370
50
 62
4
100
AcDbLine
 10
6.582676999999999
 20
34.395622
 30
0.0
 11
6.617735
 21
34.396072
 31
0.0
  0
LINE
  5
92D
330
1F
100
AcDbEntity
  8
1
  6
CONTINUOUS
370
50
 62
4
100
AcDbLine
 10
42.782307
 20
6.259175
 30
0.0
 11
44.240116
 21
6.283933999999999
 31
0.0
  0
LINE
  5
92E
330
1F
100
AcDbEntity
  8
1
  6
CONTINUOUS
370
50
 62
4
100
AcDbLine
 10
6.617735
 20
34.396072
 30
0.0
 11
6.653032
 21
34.39682
 31
0.0
  0
LINE
  5
92F
330
1F
100
AcDbEntity
  8
1
  6
CONTINUOUS
370
50
 62
4
100
AcDbLine
 10
6.653032
 20
34.39682
 30
0.0
 11
6.688429999999999
 21
34.397869
 31
0.0
  0
LINE
  5
930
330
1F
100
AcDbEntity
  8
1
  6
CONTINUOUS
370
50
 62
4
100
AcDbLine
 10
22.868969
 20
43.750301
 30
0.0
 11
22.979486
 21
43.754009
 31
0.0
  0
LINE
  5
931
330
1F
100
AcDbEntity
  8
1
  6
CONTINUOUS
370
50
 62
4
100
AcDbLine
 10
6.688429999999999
 20
34.397869
 30
0.0
 11
6.723790999999999
 21
34.39922
 31
0.0
  0
LINE
  5
932
330
1F
100
AcDbEntity
  8
1
  6
CONTINUOUS
370
50
 62
4
100
AcDbLine
 10
24.595785
 20
29.323677
 30
0.0
 11
24.782354
 21
29.331837
 31
0.0
  0
LINE
  5
933
330
1F
100
AcDbEntity
  8
1
  6
CONTINUOUS
370
50
 62
4
100
AcDbLine
 10
6.723790999999999
 20
34.39922
 30
0.0
 11
6.758973999999999
 21
34.400867
 31
0.0
  0
LINE
  5
934
330
1F
100
AcDbEntity
  8
1
  6
CONTINUOUS
370
50
 62
4
100
AcDbLine
 10
6.758973999999999
 20
34.400867
 30
0.0
 11
6.793839999999999
 21
34.402813
 31
0.0
  0
LINE
  5
935
330
1F
100
AcDbEntity
  8
1
  6
CONTINUOUS
370
50
 62
4
100
AcDbLine
 10
6.793839999999999
 20
34.402813
 30
0.0
 11
6.828251
 21
34.40506
 31
0.0
  0
LINE
  5
936
330
1F
100
AcDbEntity
  8
1
  6
CONTINUOUS
370
50
 62
4
100
AcDbLine
 10
6.828251
 20
34.40506
 30
0.0
 11
6.862067
 21
34.407604
 31
0.0
  0
LINE
  5
937
330
1F
100
AcDbEntity
  8
1
  6
CONTINUOUS
370
50
 62
4
100
AcDbLine
 10
6.862067
 20
34.407604
 30
0.0
 11
6.895166
 21
34.410435
 31
0.0
  0
LINE
  5
938
330
1F
100
AcDbEntity
  8
1
  6
CONTINUOUS
370
50
 62
4
100
AcDbLine
 10
6.895166
 20
34.410435
 30
0.0
 11
6.927454999999999
 21
34.413536
 31
0.0
  0
LINE
  5
939
330
1F
100
AcDbEntity
  8
1
  6
CONTINUOUS
370
50
 62
4
100
AcDbLine
 10
24.782354
 20
29.331837
 30
0.0
 11
24.973763
 21
29.351473
 31
0.0
  0
LINE
  5
93A
330
1F
100
AcDbEntity
  8
1
  6
CONTINUOUS
370
50
 62
4
100
AcDbLine
 10
6.927454999999999
 20
34.413536
 30
0.0
 11
6.958838999999999
 21
34.416885
 31
0.0
  0
LINE
  5
93B
330
1F
100
AcDbEntity
  8
1
  6
CONTINUOUS
370
50
 62
4
100
AcDbLine
 10
6.958838999999999
 20
34.416885
 30
0.0
 11
6.989225999999999
 21
34.42046
 31
0.0
  0
LINE
  5
93C
330
1F
100
AcDbEntity
  8
1
  6
CONTINUOUS
370
50
 62
4
100
AcDbLine
 10
6.989225999999999
 20
34.42046
 30
0.0
 11
7.018524999999999
 21
34.424236
 31
0.0
  0
LINE
  5
93D
330
1F
100
AcDbEntity
  8
1
  6
CONTINUOUS
370
50
 62
4
100
AcDbLine
 10
7.018524999999999
 20
34.424236
 30
0.0
 11
7.046640999999999
 21
34.4282
 31
0.0
  0
LINE
  5
93E
330
1F
100
AcDbEntity
  8
1
  6
CONTINUOUS
370
50
 62
4
100
AcDbLine
 10
7.046640999999999
 20
34.4282
 30
0.0
 11
7.073483
 21
34.43232
 31
0.0
  0
LINE
  5
93F
330
1F
100
AcDbEntity
  8
1
  6
CONTINUOUS
370
50
 62
4
100
AcDbLine
 10
24.973763
 20
29.351473
 30
0.0
 11
25.169701
 21
29.382257
 31
0.0
  0
LINE
  5
940
330
1F
100
AcDbEntity
  8
1
  6
CONTINUOUS
370
50
 62
4
100
AcDbLine
 10
7.073483
 20
34.43232
 30
0.0
 11
7.098957
 21
34.436584
 31
0.0
  0
LINE
  5
941
330
1F
100
AcDbEntity
  8
1
  6
CONTINUOUS
370
50
 62
4
100
AcDbLine
 10
7.098957
 20
34.436584
 30
0.0
 11
7.123124
 21
34.440994
 31
0.0
  0
LINE
  5
942
330
1F
100
AcDbEntity
  8
1
  6
CONTINUOUS
370
50
 62
4
100
AcDbLine
 10
32.939026
 20
13.637547
 30
0.0
 11
36.750118
 21
14.355876
 31
0.0
  0
LINE
  5
943
330
1F
100
AcDbEntity
  8
1
  6
CONTINUOUS
370
50
 62
4
100
AcDbLine
 10
7.123124
 20
34.440994
 30
0.0
 11
7.14643
 21
34.445629
 31
0.0
  0
LINE
  5
944
330
1F
100
AcDbEntity
  8
1
  6
CONTINUOUS
370
50
 62
4
100
AcDbLine
 10
25.169701
 20
29.382257
 30
0.0
 11
25.369856
 21
29.423861
 31
0.0
  0
LINE
  5
945
330
1F
100
AcDbEntity
  8
1
  6
CONTINUOUS
370
50
 62
4
100
AcDbLine
 10
22.979486
 20
43.754009
 30
0.0
 11
23.103493
 21
43.780804
 31
0.0
  0
LINE
  5
946
330
1F
100
AcDbEntity
  8
1
  6
CONTINUOUS
370
50
 62
4
100
AcDbLine
 10
7.14643
 20
34.445629
 30
0.0
 11
7.168828
 21
34.450478
 31
0.0
  0
LINE
  5
947
330
1F
100
AcDbEntity
  8
1
  6
CONTINUOUS
370
50
 62
4
100
AcDbLine
 10
43.523258
 20
-6.635791999999999
 30
0.0
 11
44.152462
 21
-6.494973
 31
0.0
  0
LINE
  5
948
330
1F
100
AcDbEntity
  8
1
  6
CONTINUOUS
370
50
 62
4
100
AcDbLine
 10
44.152462
 20
-6.494973
 30
0.0
 11
44.774231
 21
-6.355798
 31
0.0
  0
LINE
  5
949
330
1F
100
AcDbEntity
  8
1
  6
CONTINUOUS
370
50
 62
4
100
AcDbLine
 10
44.774231
 20
-6.355798
 30
0.0
 11
45.388699
 21
-6.218237999999999
 31
0.0
  0
LINE
  5
94A
330
1F
100
AcDbEntity
  8
1
  6
CONTINUOUS
370
50
 62
4
100
AcDbLine
 10
45.388699
 20
-6.218237999999999
 30
0.0
 11
45.995983
 21
-6.082267
 31
0.0
  0
LINE
  5
94B
330
1F
100
AcDbEntity
  8
1
  6
CONTINUOUS
370
50
 62
4
100
AcDbLine
 10
45.995983
 20
-6.082267
 30
0.0
 11
46.596218
 21
-5.947855
 31
0.0
  0
LINE
  5
94C
330
1F
100
AcDbEntity
  8
1
  6
CONTINUOUS
370
50
 62
4
100
AcDbLine
 10
46.596218
 20
-5.947855
 30
0.0
 11
47.189518
 21
-5.814977
 31
0.0
  0
LINE
  5
94D
330
1F
100
AcDbEntity
  8
1
  6
CONTINUOUS
370
50
 62
4
100
AcDbLine
 10
47.189518
 20
-5.814977
 30
0.0
 11
47.776001
 21
-5.683604
 31
0.0
  0
LINE
  5
94E
330
1F
100
AcDbEntity
  8
1
  6
CONTINUOUS
370
50
 62
4
100
AcDbLine
 10
43.523258
 20
-19.231731
 30
0.0
 11
44.152546
 21
-19.090309
 31
0.0
  0
LINE
  5
94F
330
1F
100
AcDbEntity
  8
1
  6
CONTINUOUS
370
50
 62
4
100
AcDbLine
 10
44.152546
 20
-19.090309
 30
0.0
 11
44.774372
 21
-18.950531
 31
0.0
  0
LINE
  5
950
330
1F
100
AcDbEntity
  8
1
  6
CONTINUOUS
370
50
 62
4
100
AcDbLine
 10
44.774372
 20
-18.950531
 30
0.0
 11
45.388866
 21
-18.812366
 31
0.0
  0
LINE
  5
951
330
1F
100
AcDbEntity
  8
1
  6
CONTINUOUS
370
50
 62
4
100
AcDbLine
 10
45.388866
 20
-18.812366
 30
0.0
 11
45.99615499999999
 21
-18.675791
 31
0.0
  0
LINE
  5
952
330
1F
100
AcDbEntity
  8
1
  6
CONTINUOUS
370
50
 62
4
100
AcDbLine
 10
45.99615499999999
 20
-18.675791
 30
0.0
 11
46.596359
 21
-18.540773
 31
0.0
  0
LINE
  5
953
330
1F
100
AcDbEntity
  8
1
  6
CONTINUOUS
370
50
 62
4
100
AcDbLine
 10
46.596359
 20
-18.540773
 30
0.0
 11
47.189602
 21
-18.407288
 31
0.0
  0
LINE
  5
954
330
1F
100
AcDbEntity
  8
1
  6
CONTINUOUS
370
50
 62
4
100
AcDbLine
 10
47.189602
 20
-18.407288
 30
0.0
 11
47.776001
 21
-18.275307
 31
0.0
  0
LINE
  5
955
330
1F
100
AcDbEntity
  8
1
  6
CONTINUOUS
370
50
 62
4
100
AcDbLine
 10
7.168828
 20
34.450478
 30
0.0
 11
7.190220999999999
 21
34.455521
 31
0.0
  0
LINE
  5
956
330
1F
100
AcDbEntity
  8
1
  6
CONTINUOUS
370
50
 62
4
100
AcDbLine
 10
25.369856
 20
29.423861
 30
0.0
 11
25.573923
 21
29.475952
 31
0.0
  0
LINE
  5
957
330
1F
100
AcDbEntity
  8
1
  6
CONTINUOUS
370
50
 62
4
100
AcDbLine
 10
7.190220999999999
 20
34.455521
 30
0.0
 11
7.210513
 21
34.460739
 31
0.0
  0
LINE
  5
958
330
1F
100
AcDbEntity
  8
1
  6
CONTINUOUS
370
50
 62
4
100
AcDbLine
 10
7.210513
 20
34.460739
 30
0.0
 11
7.229606
 21
34.466114
 31
0.0
  0
LINE
  5
959
330
1F
100
AcDbEntity
  8
1
  6
CONTINUOUS
370
50
 62
4
100
AcDbLine
 10
44.007507
 20
10.892682
 30
0.0
 11
44.240116
 21
10.960376
 31
0.0
  0
LINE
  5
95A
330
1F
100
AcDbEntity
  8
1
  6
CONTINUOUS
370
50
 62
4
100
AcDbLine
 10
43.777241
 20
10.825664
 30
0.0
 11
44.007507
 21
10.892682
 31
0.0
  0
LINE
  5
95B
330
1F
100
AcDbEntity
  8
1
  6
CONTINUOUS
370
50
 62
4
100
AcDbLine
 10
43.549274
 20
10.75931
 30
0.0
 11
43.777241
 21
10.825664
 31
0.0
  0
LINE
  5
95C
330
1F
100
AcDbEntity
  8
1
  6
CONTINUOUS
370
50
 62
4
100
AcDbLine
 10
43.323578
 20
10.693611
 30
0.0
 11
43.549274
 21
10.75931
 31
0.0
  0
LINE
  5
95D
330
1F
100
AcDbEntity
  8
1
  6
CONTINUOUS
370
50
 62
4
100
AcDbLine
 10
43.100121
 20
10.628558
 30
0.0
 11
43.323578
 21
10.693611
 31
0.0
  0
LINE
  5
95E
330
1F
100
AcDbEntity
  8
1
  6
CONTINUOUS
370
50
 62
4
100
AcDbLine
 10
42.878864
 20
10.564141
 30
0.0
 11
43.100121
 21
10.628558
 31
0.0
  0
LINE
  5
95F
330
1F
100
AcDbEntity
  8
1
  6
CONTINUOUS
370
50
 62
4
100
AcDbLine
 10
42.659782
 20
10.500351
 30
0.0
 11
42.878864
 21
10.564141
 31
0.0
  0
LINE
  5
960
330
1F
100
AcDbEntity
  8
1
  6
CONTINUOUS
370
50
 62
4
100
AcDbLine
 10
47.28381299999999
 20
15.166489
 30
0.0
 11
47.776001
 21
15.311061
 31
0.0
  0
LINE
  5
961
330
1F
100
AcDbEntity
  8
1
  6
CONTINUOUS
370
50
 62
4
100
AcDbLine
 10
46.801392
 20
15.024718
 30
0.0
 11
47.28381299999999
 21
15.166489
 31
0.0
  0
LINE
  5
962
330
1F
100
AcDbEntity
  8
1
  6
CONTINUOUS
370
50
 62
4
100
AcDbLine
 10
46.328457
 20
14.885668
 30
0.0
 11
46.801392
 21
15.024718
 31
0.0
  0
LINE
  5
963
330
1F
100
AcDbEntity
  8
1
  6
CONTINUOUS
370
50
 62
4
100
AcDbLine
 10
45.864731
 20
14.749257
 30
0.0
 11
46.328457
 21
14.885668
 31
0.0
  0
LINE
  5
964
330
1F
100
AcDbEntity
  8
1
  6
CONTINUOUS
370
50
 62
4
100
AcDbLine
 10
45.409958
 20
14.615411
 30
0.0
 11
45.864731
 21
14.749257
 31
0.0
  0
LINE
  5
965
330
1F
100
AcDbEntity
  8
1
  6
CONTINUOUS
370
50
 62
4
100
AcDbLine
 10
44.963886
 20
14.484054
 30
0.0
 11
45.409958
 21
14.615411
 31
0.0
  0
LINE
  5
966
330
1F
100
AcDbEntity
  8
1
  6
CONTINUOUS
370
50
 62
4
100
AcDbLine
 10
44.526276
 20
14.355117
 30
0.0
 11
44.963886
 21
14.484054
 31
0.0
  0
LINE
  5
967
330
1F
100
AcDbEntity
  8
1
  6
CONTINUOUS
370
50
 62
4
100
AcDbLine
 10
25.573923
 20
29.475952
 30
0.0
 11
25.781588
 21
29.538202
 31
0.0
  0
LINE
  5
968
330
1F
100
AcDbEntity
  8
1
  6
CONTINUOUS
370
50
 62
4
100
AcDbLine
 10
7.229606
 20
34.466114
 30
0.0
 11
7.247406
 21
34.471626
 31
0.0
  0
LINE
  5
969
330
1F
100
AcDbEntity
  8
1
  6
CONTINUOUS
370
50
 62
4
100
AcDbLine
 10
25.837656
 20
14.332046
 30
0.0
 11
26.423258
 21
14.53005
 31
0.0
  0
LINE
  5
96A
330
1F
100
AcDbEntity
  8
1
  6
CONTINUOUS
370
50
 62
4
100
AcDbLine
 10
25.263165
 20
14.137777
 30
0.0
 11
25.837656
 21
14.332046
 31
0.0
  0
LINE
  5
96B
330
1F
100
AcDbEntity
  8
1
  6
CONTINUOUS
370
50
 62
4
100
AcDbLine
 10
24.699469
 20
13.947138
 30
0.0
 11
25.263165
 21
14.137777
 31
0.0
  0
LINE
  5
96C
330
1F
100
AcDbEntity
  8
1
  6
CONTINUOUS
370
50
 62
4
100
AcDbLine
 10
24.146269
 20
13.760028
 30
0.0
 11
24.699469
 21
13.947138
 31
0.0
  0
LINE
  5
96D
330
1F
100
AcDbEntity
  8
1
  6
CONTINUOUS
370
50
 62
4
100
AcDbLine
 10
23.603275
 20
13.576348
 30
0.0
 11
24.146269
 21
13.760028
 31
0.0
  0
LINE
  5
96E
330
1F
100
AcDbEntity
  8
1
  6
CONTINUOUS
370
50
 62
4
100
AcDbLine
 10
23.070213
 20
13.396006
 30
0.0
 11
23.603275
 21
13.576348
 31
0.0
  0
LINE
  5
96F
330
1F
100
AcDbEntity
  8
1
  6
CONTINUOUS
370
50
 62
4
100
AcDbLine
 10
22.546812
 20
13.218908
 30
0.0
 11
23.070213
 21
13.396006
 31
0.0
  0
LINE
  5
970
330
1F
100
AcDbEntity
  8
1
  6
CONTINUOUS
370
50
 62
4
100
AcDbLine
 10
25.781588
 20
29.538202
 30
0.0
 11
25.99254
 21
29.610281
 31
0.0
  0
LINE
  5
971
330
1F
100
AcDbEntity
  8
1
  6
CONTINUOUS
370
50
 62
4
100
AcDbLine
 10
7.247406
 20
34.471626
 30
0.0
 11
7.263814
 21
34.477261
 31
0.0
  0
LINE
  5
972
330
1F
100
AcDbEntity
  8
1
  6
CONTINUOUS
370
50
 62
4
100
AcDbLine
 10
23.103493
 20
43.780804
 30
0.0
 11
23.239716
 21
43.82951
 31
0.0
  0
LINE
  5
973
330
1F
100
AcDbEntity
  8
1
  6
CONTINUOUS
370
50
 62
4
100
AcDbLine
 10
44.013706
 20
6.198785
 30
0.0
 11
44.240116
 21
6.283933999999999
 31
0.0
  0
LINE
  5
974
330
1F
100
AcDbEntity
  8
1
  6
CONTINUOUS
370
50
 62
4
100
AcDbLine
 10
43.789509
 20
6.114464
 30
0.0
 11
44.013706
 21
6.198785
 31
0.0
  0
LINE
  5
975
330
1F
100
AcDbEntity
  8
1
  6
CONTINUOUS
370
50
 62
4
100
AcDbLine
 10
43.567497
 20
6.030958
 30
0.0
 11
43.789509
 21
6.114464
 31
0.0
  0
LINE
  5
976
330
1F
100
AcDbEntity
  8
1
  6
CONTINUOUS
370
50
 62
4
100
AcDbLine
 10
43.347637
 20
5.948256
 30
0.0
 11
43.567497
 21
6.030958
 31
0.0
  0
LINE
  5
977
330
1F
100
AcDbEntity
  8
1
  6
CONTINUOUS
370
50
 62
4
100
AcDbLine
 10
43.129898
 20
5.866345
 30
0.0
 11
43.347637
 21
5.948256
 31
0.0
  0
LINE
  5
978
330
1F
100
AcDbEntity
  8
1
  6
CONTINUOUS
370
50
 62
4
100
AcDbLine
 10
42.914253
 20
5.785215
 30
0.0
 11
43.129898
 21
5.866345
 31
0.0
  0
LINE
  5
979
330
1F
100
AcDbEntity
  8
1
  6
CONTINUOUS
370
50
 62
4
100
AcDbLine
 10
47.716114
 20
4.127488
 30
0.0
 11
47.776001
 21
4.150195
 31
0.0
  0
LINE
  5
97A
330
1F
100
AcDbEntity
  8
1
  6
CONTINUOUS
370
50
 62
4
100
AcDbLine
 10
47.656372
 20
4.104835
 30
0.0
 11
47.716114
 21
4.127488
 31
0.0
  0
LINE
  5
97B
330
1F
100
AcDbEntity
  8
1
  6
CONTINUOUS
370
50
 62
4
100
AcDbLine
 10
47.537323
 20
4.05969
 30
0.0
 11
47.656372
 21
4.104835
 31
0.0
  0
LINE
  5
97C
330
1F
100
AcDbEntity
  8
1
  6
CONTINUOUS
370
50
 62
4
100
AcDbLine
 10
47.478016
 20
4.037198
 30
0.0
 11
47.537323
 21
4.05969
 31
0.0
  0
LINE
  5
97D
330
1F
100
AcDbEntity
  8
1
  6
CONTINUOUS
370
50
 62
4
100
AcDbLine
 10
47.418854
 20
4.014759
 30
0.0
 11
47.478016
 21
4.037198
 31
0.0
  0
LINE
  5
97E
330
1F
100
AcDbEntity
  8
1
  6
CONTINUOUS
370
50
 62
4
100
AcDbLine
 10
25.99254
 20
29.610281
 30
0.0
 11
26.206474
 21
29.691858
 31
0.0
  0
LINE
  5
97F
330
1F
100
AcDbEntity
  8
1
  6
CONTINUOUS
370
50
 62
4
100
AcDbLine
 10
7.263814
 20
34.477261
 30
0.0
 11
7.278735999999999
 21
34.48299799999999
 31
0.0
  0
LINE
  5
980
330
1F
100
AcDbEntity
  8
1
  6
CONTINUOUS
370
50
 62
4
100
AcDbLine
 10
26.206474
 20
29.691858
 30
0.0
 11
26.423075
 21
29.782606
 31
0.0
  0
LINE
  5
981
330
1F
100
AcDbEntity
  8
1
  6
CONTINUOUS
370
50
 62
4
100
AcDbLine
 10
7.278735999999999
 20
34.48299799999999
 30
0.0
 11
7.292084
 21
34.488811
 31
0.0
  0
LINE
  5
982
330
1F
100
AcDbEntity
  8
1
  6
CONTINUOUS
370
50
 62
4
100
AcDbLine
 10
23.239716
 20
43.82951
 30
0.0
 11
23.386871
 21
43.898872
 31
0.0
  0
LINE
  5
983
330
1F
100
AcDbEntity
  8
1
  6
CONTINUOUS
370
50
 62
4
100
AcDbLine
 10
7.292084
 20
34.488811
 30
0.0
 11
7.303836
 21
34.494686
 31
0.0
  0
LINE
  5
984
330
1F
100
AcDbEntity
  8
1
  6
CONTINUOUS
370
50
 62
4
100
AcDbLine
 10
23.386871
 20
43.898872
 30
0.0
 11
23.543512
 21
43.987251
 31
0.0
  0
LINE
  5
985
330
1F
100
AcDbEntity
  8
1
  6
CONTINUOUS
370
50
 62
4
100
AcDbLine
 10
7.303836
 20
34.494686
 30
0.0
 11
7.314000999999999
 21
34.500595
 31
0.0
  0
LINE
  5
986
330
1F
100
AcDbEntity
  8
1
  6
CONTINUOUS
370
50
 62
4
100
AcDbLine
 10
32.939026
 20
33.561954
 30
0.0
 11
36.750118
 21
35.834106
 31
0.0
  0
LINE
  5
987
330
1F
100
AcDbEntity
  8
1
  6
CONTINUOUS
370
50
 62
4
100
AcDbLine
 10
43.523258
 20
-29.535255
 30
0.0
 11
44.152462
 21
-29.140799
 31
0.0
  0
LINE
  5
988
330
1F
100
AcDbEntity
  8
1
  6
CONTINUOUS
370
50
 62
4
100
AcDbLine
 10
44.152462
 20
-29.140799
 30
0.0
 11
44.774231
 21
-28.750952
 31
0.0
  0
LINE
  5
989
330
1F
100
AcDbEntity
  8
1
  6
CONTINUOUS
370
50
 62
4
100
AcDbLine
 10
44.774231
 20
-28.750952
 30
0.0
 11
45.388699
 21
-28.365635
 31
0.0
  0
LINE
  5
98A
330
1F
100
AcDbEntity
  8
1
  6
CONTINUOUS
370
50
 62
4
100
AcDbLine
 10
45.388699
 20
-28.365635
 30
0.0
 11
45.995983
 21
-27.984768
 31
0.0
  0
LINE
  5
98B
330
1F
100
AcDbEntity
  8
1
  6
CONTINUOUS
370
50
 62
4
100
AcDbLine
 10
45.995983
 20
-27.984768
 30
0.0
 11
46.596218
 21
-27.608273
 31
0.0
  0
LINE
  5
98C
330
1F
100
AcDbEntity
  8
1
  6
CONTINUOUS
370
50
 62
4
100
AcDbLine
 10
46.596218
 20
-27.608273
 30
0.0
 11
47.189518
 21
-27.236073
 31
0.0
  0
LINE
  5
98D
330
1F
100
AcDbEntity
  8
1
  6
CONTINUOUS
370
50
 62
4
100
AcDbLine
 10
47.189518
 20
-27.236073
 30
0.0
 11
47.776001
 21
-26.868095
 31
0.0
  0
LINE
  5
98E
330
1F
100
AcDbEntity
  8
1
  6
CONTINUOUS
370
50
 62
4
100
AcDbLine
 10
43.523258
 20
-39.543755
 30
0.0
 11
44.152546
 21
-39.14769
 31
0.0
  0
LINE
  5
98F
330
1F
100
AcDbEntity
  8
1
  6
CONTINUOUS
370
50
 62
4
100
AcDbLine
 10
44.152546
 20
-39.14769
 30
0.0
 11
44.774372
 21
-38.756237
 31
0.0
  0
LINE
  5
990
330
1F
100
AcDbEntity
  8
1
  6
CONTINUOUS
370
50
 62
4
100
AcDbLine
 10
44.774372
 20
-38.756237
 30
0.0
 11
45.388866
 21
-38.369312
 31
0.0
  0
LINE
  5
991
330
1F
100
AcDbEntity
  8
1
  6
CONTINUOUS
370
50
 62
4
100
AcDbLine
 10
45.388866
 20
-38.369312
 30
0.0
 11
45.99615499999999
 21
-37.986835
 31
0.0
  0
LINE
  5
992
330
1F
100
AcDbEntity
  8
1
  6
CONTINUOUS
370
50
 62
4
100
AcDbLine
 10
45.99615499999999
 20
-37.986835
 30
0.0
 11
46.596359
 21
-37.608727
 31
0.0
  0
LINE
  5
993
330
1F
100
AcDbEntity
  8
1
  6
CONTINUOUS
370
50
 62
4
100
AcDbLine
 10
46.596359
 20
-37.608727
 30
0.0
 11
47.189602
 21
-37.234917
 31
0.0
  0
LINE
  5
994
330
1F
100
AcDbEntity
  8
1
  6
CONTINUOUS
370
50
 62
4
100
AcDbLine
 10
47.189602
 20
-37.234917
 30
0.0
 11
47.776001
 21
-36.865326
 31
0.0
  0
LINE
  5
995
330
1F
100
AcDbEntity
  8
1
  6
CONTINUOUS
370
50
 62
4
100
AcDbLine
 10
23.543512
 20
43.987251
 30
0.0
 11
23.708094
 21
44.092869
 31
0.0
  0
LINE
  5
996
330
1F
100
AcDbEntity
  8
1
  6
CONTINUOUS
370
50
 62
4
100
AcDbLine
 10
7.314000999999999
 20
34.500595
 30
0.0
 11
7.322584
 21
34.506519
 31
0.0
  0
LINE
  5
997
330
1F
100
AcDbEntity
  8
1
  6
CONTINUOUS
370
50
 62
4
100
AcDbLine
 10
23.708094
 20
44.092869
 30
0.0
 11
23.879074
 21
44.21395099999999
 31
0.0
  0
LINE
  5
998
330
1F
100
AcDbEntity
  8
1
  6
CONTINUOUS
370
50
 62
4
100
AcDbLine
 10
23.879074
 20
44.21395099999999
 30
0.0
 11
24.054836
 21
44.348534
 31
0.0
  0
LINE
  5
999
330
1F
100
AcDbEntity
  8
1
  6
CONTINUOUS
370
50
 62
4
100
AcDbLine
 10
24.054836
 20
44.348534
 30
0.0
 11
24.233694
 21
44.494408
 31
0.0
  0
LINE
  5
99A
330
1F
100
AcDbEntity
  8
1
  6
CONTINUOUS
370
50
 62
4
100
AcDbLine
 10
7.322584
 20
34.506519
 30
0.0
 11
7.329591
 21
34.512432
 31
0.0
  0
LINE
  5
99B
330
1F
100
AcDbEntity
  8
1
  6
CONTINUOUS
370
50
 62
4
100
AcDbLine
 10
24.233694
 20
44.494408
 30
0.0
 11
24.41395
 21
44.649342
 31
0.0
  0
LINE
  5
99C
330
1F
100
AcDbEntity
  8
1
  6
CONTINUOUS
370
50
 62
4
100
AcDbLine
 10
32.939026
 20
46.839005
 30
0.0
 11
36.750118
 21
50.214954
 31
0.0
  0
LINE
  5
99D
330
1F
100
AcDbEntity
  8
1
  6
CONTINUOUS
370
50
 62
4
100
AcDbLine
 10
24.41395
 20
44.649342
 30
0.0
 11
24.59561
 21
44.812649
 31
0.0
  0
LINE
  5
99E
330
1F
100
AcDbEntity
  8
1
  6
CONTINUOUS
370
50
 62
4
100
AcDbLine
 10
43.523258
 20
-46.5849
 30
0.0
 11
44.152462
 21
-46.014931
 31
0.0
  0
LINE
  5
99F
330
1F
100
AcDbEntity
  8
1
  6
CONTINUOUS
370
50
 62
4
100
AcDbLine
 10
44.152462
 20
-46.014931
 30
0.0
 11
44.774231
 21
-45.45162999999999
 31
0.0
  0
LINE
  5
9A0
330
1F
100
AcDbEntity
  8
1
  6
CONTINUOUS
370
50
 62
4
100
AcDbLine
 10
44.774231
 20
-45.45162999999999
 30
0.0
 11
45.388699
 21
-44.89487099999999
 31
0.0
  0
LINE
  5
9A1
330
1F
100
AcDbEntity
  8
1
  6
CONTINUOUS
370
50
 62
4
100
AcDbLine
 10
45.388699
 20
-44.89487099999999
 30
0.0
 11
45.995983
 21
-44.34453999999999
 31
0.0
  0
LINE
  5
9A2
330
1F
100
AcDbEntity
  8
1
  6
CONTINUOUS
370
50
 62
4
100
AcDbLine
 10
45.995983
 20
-44.34453999999999
 30
0.0
 11
46.596218
 21
-43.800533
 31
0.0
  0
LINE
  5
9A3
330
1F
100
AcDbEntity
  8
1
  6
CONTINUOUS
370
50
 62
4
100
AcDbLine
 10
46.596218
 20
-43.800533
 30
0.0
 11
47.189518
 21
-43.26273
 31
0.0
  0
LINE
  5
9A4
330
1F
100
AcDbEntity
  8
1
  6
CONTINUOUS
370
50
 62
4
100
AcDbLine
 10
47.189518
 20
-43.26273
 30
0.0
 11
47.776001
 21
-42.73103
 31
0.0
  0
LINE
  5
9A5
330
1F
100
AcDbEntity
  8
1
  6
CONTINUOUS
370
50
 62
4
100
AcDbLine
 10
47.28381299999999
 20
31.292606
 30
0.0
 11
47.776001
 21
31.739773
 31
0.0
  0
LINE
  5
9A6
330
1F
100
AcDbEntity
  8
1
  6
CONTINUOUS
370
50
 62
4
100
AcDbLine
 10
46.801392
 20
30.854115
 30
0.0
 11
47.28381299999999
 21
31.292606
 31
0.0
  0
LINE
  5
9A7
330
1F
100
AcDbEntity
  8
1
  6
CONTINUOUS
370
50
 62
4
100
AcDbLine
 10
46.328457
 20
30.424042
 30
0.0
 11
46.801392
 21
30.854115
 31
0.0
  0
LINE
  5
9A8
330
1F
100
AcDbEntity
  8
1
  6
CONTINUOUS
370
50
 62
4
100
AcDbLine
 10
43.523258
 20
-52.023651
 30
0.0
 11
44.152546
 21
-51.451393
 31
0.0
  0
LINE
  5
9A9
330
1F
100
AcDbEntity
  8
1
  6
CONTINUOUS
370
50
 62
4
100
AcDbLine
 10
44.152546
 20
-51.451393
 30
0.0
 11
44.774372
 21
-50.885796
 31
0.0
  0
LINE
  5
9AA
330
1F
100
AcDbEntity
  8
1
  6
CONTINUOUS
370
50
 62
4
100
AcDbLine
 10
44.774372
 20
-50.885796
 30
0.0
 11
45.388866
 21
-50.326744
 31
0.0
  0
LINE
  5
9AB
330
1F
100
AcDbEntity
  8
1
  6
CONTINUOUS
370
50
 62
4
100
AcDbLine
 10
45.864731
 20
30.002144
 30
0.0
 11
46.328457
 21
30.424042
 31
0.0
  0
LINE
  5
9AC
330
1F
100
AcDbEntity
  8
1
  6
CONTINUOUS
370
50
 62
4
100
AcDbLine
 10
45.388866
 20
-50.326744
 30
0.0
 11
45.99615499999999
 21
-49.77412
 31
0.0
  0
LINE
  5
9AD
330
1F
100
AcDbEntity
  8
1
  6
CONTINUOUS
370
50
 62
4
100
AcDbLine
 10
45.99615499999999
 20
-49.77412
 30
0.0
 11
46.596359
 21
-49.227814
 31
0.0
  0
LINE
  5
9AE
330
1F
100
AcDbEntity
  8
1
  6
CONTINUOUS
370
50
 62
4
100
AcDbLine
 10
45.409958
 20
29.588184
 30
0.0
 11
45.864731
 21
30.002144
 31
0.0
  0
LINE
  5
9AF
330
1F
100
AcDbEntity
  8
1
  6
CONTINUOUS
370
50
 62
4
100
AcDbLine
 10
46.596359
 20
-49.227814
 30
0.0
 11
47.189602
 21
-48.687714
 31
0.0
  0
LINE
  5
9B0
330
1F
100
AcDbEntity
  8
1
  6
CONTINUOUS
370
50
 62
4
100
AcDbLine
 10
47.189602
 20
-48.687714
 30
0.0
 11
47.776001
 21
-48.153713
 31
0.0
  0
LINE
  5
9B1
330
1F
100
AcDbEntity
  8
1
  6
CONTINUOUS
370
50
 62
4
100
AcDbLine
 10
44.963886
 20
29.181934
 30
0.0
 11
45.409958
 21
29.588184
 31
0.0
  0
LINE
  5
9B2
330
1F
100
AcDbEntity
  8
1
  6
CONTINUOUS
370
50
 62
4
100
AcDbLine
 10
44.526276
 20
28.783176
 30
0.0
 11
44.963886
 21
29.181934
 31
0.0
  0
LINE
  5
9B3
330
1F
100
AcDbEntity
  8
1
  6
CONTINUOUS
370
50
 62
4
100
AcDbLine
 10
24.59561
 20
44.812649
 30
0.0
 11
24.782194
 21
44.987099
 31
0.0
  0
LINE
  5
9B4
330
1F
100
AcDbEntity
  8
1
  6
CONTINUOUS
370
50
 62
4
100
AcDbLine
 10
24.782194
 20
44.987099
 30
0.0
 11
24.973619
 21
45.172459
 31
0.0
  0
LINE
  5
9B5
330
1F
100
AcDbEntity
  8
1
  6
CONTINUOUS
370
50
 62
4
100
AcDbLine
 10
24.973619
 20
45.172459
 30
0.0
 11
25.169575
 21
45.368282
 31
0.0
  0
LINE
  5
9B6
330
1F
100
AcDbEntity
  8
1
  6
CONTINUOUS
370
50
 62
4
100
AcDbLine
 10
36.316509
 20
54.216503
 30
0.0
 11
36.750118
 21
54.650112
 31
0.0
  0
LINE
  5
9B7
330
1F
100
AcDbEntity
  8
1
  6
CONTINUOUS
370
50
 62
4
100
AcDbLine
 10
43.523258
 20
-54.407833
 30
0.0
 11
44.152462
 21
-53.775246
 31
0.0
  0
LINE
  5
9B8
330
1F
100
AcDbEntity
  8
1
  6
CONTINUOUS
370
50
 62
4
100
AcDbLine
 10
44.152462
 20
-53.775246
 30
0.0
 11
44.774231
 21
-53.150051
 31
0.0
  0
LINE
  5
9B9
330
1F
100
AcDbEntity
  8
1
  6
CONTINUOUS
370
50
 62
4
100
AcDbLine
 10
44.774231
 20
-53.150051
 30
0.0
 11
45.388699
 21
-52.532124
 31
0.0
  0
LINE
  5
9BA
330
1F
100
AcDbEntity
  8
1
  6
CONTINUOUS
370
50
 62
4
100
AcDbLine
 10
45.388699
 20
-52.532124
 30
0.0
 11
45.995983
 21
-51.921333
 31
0.0
  0
LINE
  5
9BB
330
1F
100
AcDbEntity
  8
1
  6
CONTINUOUS
370
50
 62
4
100
AcDbLine
 10
45.995983
 20
-51.921333
 30
0.0
 11
46.596218
 21
-51.317558
 31
0.0
  0
LINE
  5
9BC
330
1F
100
AcDbEntity
  8
1
  6
CONTINUOUS
370
50
 62
4
100
AcDbLine
 10
46.596218
 20
-51.317558
 30
0.0
 11
47.189518
 21
-50.720673
 31
0.0
  0
LINE
  5
9BD
330
1F
100
AcDbEntity
  8
1
  6
CONTINUOUS
370
50
 62
4
100
AcDbLine
 10
47.189518
 20
-50.720673
 30
0.0
 11
47.776001
 21
-50.130562
 31
0.0
  0
LINE
  5
9BE
330
1F
100
AcDbEntity
  8
1
  6
CONTINUOUS
370
50
 62
4
100
AcDbLine
 10
25.169575
 20
45.368282
 30
0.0
 11
25.369749
 21
45.574139
 31
0.0
  0
LINE
  5
9BF
330
1F
100
AcDbEntity
  8
1
  6
CONTINUOUS
370
50
 62
4
100
AcDbLine
 10
25.837656
 20
35.361172
 30
0.0
 11
26.423258
 21
35.970345
 31
0.0
  0
LINE
  5
9C0
330
1F
100
AcDbEntity
  8
1
  6
CONTINUOUS
370
50
 62
4
100
AcDbLine
 10
25.263165
 20
34.763493
 30
0.0
 11
25.837656
 21
35.361172
 31
0.0
  0
LINE
  5
9C1
330
1F
100
AcDbEntity
  8
1
  6
CONTINUOUS
370
50
 62
4
100
AcDbLine
 10
24.699469
 20
34.176983
 30
0.0
 11
25.263165
 21
34.763493
 31
0.0
  0
LINE
  5
9C2
330
1F
100
AcDbEntity
  8
1
  6
CONTINUOUS
370
50
 62
4
100
AcDbLine
 10
24.146269
 20
33.60133
 30
0.0
 11
24.699469
 21
34.176983
 31
0.0
  0
LINE
  5
9C3
330
1F
100
AcDbEntity
  8
1
  6
CONTINUOUS
370
50
 62
4
100
AcDbLine
 10
23.603275
 20
33.03624
 30
0.0
 11
24.146269
 21
33.60133
 31
0.0
  0
LINE
  5
9C4
330
1F
100
AcDbEntity
  8
1
  6
CONTINUOUS
370
50
 62
4
100
AcDbLine
 10
23.070213
 20
32.481415
 30
0.0
 11
23.603275
 21
33.03624
 31
0.0
  0
LINE
  5
9C5
330
1F
100
AcDbEntity
  8
1
  6
CONTINUOUS
370
50
 62
4
100
AcDbLine
 10
22.546812
 20
31.936577
 30
0.0
 11
23.070213
 21
32.481415
 31
0.0
  0
LINE
  5
9C6
330
1F
100
AcDbEntity
  8
1
  6
CONTINUOUS
370
50
 62
4
100
AcDbLine
 10
25.369749
 20
45.574139
 30
0.0
 11
25.573835
 21
45.789589
 31
0.0
  0
LINE
  5
9C7
330
1F
100
AcDbEntity
  8
1
  6
CONTINUOUS
370
50
 62
4
100
AcDbLine
 10
7.329591
 20
34.512432
 30
0.0
 11
7.33503
 21
34.518314
 31
0.0
  0
LINE
  5
9C8
330
1F
100
AcDbEntity
  8
1
  6
CONTINUOUS
370
50
 62
4
100
AcDbLine
 10
25.573835
 20
45.789589
 30
0.0
 11
25.781521
 21
46.014194
 31
0.0
  0
LINE
  5
9C9
330
1F
100
AcDbEntity
  8
1
  6
CONTINUOUS
370
50
 62
4
100
AcDbLine
 10
25.781521
 20
46.014194
 30
0.0
 11
25.992496
 21
46.24751699999999
 31
0.0
  0
LINE
  5
9CA
330
1F
100
AcDbEntity
  8
1
  6
CONTINUOUS
370
50
 62
4
100
AcDbLine
 10
25.992496
 20
46.24751699999999
 30
0.0
 11
26.206451
 21
46.48912
 31
0.0
  0
LINE
  5
9CB
330
1F
100
AcDbEntity
  8
1
  6
CONTINUOUS
370
50
 62
4
100
AcDbLine
 10
26.206451
 20
46.48912
 30
0.0
 11
26.423075
 21
46.738567
 31
0.0
  0
LINE
  5
9CC
330
1F
100
AcDbEntity
  8
1
  6
CONTINUOUS
370
50
 62
4
100
AcDbLine
 10
44.788464
 20
14.369876
 30
0.0
 11
44.851505
 21
14.451029
 31
0.0
  0
LINE
  5
9CD
330
1F
100
AcDbEntity
  8
1
  6
CONTINUOUS
370
50
 62
4
100
AcDbLine
 10
44.725941
 20
14.28768
 30
0.0
 11
44.788464
 21
14.369876
 31
0.0
  0
LINE
  5
9CE
330
1F
100
AcDbEntity
  8
1
  6
CONTINUOUS
370
50
 62
4
100
AcDbLine
 10
47.751423
 20
41.84902599999999
 30
0.0
 11
47.75961299999999
 21
41.860023
 31
0.0
  0
LINE
  5
9CF
330
1F
100
AcDbEntity
  8
1
  6
CONTINUOUS
370
50
 62
4
100
AcDbLine
 10
44.663971
 20
14.204466
 30
0.0
 11
44.725941
 21
14.28768
 31
0.0
  0
LINE
  5
9D0
330
1F
100
AcDbEntity
  8
1
  6
CONTINUOUS
370
50
 62
4
100
AcDbLine
 10
47.743237
 20
41.838032
 30
0.0
 11
47.751423
 21
41.84902599999999
 31
0.0
  0
LINE
  5
9D1
330
1F
100
AcDbEntity
  8
1
  6
CONTINUOUS
370
50
 62
4
100
AcDbLine
 10
47.767807
 20
41.871029
 30
0.0
 11
47.776001
 21
41.882034
 31
0.0
  0
LINE
  5
9D2
330
1F
100
AcDbEntity
  8
1
  6
CONTINUOUS
370
50
 62
4
100
AcDbLine
 10
47.75961299999999
 20
41.860023
 30
0.0
 11
47.767807
 21
41.871029
 31
0.0
  0
LINE
  5
9D3
330
1F
100
AcDbEntity
  8
1
  6
CONTINUOUS
370
50
 62
4
100
AcDbLine
 10
47.726875
 20
41.816051
 30
0.0
 11
47.735054
 21
41.82703799999999
 31
0.0
  0
LINE
  5
9D4
330
1F
100
AcDbEntity
  8
1
  6
CONTINUOUS
370
50
 62
4
100
AcDbLine
 10
47.735054
 20
41.82703799999999
 30
0.0
 11
47.743237
 21
41.838032
 31
0.0
  0
LINE
  5
9D5
330
1F
100
AcDbEntity
  8
1
  6
CONTINUOUS
370
50
 62
4
100
AcDbLine
 10
44.602577
 20
14.120261
 30
0.0
 11
44.663971
 21
14.204466
 31
0.0
  0
LINE
  5
9D6
330
1F
100
AcDbEntity
  8
1
  6
CONTINUOUS
370
50
 62
4
100
AcDbLine
 10
44.54179
 20
14.035094
 30
0.0
 11
44.602577
 21
14.120261
 31
0.0
  0
LINE
  5
9D7
330
1F
100
AcDbEntity
  8
1
  6
CONTINUOUS
370
50
 62
4
100
AcDbLine
 10
44.481632
 20
13.94899
 30
0.0
 11
44.54179
 21
14.035094
 31
0.0
  0
LINE
  5
9D8
330
1F
100
AcDbEntity
  8
1
  6
CONTINUOUS
370
50
 62
4
100
AcDbLine
 10
7.33503
 20
34.518314
 30
0.0
 11
7.338907
 21
34.524139
 31
0.0
  0
LINE
  5
9D9
330
1F
100
AcDbEntity
  8
1
  6
CONTINUOUS
370
50
 62
4
100
AcDbLine
 10
25.837656
 20
49.386581
 30
0.0
 11
26.423258
 21
50.28626999999999
 31
0.0
  0
LINE
  5
9DA
330
1F
100
AcDbEntity
  8
1
  6
CONTINUOUS
370
50
 62
4
100
AcDbLine
 10
25.263165
 20
48.503868
 30
0.0
 11
25.837656
 21
49.386581
 31
0.0
  0
LINE
  5
9DB
330
1F
100
AcDbEntity
  8
1
  6
CONTINUOUS
370
50
 62
4
100
AcDbLine
 10
24.699469
 20
47.637657
 30
0.0
 11
25.263165
 21
48.503868
 31
0.0
  0
LINE
  5
9DC
330
1F
100
AcDbEntity
  8
1
  6
CONTINUOUS
370
50
 62
4
100
AcDbLine
 10
24.146269
 20
46.787479
 30
0.0
 11
24.699469
 21
47.637657
 31
0.0
  0
LINE
  5
9DD
330
1F
100
AcDbEntity
  8
1
  6
CONTINUOUS
370
50
 62
4
100
AcDbLine
 10
23.603275
 20
45.952896
 30
0.0
 11
24.146269
 21
46.787479
 31
0.0
  0
LINE
  5
9DE
330
1F
100
AcDbEntity
  8
1
  6
CONTINUOUS
370
50
 62
4
100
AcDbLine
 10
23.070213
 20
45.13348
 30
0.0
 11
23.603275
 21
45.952896
 31
0.0
  0
LINE
  5
9DF
330
1F
100
AcDbEntity
  8
1
  6
CONTINUOUS
370
50
 62
4
100
AcDbLine
 10
22.546812
 20
44.328815
 30
0.0
 11
23.070213
 21
45.13348
 31
0.0
  0
LINE
  5
9E0
330
1F
100
AcDbEntity
  8
1
  6
CONTINUOUS
370
50
 62
4
100
AcDbLine
 10
24.367723
 20
51.052177
 30
0.0
 11
24.557703
 21
51.363743
 31
0.0
  0
LINE
  5
9E1
330
1F
100
AcDbEntity
  8
1
  6
CONTINUOUS
370
50
 62
4
100
AcDbLine
 10
24.18362
 20
50.75023299999999
 30
0.0
 11
24.367723
 21
51.052177
 31
0.0
  0
LINE
  5
9E2
330
1F
100
AcDbEntity
  8
1
  6
CONTINUOUS
370
50
 62
4
100
AcDbLine
 10
24.557703
 20
51.363743
 30
0.0
 11
24.752903
 21
51.68395599999999
 31
0.0
  0
LINE
  5
9E3
330
1F
100
AcDbEntity
  8
1
  6
CONTINUOUS
370
50
 62
4
100
AcDbLine
 10
24.00605
 20
50.458862
 30
0.0
 11
24.18362
 21
50.75023299999999
 31
0.0
  0
LINE
  5
9E4
330
1F
100
AcDbEntity
  8
1
  6
CONTINUOUS
370
50
 62
4
100
AcDbLine
 10
24.752903
 20
51.68395599999999
 30
0.0
 11
24.952663
 21
52.011829
 31
0.0
  0
LINE
  5
9E5
330
1F
100
AcDbEntity
  8
1
  6
CONTINUOUS
370
50
 62
4
100
AcDbLine
 10
44.775223
 20
28.954536
 30
0.0
 11
44.83557099999999
 21
29.053644
 31
0.0
  0
LINE
  5
9E6
330
1F
100
AcDbEntity
  8
1
  6
CONTINUOUS
370
50
 62
4
100
AcDbLine
 10
23.835644
 20
50.178959
 30
0.0
 11
24.00605
 21
50.458862
 31
0.0
  0
LINE
  5
9E7
330
1F
100
AcDbEntity
  8
1
  6
CONTINUOUS
370
50
 62
4
100
AcDbLine
 10
24.952663
 20
52.011829
 30
0.0
 11
25.156322
 21
52.346397
 31
0.0
  0
LINE
  5
9E8
330
1F
100
AcDbEntity
  8
1
  6
CONTINUOUS
370
50
 62
4
100
AcDbLine
 10
25.156322
 20
52.346397
 30
0.0
 11
25.363232
 21
52.68667199999999
 31
0.0
  0
LINE
  5
9E9
330
1F
100
AcDbEntity
  8
1
  6
CONTINUOUS
370
50
 62
4
100
AcDbLine
 10
23.673031
 20
49.911407
 30
0.0
 11
23.835644
 21
50.178959
 31
0.0
  0
LINE
  5
9EA
330
1F
100
AcDbEntity
  8
1
  6
CONTINUOUS
370
50
 62
4
100
AcDbLine
 10
25.363232
 20
52.68667199999999
 30
0.0
 11
25.572731
 21
53.03163499999999
 31
0.0
  0
LINE
  5
9EB
330
1F
100
AcDbEntity
  8
1
  6
CONTINUOUS
370
50
 62
4
100
AcDbLine
 10
25.572731
 20
53.03163499999999
 30
0.0
 11
25.784153
 21
53.38023399999999
 31
0.0
  0
LINE
  5
9EC
330
1F
100
AcDbEntity
  8
1
  6
CONTINUOUS
370
50
 62
4
100
AcDbLine
 10
23.518839
 20
49.657089
 30
0.0
 11
23.673031
 21
49.911407
 31
0.0
  0
LINE
  5
9ED
330
1F
100
AcDbEntity
  8
1
  6
CONTINUOUS
370
50
 62
4
100
AcDbLine
 10
25.784153
 20
53.38023399999999
 30
0.0
 11
25.996828
 21
53.731403
 31
0.0
  0
LINE
  5
9EE
330
1F
100
AcDbEntity
  8
1
  6
CONTINUOUS
370
50
 62
4
100
AcDbLine
 10
25.996828
 20
53.731403
 30
0.0
 11
26.210085
 21
54.084095
 31
0.0
  0
LINE
  5
9EF
330
1F
100
AcDbEntity
  8
1
  6
CONTINUOUS
370
50
 62
4
100
AcDbLine
 10
23.373438
 20
49.416462
 30
0.0
 11
23.518839
 21
49.657089
 31
0.0
  0
LINE
  5
9F0
330
1F
100
AcDbEntity
  8
1
  6
CONTINUOUS
370
50
 62
4
100
AcDbLine
 10
26.210085
 20
54.084095
 30
0.0
 11
26.423258
 21
54.437233
 31
0.0
  0
LINE
  5
9F1
330
1F
100
AcDbEntity
  8
1
  6
CONTINUOUS
370
50
 62
4
100
AcDbLine
 10
44.715363
 20
28.855038
 30
0.0
 11
44.775223
 21
28.954536
 31
0.0
  0
LINE
  5
9F2
330
1F
100
AcDbEntity
  8
1
  6
CONTINUOUS
370
50
 62
4
100
AcDbLine
 10
23.233747
 20
49.184208
 30
0.0
 11
23.373438
 21
49.416462
 31
0.0
  0
LINE
  5
9F3
330
1F
100
AcDbEntity
  8
1
  6
CONTINUOUS
370
50
 62
4
100
AcDbLine
 10
23.100826
 20
48.961777
 30
0.0
 11
23.233747
 21
49.184208
 31
0.0
  0
LINE
  5
9F4
330
1F
100
AcDbEntity
  8
1
  6
CONTINUOUS
370
50
 62
4
100
AcDbLine
 10
44.65600999999999
 20
28.755178
 30
0.0
 11
44.715363
 21
28.855038
 31
0.0
  0
LINE
  5
9F5
330
1F
100
AcDbEntity
  8
1
  6
CONTINUOUS
370
50
 62
4
100
AcDbLine
 10
22.977417
 20
48.75339899999999
 30
0.0
 11
23.100826
 21
48.961777
 31
0.0
  0
LINE
  5
9F6
330
1F
100
AcDbEntity
  8
1
  6
CONTINUOUS
370
50
 62
4
100
AcDbLine
 10
44.597191
 20
28.654995
 30
0.0
 11
44.65600999999999
 21
28.755178
 31
0.0
  0
LINE
  5
9F7
330
1F
100
AcDbEntity
  8
1
  6
CONTINUOUS
370
50
 62
4
100
AcDbLine
 10
22.546402
 20
-47.941959
 30
0.0
 11
22.546835
 21
-47.941219
 31
0.0
  0
LINE
  5
9F8
330
1F
100
AcDbEntity
  8
1
  6
CONTINUOUS
370
50
 62
4
100
AcDbLine
 10
22.865963
 20
48.562824
 30
0.0
 11
22.977417
 21
48.75339899999999
 31
0.0
  0
LINE
  5
9F9
330
1F
100
AcDbEntity
  8
1
  6
CONTINUOUS
370
50
 62
4
100
AcDbLine
 10
15.0
 20
35.0
 30
0.0
 11
22.865267
 21
48.561634
 31
0.0
  0
LINE
  5
9FA
330
1F
100
AcDbEntity
  8
1
  6
CONTINUOUS
370
50
 62
4
100
AcDbLine
 10
44.538929
 20
28.554516
 30
0.0
 11
44.597191
 21
28.654995
 31
0.0
  0
LINE
  5
9FB
330
1F
100
AcDbEntity
  8
1
  6
CONTINUOUS
370
50
 62
4
100
AcDbLine
 10
25.993637
 20
53.89994
 30
0.0
 11
26.423258
 21
54.642384
 31
0.0
  0
LINE
  5
9FC
330
1F
100
AcDbEntity
  8
1
  6
CONTINUOUS
370
50
 62
4
100
AcDbLine
 10
25.570009
 20
53.16780499999999
 30
0.0
 11
25.993637
 21
53.89994
 31
0.0
  0
LINE
  5
9FD
330
1F
100
AcDbEntity
  8
1
  6
CONTINUOUS
370
50
 62
4
100
AcDbLine
 10
25.152252
 20
52.445755
 30
0.0
 11
25.570009
 21
53.16780499999999
 31
0.0
  0
LINE
  5
9FE
330
1F
100
AcDbEntity
  8
1
  6
CONTINUOUS
370
50
 62
4
100
AcDbLine
 10
24.740242
 20
51.73358899999999
 30
0.0
 11
25.152252
 21
52.445755
 31
0.0
  0
LINE
  5
9FF
330
1F
100
AcDbEntity
  8
1
  6
CONTINUOUS
370
50
 62
4
100
AcDbLine
 10
24.333866
 20
51.031105
 30
0.0
 11
24.740242
 21
51.73358899999999
 31
0.0
  0
LINE
  5
A00
330
1F
100
AcDbEntity
  8
1
  6
CONTINUOUS
370
50
 62
4
100
AcDbLine
 10
23.933006
 20
50.3381
 30
0.0
 11
24.333866
 21
51.031105
 31
0.0
  0
LINE
  5
A01
330
1F
100
AcDbEntity
  8
1
  6
CONTINUOUS
370
50
 62
4
100
AcDbLine
 10
44.481255
 20
28.453772
 30
0.0
 11
44.538929
 21
28.554516
 31
0.0
  0
LINE
  5
A02
330
1F
100
AcDbEntity
  8
1
  6
CONTINUOUS
370
50
 62
4
100
AcDbLine
 10
22.546047
 20
-47.942822
 30
0.0
 11
22.546402
 21
-47.941959
 31
0.0
  0
LINE
  5
A03
330
1F
100
AcDbEntity
  8
1
  6
CONTINUOUS
370
50
 62
4
100
AcDbLine
 10
7.338907
 20
34.524139
 30
0.0
 11
7.341228
 21
34.529892
 31
0.0
  0
LINE
  5
A04
330
1F
100
AcDbEntity
  8
1
  6
CONTINUOUS
370
50
 62
4
100
AcDbLine
 10
22.545773
 20
-47.943806
 30
0.0
 11
22.546047
 21
-47.942822
 31
0.0
  0
LINE
  5
A05
330
1F
100
AcDbEntity
  8
1
  6
CONTINUOUS
370
50
 62
4
100
AcDbLine
 10
42.819889
 20
10.196736
 30
0.0
 11
42.914276
 21
10.574465
 31
0.0
  0
LINE
  5
A06
330
1F
100
AcDbEntity
  8
1
  6
CONTINUOUS
370
50
 62
4
100
AcDbLine
 10
42.740025
 20
9.81601
 30
0.0
 11
42.819889
 21
10.196736
 31
0.0
  0
LINE
  5
A07
330
1F
100
AcDbEntity
  8
1
  6
CONTINUOUS
370
50
 62
4
100
AcDbLine
 10
22.545578
 20
-47.944912
 30
0.0
 11
22.545773
 21
-47.943806
 31
0.0
  0
LINE
  5
A08
330
1F
100
AcDbEntity
  8
1
  6
CONTINUOUS
370
50
 62
4
100
AcDbLine
 10
42.671936
 20
-6.813445
 30
0.0
 11
42.70509
 21
-6.621515
 31
0.0
  0
LINE
  5
A09
330
1F
100
AcDbEntity
  8
1
  6
CONTINUOUS
370
50
 62
4
100
AcDbLine
 10
42.675465
 20
9.434737
 30
0.0
 11
42.740025
 21
9.81601
 31
0.0
  0
LINE
  5
A0A
330
1F
100
AcDbEntity
  8
1
  6
CONTINUOUS
370
50
 62
4
100
AcDbLine
 10
42.643692
 20
-7.007499999999999
 30
0.0
 11
42.671936
 21
-6.813445
 31
0.0
  0
LINE
  5
A0B
330
1F
100
AcDbEntity
  8
1
  6
CONTINUOUS
370
50
 62
4
100
AcDbLine
 10
44.496876
 20
28.57019
 30
0.0
 11
44.526276
 21
28.783176
 31
0.0
  0
LINE
  5
A0C
330
1F
100
AcDbEntity
  8
1
  6
CONTINUOUS
370
50
 62
4
100
AcDbLine
 10
7.341228
 20
34.529892
 30
0.0
 11
7.342
 21
34.535542
 31
0.0
  0
LINE
  5
A0D
330
1F
100
AcDbEntity
  8
1
  6
CONTINUOUS
370
50
 62
4
100
AcDbLine
 10
44.468719
 20
28.357555
 30
0.0
 11
44.496876
 21
28.57019
 31
0.0
  0
LINE
  5
A0E
330
1F
100
AcDbEntity
  8
1
  6
CONTINUOUS
370
50
 62
4
100
AcDbLine
 10
42.626904
 20
9.055374
 30
0.0
 11
42.675465
 21
9.434737
 31
0.0
  0
LINE
  5
A0F
330
1F
100
AcDbEntity
  8
1
  6
CONTINUOUS
370
50
 62
4
100
AcDbLine
 10
44.441811
 20
28.145254
 30
0.0
 11
44.468719
 21
28.357555
 31
0.0
  0
LINE
  5
A10
330
1F
100
AcDbEntity
  8
1
  6
CONTINUOUS
370
50
 62
4
100
AcDbLine
 10
44.416142
 20
27.933273
 30
0.0
 11
44.441811
 21
28.145254
 31
0.0
  0
LINE
  5
A11
330
1F
100
AcDbEntity
  8
1
  6
CONTINUOUS
370
50
 62
4
100
AcDbLine
 10
42.620369
 20
-7.203259
 30
0.0
 11
42.643692
 21
-7.007499999999999
 31
0.0
  0
LINE
  5
A12
330
1F
100
AcDbEntity
  8
1
  6
CONTINUOUS
370
50
 62
4
100
AcDbLine
 10
44.391708
 20
27.7216
 30
0.0
 11
44.416142
 21
27.933273
 31
0.0
  0
LINE
  5
A13
330
1F
100
AcDbEntity
  8
1
  6
CONTINUOUS
370
50
 62
4
100
AcDbLine
 10
44.472599
 20
13.866434
 30
0.0
 11
44.526276
 21
14.355117
 31
0.0
  0
LINE
  5
A14
330
1F
100
AcDbEntity
  8
1
  6
CONTINUOUS
370
50
 62
4
100
AcDbLine
 10
44.368507
 20
27.510212
 30
0.0
 11
44.391708
 21
27.7216
 31
0.0
  0
LINE
  5
A15
330
1F
100
AcDbEntity
  8
1
  6
CONTINUOUS
370
50
 62
4
100
AcDbLine
 10
44.423229
 20
13.379192
 30
0.0
 11
44.472599
 21
13.866434
 31
0.0
  0
LINE
  5
A16
330
1F
100
AcDbEntity
  8
1
  6
CONTINUOUS
370
50
 62
4
100
AcDbLine
 10
22.545462
 20
-47.946144
 30
0.0
 11
22.545578
 21
-47.944912
 31
0.0
  0
LINE
  5
A17
330
1F
100
AcDbEntity
  8
1
  6
CONTINUOUS
370
50
 62
4
100
AcDbLine
 10
42.60193599999999
 20
-7.400274
 30
0.0
 11
42.620369
 21
-7.203259
 31
0.0
  0
LINE
  5
A18
330
1F
100
AcDbEntity
  8
1
  6
CONTINUOUS
370
50
 62
4
100
AcDbLine
 10
44.378132
 20
12.89327
 30
0.0
 11
44.423229
 21
13.379192
 31
0.0
  0
LINE
  5
A19
330
1F
100
AcDbEntity
  8
1
  6
CONTINUOUS
370
50
 62
4
100
AcDbLine
 10
42.594421
 20
8.680431
 30
0.0
 11
42.626904
 21
9.055374
 31
0.0
  0
LINE
  5
A1A
330
1F
100
AcDbEntity
  8
1
  6
CONTINUOUS
370
50
 62
4
100
AcDbLine
 10
44.337292
 20
12.408546
 30
0.0
 11
44.378132
 21
12.89327
 31
0.0
  0
LINE
  5
A1B
330
1F
100
AcDbEntity
  8
1
  6
CONTINUOUS
370
50
 62
4
100
AcDbLine
 10
44.30069
 20
11.924902
 30
0.0
 11
44.337292
 21
12.408546
 31
0.0
  0
LINE
  5
A1C
330
1F
100
AcDbEntity
  8
1
  6
CONTINUOUS
370
50
 62
4
100
AcDbLine
 10
42.58836
 20
-7.598091999999999
 30
0.0
 11
42.60193599999999
 21
-7.400274
 31
0.0
  0
LINE
  5
A1D
330
1F
100
AcDbEntity
  8
1
  6
CONTINUOUS
370
50
 62
4
100
AcDbLine
 10
44.268303
 20
11.442218
 30
0.0
 11
44.30069
 21
11.924902
 31
0.0
  0
LINE
  5
A1E
330
1F
100
AcDbEntity
  8
1
  6
CONTINUOUS
370
50
 62
4
100
AcDbLine
 10
44.240116
 20
10.960376
 30
0.0
 11
44.268303
 21
11.442218
 31
0.0
  0
LINE
  5
A1F
330
1F
100
AcDbEntity
  8
1
  6
CONTINUOUS
370
50
 62
4
100
AcDbLine
 10
42.641476
 20
10.167832
 30
0.0
 11
42.659782
 21
10.500351
 31
0.0
  0
LINE
  5
A20
330
1F
100
AcDbEntity
  8
1
  6
CONTINUOUS
370
50
 62
4
100
AcDbLine
 10
42.625301
 20
9.835666
 30
0.0
 11
42.641476
 21
10.167832
 31
0.0
  0
LINE
  5
A21
330
1F
100
AcDbEntity
  8
1
  6
CONTINUOUS
370
50
 62
4
100
AcDbLine
 10
42.577812
 20
8.312446999999999
 30
0.0
 11
42.594421
 21
8.680431
 31
0.0
  0
LINE
  5
A22
330
1F
100
AcDbEntity
  8
1
  6
CONTINUOUS
370
50
 62
4
100
AcDbLine
 10
42.579605
 20
-7.796264
 30
0.0
 11
42.58836
 21
-7.598091999999999
 31
0.0
  0
LINE
  5
A23
330
1F
100
AcDbEntity
  8
1
  6
CONTINUOUS
370
50
 62
4
100
AcDbLine
 10
42.611244
 20
9.503808
 30
0.0
 11
42.625301
 21
9.835666
 31
0.0
  0
LINE
  5
A24
330
1F
100
AcDbEntity
  8
1
  6
CONTINUOUS
370
50
 62
4
100
AcDbLine
 10
42.604778
 20
-6.848974999999999
 30
0.0
 11
42.613575
 21
-6.619918999999999
 31
0.0
  0
LINE
  5
A25
330
1F
100
AcDbEntity
  8
1
  6
CONTINUOUS
370
50
 62
4
100
AcDbLine
 10
22.546457
 20
44.317181
 30
0.0
 11
22.546907
 21
44.328938
 31
0.0
  0
LINE
  5
A26
330
1F
100
AcDbEntity
  8
1
  6
CONTINUOUS
370
50
 62
4
100
AcDbLine
 10
42.599304
 20
9.172215999999999
 30
0.0
 11
42.611244
 21
9.503808
 31
0.0
  0
LINE
  5
A27
330
1F
100
AcDbEntity
  8
1
  6
CONTINUOUS
370
50
 62
4
100
AcDbLine
 10
22.546461
 20
-42.071396
 30
0.0
 11
22.546907
 21
-42.058342
 31
0.0
  0
LINE
  5
A28
330
1F
100
AcDbEntity
  8
1
  6
CONTINUOUS
370
50
 62
4
100
AcDbLine
 10
42.597012
 20
-7.077914
 30
0.0
 11
42.604778
 21
-6.848974999999999
 31
0.0
  0
LINE
  5
A29
330
1F
100
AcDbEntity
  8
1
  6
CONTINUOUS
370
50
 62
4
100
AcDbLine
 10
22.546095
 20
44.30555
 30
0.0
 11
22.546457
 21
44.317181
 31
0.0
  0
LINE
  5
A2A
330
1F
100
AcDbEntity
  8
1
  6
CONTINUOUS
370
50
 62
4
100
AcDbLine
 10
42.589481
 20
8.840847
 30
0.0
 11
42.599304
 21
9.172215999999999
 31
0.0
  0
LINE
  5
A2B
330
1F
100
AcDbEntity
  8
1
  6
CONTINUOUS
370
50
 62
4
100
AcDbLine
 10
42.590267
 20
-7.30675
 30
0.0
 11
42.597012
 21
-7.077914
 31
0.0
  0
LINE
  5
A2C
330
1F
100
AcDbEntity
  8
1
  6
CONTINUOUS
370
50
 62
4
100
AcDbLine
 10
22.545424
 20
-47.947495
 30
0.0
 11
22.545462
 21
-47.946144
 31
0.0
  0
LINE
  5
A2D
330
1F
100
AcDbEntity
  8
1
  6
CONTINUOUS
370
50
 62
4
100
AcDbLine
 10
22.546101
 20
-42.084557
 30
0.0
 11
22.546461
 21
-42.071396
 31
0.0
  0
LINE
  5
A2E
330
1F
100
AcDbEntity
  8
1
  6
CONTINUOUS
370
50
 62
4
100
AcDbLine
 10
42.584545
 20
-7.535499
 30
0.0
 11
42.590267
 21
-7.30675
 31
0.0
  0
LINE
  5
A2F
330
1F
100
AcDbEntity
  8
1
  6
CONTINUOUS
370
50
 62
4
100
AcDbLine
 10
22.545818
 20
44.294044
 30
0.0
 11
22.546095
 21
44.30555
 31
0.0
  0
LINE
  5
A30
330
1F
100
AcDbEntity
  8
1
  6
CONTINUOUS
370
50
 62
4
100
AcDbLine
 10
42.581772
 20
8.509656
 30
0.0
 11
42.589481
 21
8.840847
 31
0.0
  0
LINE
  5
A31
330
1F
100
AcDbEntity
  8
1
  6
CONTINUOUS
370
50
 62
4
100
AcDbLine
 10
32.940102
 20
29.24305
 30
0.0
 11
33.000717
 21
31.995478
 31
0.0
  0
LINE
  5
A32
330
1F
100
AcDbEntity
  8
1
  6
CONTINUOUS
370
50
 62
4
100
AcDbLine
 10
37.992737
 20
28.125433
 30
0.0
 11
38.009193
 21
28.872734
 31
0.0
  0
LINE
  5
A33
330
1F
100
AcDbEntity
  8
1
  6
CONTINUOUS
370
50
 62
4
100
AcDbLine
 10
22.545824
 20
-42.097828
 30
0.0
 11
22.546101
 21
-42.084557
 31
0.0
  0
LINE
  5
A34
330
1F
100
AcDbEntity
  8
1
  6
CONTINUOUS
370
50
 62
4
100
AcDbLine
 10
42.579845
 20
-7.764174
 30
0.0
 11
42.584545
 21
-7.535499
 31
0.0
  0
LINE
  5
A35
330
1F
100
AcDbEntity
  8
1
  6
CONTINUOUS
370
50
 62
4
100
AcDbLine
 10
22.546455
 20
31.914547
 30
0.0
 11
22.546907
 21
31.936665
 31
0.0
  0
LINE
  5
A36
330
1F
100
AcDbEntity
  8
1
  6
CONTINUOUS
370
50
 62
4
100
AcDbLine
 10
22.546465
 20
-27.867786
 30
0.0
 11
22.546907
 21
-27.84519
 31
0.0
  0
LINE
  5
A37
330
1F
100
AcDbEntity
  8
1
  6
CONTINUOUS
370
50
 62
4
100
AcDbLine
 10
32.940102
 20
12.182158
 30
0.0
 11
32.966152
 21
13.642664
 31
0.0
  0
LINE
  5
A38
330
1F
100
AcDbEntity
  8
1
  6
CONTINUOUS
370
50
 62
4
100
AcDbLine
 10
37.948578
 20
11.067656
 30
0.0
 11
38.009193
 21
14.466242
 31
0.0
  0
LINE
  5
A39
330
1F
100
AcDbEntity
  8
1
  6
CONTINUOUS
370
50
 62
4
100
AcDbLine
 10
42.576172
 20
8.178601
 30
0.0
 11
42.581772
 21
8.509656
 31
0.0
  0
LINE
  5
A3A
330
1F
100
AcDbEntity
  8
1
  6
CONTINUOUS
370
50
 62
4
100
AcDbLine
 10
22.545628
 20
44.282665
 30
0.0
 11
22.545818
 21
44.294044
 31
0.0
  0
LINE
  5
A3B
330
1F
100
AcDbEntity
  8
1
  6
CONTINUOUS
370
50
 62
4
100
AcDbLine
 10
22.54636
 20
13.190889
 30
0.0
 11
22.546825
 21
13.218913
 31
0.0
  0
LINE
  5
A3C
330
1F
100
AcDbEntity
  8
1
  6
CONTINUOUS
370
50
 62
4
100
AcDbLine
 10
22.546091
 20
31.892527
 30
0.0
 11
22.546455
 21
31.914547
 31
0.0
  0
LINE
  5
A3D
330
1F
100
AcDbEntity
  8
1
  6
CONTINUOUS
370
50
 62
4
100
AcDbLine
 10
22.546499
 20
-8.14376
 30
0.0
 11
22.54694
 21
-8.116966
 31
0.0
  0
LINE
  5
A3E
330
1F
100
AcDbEntity
  8
1
  6
CONTINUOUS
370
50
 62
4
100
AcDbLine
 10
42.576172
 20
-7.992791
 30
0.0
 11
42.579845
 21
-7.764174
 31
0.0
  0
LINE
  5
A3F
330
1F
100
AcDbEntity
  8
1
  6
CONTINUOUS
370
50
 62
4
100
AcDbLine
 10
22.546104
 20
-27.89045
 30
0.0
 11
22.546465
 21
-27.867786
 31
0.0
  0
LINE
  5
A40
330
1F
100
AcDbEntity
  8
1
  6
CONTINUOUS
370
50
 62
4
100
AcDbLine
 10
22.545633
 20
-42.111206
 30
0.0
 11
22.545824
 21
-42.097828
 31
0.0
  0
LINE
  5
A41
330
1F
100
AcDbEntity
  8
1
  6
CONTINUOUS
370
50
 62
4
100
AcDbLine
 10
22.546135
 20
-8.170561
 30
0.0
 11
22.546499
 21
-8.14376
 31
0.0
  0
LINE
  5
A42
330
1F
100
AcDbEntity
  8
1
  6
CONTINUOUS
370
50
 62
4
100
AcDbLine
 10
22.545982
 20
13.162923
 30
0.0
 11
22.54636
 21
13.190889
 31
0.0
  0
LINE
  5
A43
330
1F
100
AcDbEntity
  8
1
  6
CONTINUOUS
370
50
 62
4
100
AcDbLine
 10
22.545815
 20
31.870602
 30
0.0
 11
22.546091
 21
31.892527
 31
0.0
  0
LINE
  5
A44
330
1F
100
AcDbEntity
  8
1
  6
CONTINUOUS
370
50
 62
4
100
AcDbLine
 10
22.54583
 20
-27.913181
 30
0.0
 11
22.546104
 21
-27.89045
 31
0.0
  0
LINE
  5
A45
330
1F
100
AcDbEntity
  8
1
  6
CONTINUOUS
370
50
 62
4
100
AcDbLine
 10
22.545851
 20
-8.197369
 30
0.0
 11
22.546135
 21
-8.170561
 31
0.0
  0
LINE
  5
A46
330
1F
100
AcDbEntity
  8
1
  6
CONTINUOUS
370
50
 62
4
100
AcDbLine
 10
22.545696
 20
13.135015
 30
0.0
 11
22.545982
 21
13.162923
 31
0.0
  0
LINE
  5
A47
330
1F
100
AcDbEntity
  8
1
  6
CONTINUOUS
370
50
 62
4
100
AcDbLine
 10
22.545523
 20
44.271408
 30
0.0
 11
22.545628
 21
44.282665
 31
0.0
  0
LINE
  5
A48
330
1F
100
AcDbEntity
  8
1
  6
CONTINUOUS
370
50
 62
4
100
AcDbLine
 10
22.545624
 20
31.848774
 30
0.0
 11
22.545815
 21
31.870602
 31
0.0
  0
LINE
  5
A49
330
1F
100
AcDbEntity
  8
1
  6
CONTINUOUS
370
50
 62
4
100
AcDbLine
 10
22.545637
 20
-27.935976
 30
0.0
 11
22.54583
 21
-27.913181
 31
0.0
  0
LINE
  5
A4A
330
1F
100
AcDbEntity
  8
1
  6
CONTINUOUS
370
50
 62
4
100
AcDbLine
 10
22.545525
 20
-42.124691
 30
0.0
 11
22.545633
 21
-42.111206
 31
0.0
  0
LINE
  5
A4B
330
1F
100
AcDbEntity
  8
1
  6
CONTINUOUS
370
50
 62
4
100
AcDbLine
 10
22.545643
 20
-8.224181999999999
 30
0.0
 11
22.545851
 21
-8.197369
 31
0.0
  0
LINE
  5
A4C
330
1F
100
AcDbEntity
  8
1
  6
CONTINUOUS
370
50
 62
4
100
AcDbLine
 10
22.5455
 20
13.107165
 30
0.0
 11
22.545696
 21
13.135015
 31
0.0
  0
LINE
  5
A4D
330
1F
100
AcDbEntity
  8
1
  6
CONTINUOUS
370
50
 62
4
100
AcDbLine
 10
22.545513
 20
-8.251
 30
0.0
 11
22.545643
 21
-8.224181999999999
 31
0.0
  0
LINE
  5
A4E
330
1F
100
AcDbEntity
  8
1
  6
CONTINUOUS
370
50
 62
4
100
AcDbLine
 10
22.545527
 20
-27.958836
 30
0.0
 11
22.545637
 21
-27.935976
 31
0.0
  0
LINE
  5
A4F
330
1F
100
AcDbEntity
  8
1
  6
CONTINUOUS
370
50
 62
4
100
AcDbLine
 10
22.545521
 20
31.827044
 30
0.0
 11
22.545624
 21
31.848774
 31
0.0
  0
LINE
  5
A50
330
1F
100
AcDbEntity
  8
1
  6
CONTINUOUS
370
50
 62
4
100
AcDbLine
 10
22.545391
 20
13.079351
 30
0.0
 11
22.5455
 21
13.107165
 31
0.0
  0
LINE
  5
A51
330
1F
100
AcDbEntity
  8
1
  6
CONTINUOUS
370
50
 62
4
100
AcDbLine
 10
22.54546
 20
-8.277822
 30
0.0
 11
22.545513
 21
-8.251
 31
0.0
  0
LINE
  5
A52
330
1F
100
AcDbEntity
  8
1
  6
CONTINUOUS
370
50
 62
4
100
AcDbLine
 10
22.545504
 20
44.260281
 30
0.0
 11
22.545523
 21
44.271408
 31
0.0
  0
LINE
  5
A53
330
1F
100
AcDbEntity
  8
1
  6
CONTINUOUS
370
50
 62
4
100
AcDbLine
 10
22.545502
 20
-42.138283
 30
0.0
 11
22.545525
 21
-42.124691
 31
0.0
  0
LINE
  5
A54
330
1F
100
AcDbEntity
  8
1
  6
CONTINUOUS
370
50
 62
4
100
AcDbLine
 10
22.545502
 20
-27.98176
 30
0.0
 11
22.545527
 21
-27.958836
 31
0.0
  0
LINE
  5
A55
330
1F
100
AcDbEntity
  8
1
  6
CONTINUOUS
370
50
 62
4
100
AcDbLine
 10
22.545504
 20
31.80541
 30
0.0
 11
22.545521
 21
31.827044
 31
0.0
  0
LINE
  5
A56
330
1F
100
AcDbEntity
  8
1
  6
CONTINUOUS
370
50
 62
4
100
AcDbLine
 10
22.545372
 20
13.051552
 30
0.0
 11
22.545391
 21
13.079351
 31
0.0
  0
LINE
  5
A57
330
1F
100
AcDbEntity
  8
1
  6
CONTINUOUS
370
50
 62
4
100
AcDbLine
 10
31.872553
 20
-19.03994
 30
0.0
 11
31.874212
 21
-16.430601
 31
0.0
  0
LINE
  5
A58
330
1F
100
AcDbEntity
  8
1
  6
CONTINUOUS
370
50
 62
4
100
AcDbLine
 10
31.872553
 20
-39.402035
 30
0.0
 11
31.874212
 21
-32.461525
 31
0.0
  0
LINE
  5
A59
330
1F
100
AcDbEntity
  8
1
  6
CONTINUOUS
370
50
 62
4
100
AcDbLine
 10
31.872553
 20
-51.960072
 30
0.0
 11
31.87318
 21
-48.220882
 31
0.0
  0
LINE
  5
A5A
330
1F
100
AcDbEntity
  8
1
  6
CONTINUOUS
370
50
 62
4
100
AcDbLine
 10
0.0
 20
-34.23642
 30
0.0
 11
0.0
 21
34.23642
 31
0.0
  0
LINE
  5
A5B
330
1F
100
AcDbEntity
  8
1
  6
CONTINUOUS
370
50
 62
4
100
AcDbLine
 10
0.7939999999999999
 20
-34.395473
 30
0.0
 11
0.7939999999999999
 21
-34.395462
 31
0.0
  0
LINE
  5
A5C
330
1F
100
AcDbEntity
  8
1
  6
CONTINUOUS
370
50
 62
4
100
AcDbLine
 10
7.342
 20
-35.0
 30
0.0
 11
7.342
 21
-34.535542
 31
0.0
  0
LINE
  5
A5D
330
1F
100
AcDbEntity
  8
1
  6
CONTINUOUS
370
50
 62
4
100
AcDbLine
 10
7.342
 20
34.535542
 30
0.0
 11
7.342
 21
35.0
 31
0.0
  0
LINE
  5
A5E
330
1F
100
AcDbEntity
  8
1
  6
CONTINUOUS
370
50
 62
4
100
AcDbLine
 10
15.0
 20
-35.0
 30
0.0
 11
15.0
 21
35.0
 31
0.0
  0
LINE
  5
A5F
330
1F
100
AcDbEntity
  8
1
  6
CONTINUOUS
370
50
 62
4
100
AcDbLine
 10
26.423258
 20
-9.788096999999999
 30
0.0
 11
26.423258
 21
6.927693
 31
0.0
  0
LINE
  5
A60
330
1F
100
AcDbEntity
  8
1
  6
CONTINUOUS
370
50
 62
4
100
AcDbLine
 10
26.423258
 20
14.53005
 30
0.0
 11
26.423258
 21
29.782423
 31
0.0
  0
LINE
  5
A61
330
1F
100
AcDbEntity
  8
1
  6
CONTINUOUS
370
50
 62
4
100
AcDbLine
 10
26.423258
 20
35.970345
 30
0.0
 11
26.423258
 21
46.73838
 31
0.0
  0
LINE
  5
A62
330
1F
100
AcDbEntity
  8
1
  6
CONTINUOUS
370
50
 62
4
100
AcDbLine
 10
26.423258
 20
50.28626999999999
 30
0.0
 11
26.423258
 21
54.437225
 31
0.0
  0
LINE
  5
A63
330
1F
100
AcDbEntity
  8
1
  6
CONTINUOUS
370
50
 62
4
100
AcDbLine
 10
26.423258
 20
-54.642384
 30
0.0
 11
26.423258
 21
-51.354111
 31
0.0
  0
LINE
  5
A64
330
1F
100
AcDbEntity
  8
1
  6
CONTINUOUS
370
50
 62
4
100
AcDbLine
 10
26.423258
 20
-48.1759
 30
0.0
 11
26.423258
 21
-38.099686
 31
0.0
  0
LINE
  5
A65
330
1F
100
AcDbEntity
  8
1
  6
CONTINUOUS
370
50
 62
4
100
AcDbLine
 10
26.423258
 20
-32.167591
 30
0.0
 11
26.423258
 21
-17.29915
 31
0.0
  0
LINE
  5
A66
330
1F
100
AcDbEntity
  8
1
  6
CONTINUOUS
370
50
 62
4
100
AcDbLine
 10
43.523258
 20
-6.635791999999999
 30
0.0
 11
43.523258
 21
4.88937
 31
0.0
  0
LINE
  5
A67
330
1F
100
AcDbEntity
  8
1
  6
CONTINUOUS
370
50
 62
4
100
AcDbLine
 10
43.523258
 20
-54.407833
 30
0.0
 11
43.523258
 21
-52.023651
 31
0.0
  0
LINE
  5
A68
330
1F
100
AcDbEntity
  8
1
  6
CONTINUOUS
370
50
 62
4
100
AcDbLine
 10
43.523258
 20
-46.5849
 30
0.0
 11
43.523258
 21
-39.543755
 31
0.0
  0
LINE
  5
A69
330
1F
100
AcDbEntity
  8
1
  6
CONTINUOUS
370
50
 62
4
100
AcDbLine
 10
43.523258
 20
-29.535255
 30
0.0
 11
43.523258
 21
-19.231731
 31
0.0
  0
LINE
  5
A6A
330
1F
100
AcDbEntity
  8
1
  6
CONTINUOUS
370
50
 62
4
100
AcDbLine
 10
43.523258
 20
17.577971
 30
0.0
 11
43.523258
 21
28.042074
 31
0.0
  0
LINE
  5
A6B
330
1F
100
AcDbEntity
  8
1
  6
CONTINUOUS
370
50
 62
4
100
AcDbLine
 10
43.523258
 20
38.3102
 30
0.0
 11
43.523258
 21
45.640701
 31
0.0
  0
LINE
  5
A6C
330
1F
100
AcDbEntity
  8
1
  6
CONTINUOUS
370
50
 62
4
100
AcDbLine
 10
43.523258
 20
51.454624
 30
0.0
 11
43.523258
 21
54.199627
 31
0.0
  0
LINE
  5
A6D
330
1F
100
AcDbEntity
  8
1
  6
CONTINUOUS
370
50
 62
4
100
AcDbLine
 10
47.776001
 20
-5.683604
 30
0.0
 11
47.776001
 21
3.93436
 31
0.0
  0
LINE
  5
A6E
330
1F
100
AcDbEntity
  8
1
  6
CONTINUOUS
370
50
 62
4
100
AcDbLine
 10
47.776001
 20
-32.786644
 30
0.0
 11
47.776001
 21
-31.739773
 31
0.0
  0
LINE
  5
A6F
330
1F
100
AcDbEntity
  8
1
  6
CONTINUOUS
370
50
 62
4
100
AcDbLine
 10
47.776001
 20
-16.741835
 30
0.0
 11
47.776001
 21
-15.311061
 31
0.0
  0
LINE
  5
A70
330
1F
100
AcDbEntity
  8
1
  6
CONTINUOUS
370
50
 62
4
100
AcDbLine
 10
47.776001
 20
41.771431
 30
0.0
 11
47.776001
 21
41.882023
 31
0.0
  0
LINE
  5
A71
330
1F
100
AcDbEntity
  8
1
  6
CONTINUOUS
370
50
 62
4
100
AcDbLine
 10
47.776001
 20
3.934441
 30
0.0
 11
47.776001
 21
4.150195
 31
0.0
  0
LINE
  5
A72
330
1F
100
AcDbEntity
  8
1
  6
CONTINUOUS
370
50
 62
4
100
AcDbLine
 10
47.776001
 20
25.364838
 30
0.0
 11
47.776001
 21
26.868095
 31
0.0
  0
LINE
  5
A73
330
1F
100
AcDbEntity
  8
1
  6
CONTINUOUS
370
50
 62
4
100
AcDbLine
 10
47.776001
 20
4.150195
 30
0.0
 11
47.776001
 21
5.683604
 31
0.0
  0
LINE
  5
A74
330
1F
100
AcDbEntity
  8
1
  6
CONTINUOUS
370
50
 62
4
100
AcDbLine
 10
47.776001
 20
-50.130562
 30
0.0
 11
47.776001
 21
-48.153713
 31
0.0
  0
LINE
  5
A75
330
1F
100
AcDbEntity
  8
1
  6
CONTINUOUS
370
50
 62
4
100
AcDbLine
 10
47.776001
 20
-48.153713
 30
0.0
 11
47.776001
 21
-42.73103
 31
0.0
  0
LINE
  5
A76
330
1F
100
AcDbEntity
  8
1
  6
CONTINUOUS
370
50
 62
4
100
AcDbLine
 10
47.776001
 20
-42.73103
 30
0.0
 11
47.776001
 21
-36.865326
 31
0.0
  0
LINE
  5
A77
330
1F
100
AcDbEntity
  8
1
  6
CONTINUOUS
370
50
 62
4
100
AcDbLine
 10
47.776001
 20
-36.865326
 30
0.0
 11
47.776001
 21
-32.786724
 31
0.0
  0
LINE
  5
A78
330
1F
100
AcDbEntity
  8
1
  6
CONTINUOUS
370
50
 62
4
100
AcDbLine
 10
47.776001
 20
-26.868095
 30
0.0
 11
47.776001
 21
-18.275307
 31
0.0
  0
LINE
  5
A79
330
1F
100
AcDbEntity
  8
1
  6
CONTINUOUS
370
50
 62
4
100
AcDbLine
 10
47.776001
 20
-18.275307
 30
0.0
 11
47.776001
 21
-16.741913
 31
0.0
  0
LINE
  5
A7A
330
1F
100
AcDbEntity
  8
1
  6
CONTINUOUS
370
50
 62
4
100
AcDbLine
 10
47.776001
 20
15.311061
 30
0.0
 11
47.776001
 21
16.626595
 31
0.0
  0
LINE
  5
A7B
330
1F
100
AcDbEntity
  8
1
  6
CONTINUOUS
370
50
 62
4
100
AcDbLine
 10
47.776001
 20
16.626595
 30
0.0
 11
47.776001
 21
25.364779
 31
0.0
  0
LINE
  5
A7C
330
1F
100
AcDbEntity
  8
1
  6
CONTINUOUS
370
50
 62
4
100
AcDbLine
 10
47.776001
 20
31.739773
 30
0.0
 11
47.776001
 21
35.643692
 31
0.0
  0
LINE
  5
A7D
330
1F
100
AcDbEntity
  8
1
  6
CONTINUOUS
370
50
 62
4
100
AcDbLine
 10
47.776001
 20
35.643692
 30
0.0
 11
47.776001
 21
41.771393
 31
0.0
  0
LINE
  5
A7E
330
1F
100
AcDbEntity
  8
1
  6
CONTINUOUS
370
50
 62
4
100
AcDbLine
 10
47.776001
 20
41.882034
 30
0.0
 11
47.776001
 21
47.60111999999999
 31
0.0
  0
LINE
  5
A7F
330
1F
100
AcDbEntity
  8
1
  6
CONTINUOUS
370
50
 62
4
100
AcDbLine
 10
47.776001
 20
49.904678
 30
0.0
 11
47.776001
 21
50.130562
 31
0.0
  0
LINE
  5
A80
330
1F
100
AcDbEntity
  8
1
  6
CONTINUOUS
370
50
 62
4
100
AcDbLine
 10
47.776001
 20
47.60111999999999
 30
0.0
 11
47.776001
 21
49.904667
 31
0.0
  0
ELLIPSE
  5
A81
330
1F
100
AcDbEntity
  8
1
  6
CONTINUOUS
370
50
 62
4
100
AcDbEllipse
 10
-323.623292
 20
0.0
 30
0.0
 11
-3133.558972000009
 21
0.9548759691996289
 31
0.0
210
0.0
220
0.0
230
1.0
 40
0.0174524042753633
 41
4.594958563223325
 42
4.598701573937141
  0
ELLIPSE
  5
A82
330
1F
100
AcDbEntity
  8
1
  6
CONTINUOUS
370
50
 62
4
100
AcDbEllipse
 10
-323.623292
 20
0.0
 30
0.0
 11
-3133.55895099816
 21
22.87399525207559
 31
0.0
210
0.0
220
0.0
230
1.0
 40
0.0158554052352474
 41
1.684604792673855
 42
1.688347803444699
  0
ELLIPSE
  5
A83
330
1F
100
AcDbEntity
  8
1
  6
CONTINUOUS
370
50
 62
4
100
AcDbEllipse
 10
-323.623292
 20
0.0
 30
0.0
 11
-3133.558947998701
 21
24.59432616548503
 31
0.0
210
0.0
220
0.0
230
0.9999999999999997
 40
0.0155909391888093
 41
4.595075611496979
 42
4.598818622271786
  0
ELLIPSE
  5
A84
330
1F
100
AcDbEntity
  8
1
  6
CONTINUOUS
370
50
 62
4
100
AcDbEllipse
 10
-323.623292
 20
0.0
 30
0.0
 11
-3133.55893700626
 21
42.16695053479985
 31
0.0
210
0.0
220
0.0
230
1.0
 40
0.0111175556913632
 41
1.684638654850687
 42
1.688381665540771
  0
ELLIPSE
  5
A85
330
1F
100
AcDbEntity
  8
1
  6
CONTINUOUS
370
50
 62
4
100
AcDbEllipse
 10
-323.623292
 20
0.0
 30
0.0
 11
-3133.55893799458
 21
43.35699639164288
 31
0.0
210
0.0
220
0.0
230
1.0
 40
0.0106411887122852
 41
4.595100478369744
 42
4.59884348913978
  0
ELLIPSE
  5
A86
330
1F
100
AcDbEntity
  8
1
  6
CONTINUOUS
370
50
 62
4
100
AcDbEllipse
 10
-323.623292
 20
0.0
 30
0.0
 11
-3133.55896399821
 21
53.1055101055468
 31
0.0
210
0.0
220
0.0
230
0.9999999999999999
 40
0.0041793204313122
 41
1.684559879867878
 42
1.688302890582925
  0
ELLIPSE
  5
A87
330
1F
100
AcDbEntity
  8
1
  6
CONTINUOUS
370
50
 62
4
100
AcDbEllipse
 10
-323.623292
 20
0.0
 30
0.0
 11
-3133.558965999838
 21
53.53010100949089
 31
0.0
210
0.0
220
0.0
230
1.0
 40
0.0035854841463955
 41
4.595014498386534
 42
4.598757509003494
  0
ELLIPSE
  5
A88
330
1F
100
AcDbEntity
  8
1
  6
CONTINUOUS
370
50
 62
4
100
AcDbEllipse
 10
-17.9
 20
0.0
 30
0.0
 11
-42.76338000033947
 21
42.76337999966051
 31
0.0
210
0.0
220
0.0
230
1.0
 40
0.7974755737268664
 41
3.85596549422855
 42
3.919828833942122
  0
ELLIPSE
  5
A89
330
1F
100
AcDbEntity
  8
1
  6
CONTINUOUS
370
50
 62
4
100
AcDbEllipse
 10
-17.9
 20
0.0
 30
0.0
 11
42.76347100033978
 21
42.76347099966021
 31
0.0
210
0.0
220
0.0
230
0.9999999999999998
 40
0.7974712108846357
 41
5.651161300627663
 42
5.715024640515567
  0
ELLIPSE
  5
A8A
330
1F
100
AcDbEntity
  8
1
  6
CONTINUOUS
370
50
 62
4
100
AcDbEllipse
 10
-17.9
 20
0.0
 30
0.0
 11
-49.27978900013981
 21
49.27978899986018
 31
0.0
210
0.0
220
0.0
230
1.0
 40
0.4815762502554548
 41
3.63156603055993
 42
3.695429370727509
  0
ELLIPSE
  5
A8B
330
1F
100
AcDbEntity
  8
1
  6
CONTINUOUS
370
50
 62
4
100
AcDbEllipse
 10
-17.9
 20
0.0
 30
0.0
 11
49.27985200013973
 21
49.27985199986027
 31
0.0
210
0.0
220
0.0
230
1.0
 40
0.4815729763149451
 41
5.875560774160161
 42
5.939424114446009
  0
ELLIPSE
  5
A8C
330
1F
100
AcDbEntity
  8
1
  6
CONTINUOUS
370
50
 62
4
100
AcDbEllipse
 10
-17.9
 20
0.0
 30
0.0
 11
-53.32510300010482
 21
53.3251029998952
 31
0.0
210
0.0
220
0.0
230
1.0
 40
0.2282448662124478
 41
3.407166557452224
 42
3.471029898727251
  0
ELLIPSE
  5
A8D
330
1F
100
AcDbEntity
  8
1
  6
CONTINUOUS
370
50
 62
4
100
AcDbEllipse
 10
-17.9
 20
0.0
 30
0.0
 11
53.32513500010475
 21
53.32513499989525
 31
0.0
210
0.0
220
0.0
230
0.9999999999999998
 40
0.2282420850880171
 41
6.099960260411625
 42
6.163823597795219
  0
ARC
  5
A8E
330
1F
100
AcDbEntity
  8
1
  6
CONTINUOUS
370
50
 62
4
100
AcDbCircle
 10
7.271
 20
0.0
 30
0.0
 40
35.0
100
AcDbArc
 50
258.009889386435
 51
259.3355360320024
  0
ARC
  5
A8F
330
1F
100
AcDbEntity
  8
1
  6
CONTINUOUS
370
50
 62
4
100
AcDbCircle
 10
7.271
 20
0.0
 30
0.0
 40
35.0
100
AcDbArc
 50
100.6644639679976
 51
101.990110613565
  0
ELLIPSE
  5
A90
330
1F
100
AcDbEntity
  8
1
  6
CONTINUOUS
370
50
 62
4
100
AcDbEllipse
 10
29.6668
 20
12.184942
 30
0.0
 11
-7.119262991108299
 21
0.1269764985370359
 31
0.0
210
0.0
220
0.0
230
0.9999999999999999
 40
0.2054409281971589
 41
0.1220495531916021
 42
1.574612817218261
  0
ELLIPSE
  5
A91
330
1F
100
AcDbEntity
  8
1
  6
CONTINUOUS
370
50
 62
4
100
AcDbEllipse
 10
31.998481
 20
-26.973739
 30
0.0
 11
0.09648648901918269
 21
7.119740993372845
 31
0.0
210
0.0
220
0.0
230
1.0
 40
0.0110003994231973
 41
2.404485419732941
 42
2.451014680493321
  0
ELLIPSE
  5
A92
330
1F
100
AcDbEntity
  8
1
  6
CONTINUOUS
370
50
 62
4
100
AcDbEllipse
 10
31.998481
 20
-9.518492
 30
0.0
 11
0.1209120837745059
 21
7.119367998577213
 31
0.0
210
0.0
220
0.0
230
1.0
 40
0.0040319601804309
 41
1.622143437499794
 42
2.89977441770654
  0
ELLIPSE
  5
A93
330
1F
100
AcDbEntity
  8
1
  6
CONTINUOUS
370
50
 62
4
100
AcDbEllipse
 10
31.998481
 20
9.822009
 30
0.0
 11
0.1213944757371426
 21
7.119359991888069
 31
0.0
210
0.0
220
0.0
230
1.0
 40
0.0037350257631249
 41
3.985812191613638
 42
4.50547587779899
  0
ELLIPSE
  5
A94
330
1F
100
AcDbEntity
  8
1
  6
CONTINUOUS
370
50
 62
4
100
AcDbEllipse
 10
32.039903
 20
-25.144478
 30
0.0
 11
-9.493860000001684
 21
0.002269992958354355
 31
0.0
210
0.0
220
0.0
230
1.0
 40
0.7708327276840133
 41
1.30835957105736
 42
1.553527340686592
  0
ELLIPSE
  5
A95
330
1F
100
AcDbEntity
  8
1
  6
CONTINUOUS
370
50
 62
4
100
AcDbEllipse
 10
32.039903
 20
-7.214455999999999
 30
0.0
 11
-9.493858000069404
 21
0.006037890869555376
 31
0.0
210
0.0
220
0.0
230
1.0
 40
0.9708965522579054
 41
0.1009262666676351
 42
1.553960503384797
  0
ELLIPSE
  5
A96
330
1F
100
AcDbEntity
  8
1
  6
CONTINUOUS
370
50
 62
4
100
AcDbEllipse
 10
32.040988
 20
10.681415
 30
0.0
 11
2.373463999684731
 21
0.001759425351257172
 31
0.0
210
0.0
220
0.0
230
1.0
 40
0.9786624108876049
 41
3.123413888972064
 42
4.69421021514561
  0
ELLIPSE
  5
A97
330
1F
100
AcDbEntity
  8
1
  6
CONTINUOUS
370
50
 62
4
100
AcDbEllipse
 10
220.362452
 20
0.0
 30
0.0
 11
3133.558972000012
 21
0.954875960065559
 31
0.0
210
0.0
220
0.0
230
1.0
 40
0.0174524042753633
 41
4.650453051663119
 42
4.653754619237911
  0
ELLIPSE
  5
A98
330
1F
100
AcDbEntity
  8
1
  6
CONTINUOUS
370
50
 62
4
100
AcDbEllipse
 10
220.362452
 20
0.0
 30
0.0
 11
-3133.558972000009
 21
0.9548759691996289
 31
0.0
210
0.0
220
0.0
230
1.0
 40
0.0174524042753633
 41
4.771023341532094
 42
4.774324909106952
  0
ELLIPSE
  5
A99
330
1F
100
AcDbEntity
  8
1
  6
CONTINUOUS
370
50
 62
4
100
AcDbEllipse
 10
220.362452
 20
0.0
 30
0.0
 11
-3133.55895099816
 21
22.87399525207559
 31
0.0
210
0.0
220
0.0
230
1.0
 40
0.0158554052352474
 41
1.508981454778351
 42
1.512283022404314
  0
ELLIPSE
  5
A9A
330
1F
100
AcDbEntity
  8
1
  6
CONTINUOUS
370
50
 62
4
100
AcDbEllipse
 10
220.362452
 20
0.0
 30
0.0
 11
-3133.558947998701
 21
24.59432616548503
 31
0.0
210
0.0
220
0.0
230
0.9999999999999997
 40
0.0155909391888093
 41
4.771140392726696
 42
4.774441960356195
  0
ELLIPSE
  5
A9B
330
1F
100
AcDbEntity
  8
1
  6
CONTINUOUS
370
50
 62
4
100
AcDbEllipse
 10
220.362452
 20
0.0
 30
0.0
 11
-3133.55893700626
 21
42.16695053479985
 31
0.0
210
0.0
220
0.0
230
1.0
 40
0.0111175556913632
 41
1.509015320823443
 42
1.512316888376732
  0
ELLIPSE
  5
A9C
330
1F
100
AcDbEntity
  8
1
  6
CONTINUOUS
370
50
 62
4
100
AcDbEllipse
 10
220.362452
 20
0.0
 30
0.0
 11
-3133.55893799458
 21
43.35699639164288
 31
0.0
210
0.0
220
0.0
230
1.0
 40
0.0106411887122852
 41
4.771165259372459
 42
4.774466826997736
  0
ELLIPSE
  5
A9D
330
1F
100
AcDbEntity
  8
1
  6
CONTINUOUS
370
50
 62
4
100
AcDbEllipse
 10
220.362452
 20
0.0
 30
0.0
 11
-3133.55896399821
 21
53.1055101055468
 31
0.0
210
0.0
220
0.0
230
0.9999999999999999
 40
0.0041793204313122
 41
1.50893654464152
 42
1.512238112217395
  0
ELLIPSE
  5
A9E
330
1F
100
AcDbEntity
  8
1
  6
CONTINUOUS
370
50
 62
4
100
AcDbEllipse
 10
220.362452
 20
0.0
 30
0.0
 11
-3133.558965999838
 21
53.53010100949089
 31
0.0
210
0.0
220
0.0
230
1.0
 40
0.0035854841463955
 41
4.771079272052347
 42
4.774380839540273
  0
ELLIPSE
  5
A9F
330
1F
100
AcDbEntity
  8
1
  6
CONTINUOUS
370
50
 62
4
100
AcDbEllipse
 10
419.372981
 20
0.0
 30
0.0
 11
3133.558972000012
 21
0.9548759600655587
 31
0.0
210
0.0
220
0.0
230
1.0
 40
0.0174524042753633
 41
4.589891279950307
 42
4.592150790638024
  0
ELLIPSE
  5
AA0
330
1F
100
AcDbEntity
  8
1
  6
CONTINUOUS
370
50
 62
4
100
AcDbEllipse
 10
419.372981
 20
0.0
 30
0.0
 11
-3133.558972000023
 21
0.954875926956835
 31
0.0
210
0.0
220
0.0
230
0.9999999999999999
 40
0.0174524042753633
 41
4.832627170122461
 42
4.834886680809848
  0
ELLIPSE
  5
AA1
330
1F
100
AcDbEntity
  8
1
  6
CONTINUOUS
370
50
 62
4
100
AcDbEllipse
 10
419.372981
 20
0.0
 30
0.0
 11
-3133.55895099816
 21
22.8739952520756
 31
0.0
210
0.0
220
0.0
230
1.0
 40
0.0158554052352474
 41
1.44841968213665
 42
1.450679192858608
  0
ELLIPSE
  5
AA2
330
1F
100
AcDbEntity
  8
1
  6
CONTINUOUS
370
50
 62
4
100
AcDbEllipse
 10
419.372981
 20
0.0
 30
0.0
 11
-3133.558947998688
 21
24.59432616730104
 31
0.0
210
0.0
220
0.0
230
0.9999999999999999
 40
0.0155909391888093
 41
4.832744222338202
 42
4.835003733062539
  0
ELLIPSE
  5
AA3
330
1F
100
AcDbEntity
  8
1
  6
CONTINUOUS
370
50
 62
4
100
AcDbEllipse
 10
419.372981
 20
0.0
 30
0.0
 11
-3133.558937006281
 21
42.16695053327329
 31
0.0
210
0.0
220
0.0
230
0.9999999999999999
 40
0.0111175556913632
 41
1.448453549500392
 42
1.450713060173735
  0
ELLIPSE
  5
AA4
330
1F
100
AcDbEntity
  8
1
  6
CONTINUOUS
370
50
 62
4
100
AcDbEllipse
 10
419.372981
 20
0.0
 30
0.0
 11
-3133.558937994601
 21
43.35699639013441
 31
0.0
210
0.0
220
0.0
230
0.9999999999999999
 40
0.0106411887122852
 41
4.832769088904953
 42
4.835028599626438
  0
ELLIPSE
  5
AA5
330
1F
100
AcDbEntity
  8
1
  6
CONTINUOUS
370
50
 62
4
100
AcDbEllipse
 10
419.372981
 20
0.0
 30
0.0
 11
3133.558963998191
 21
53.10551010667551
 31
0.0
210
0.0
220
0.0
230
1.0
 40
0.0041793204313122
 41
1.690958369991389
 42
1.691221374410923
  0
ELLIPSE
  5
AA6
330
1F
100
AcDbEntity
  8
1
  6
CONTINUOUS
370
50
 62
4
100
AcDbEllipse
 10
419.372981
 20
0.0
 30
0.0
 11
-3133.55896399821
 21
53.1055101055468
 31
0.0
210
0.0
220
0.0
230
0.9999999999999999
 40
0.0041793204313122
 41
1.448374772908698
 42
1.450634283597165
  0
ELLIPSE
  5
AA7
330
1F
100
AcDbEntity
  8
1
  6
CONTINUOUS
370
50
 62
4
100
AcDbEllipse
 10
419.372981
 20
0.0
 30
0.0
 11
-3133.558965999964
 21
53.53010100209605
 31
0.0
210
0.0
220
0.0
230
0.9999999999999999
 40
0.0035854841463955
 41
4.832683099038249
 42
4.83494260966757
  0
LINE
  5
AA8
330
1F
100
AcDbEntity
  8
SK3
  6
DASH
370
35
 62
1
100
AcDbLine
 10
0.794
 20
35.0
 30
0.0
 11
0.794
 21
-35.0
 31
0.0
  0
LINE
  5
AA9
330
1F
100
AcDbEntity
  8
SK3
  6
DASH
370
35
 62
1
100
AcDbLine
 10
0.0
 20
14.4935880995701
 30
0.0
 11
5.960588099570098
 21
14.4935880995701
 31
0.0
  0
LINE
  5
AAA
330
1F
100
AcDbEntity
  8
SK3
  6
DASH
370
35
 62
1
100
AcDbLine
 10
0.0
 20
-14.4935880995701
 30
0.0
 11
5.960588099570098
 21
-14.4935880995701
 31
0.0
  0
ARC
  5
AAB
330
1F
100
AcDbEntity
  8
SK3
  6
DASH
370
35
 62
1
100
AcDbCircle
 10
5.960588099570098
 20
15.875
 30
0.0
 40
1.381411900429898
100
AcDbArc
 50
270.0
 51
0.0
  0
ARC
  5
AAC
330
1F
100
AcDbEntity
  8
SK3
  6
DASH
370
35
 62
1
100
AcDbCircle
 10
5.960588099570098
 20
-15.875
 30
0.0
 40
1.381411900429898
100
AcDbArc
 50
0.0
 51
90.0
  0
LINE
  5
AAD
330
1F
100
AcDbEntity
  8
SK3
  6
DASH
370
35
 62
1
100
AcDbLine
 10
7.342
 20
35.0
 30
0.0
 11
7.342
 21
15.875
 31
0.0
  0
LINE
  5
AAE
330
1F
100
AcDbEntity
  8
SK3
  6
DASH
370
35
 62
1
100
AcDbLine
 10
7.342
 20
-35.0
 30
0.0
 11
7.342
 21
-15.875
 31
0.0
  0
LINE
  5
AAF
330
1F
100
AcDbEntity
  8
SK3
  6
DASH
370
35
 62
1
100
AcDbLine
 10
7.342
 20
15.875
 30
0.0
 11
19.248
 21
15.875
 31
0.0
  0
LINE
  5
AB0
330
1F
100
AcDbEntity
  8
SK3
  6
DASH
370
35
 62
1
100
AcDbLine
 10
7.342
 20
-15.875
 30
0.0
 11
19.248
 21
-15.875
 31
0.0
  0
LINE
  5
AB1
330
1F
100
AcDbEntity
  8
SK3
  6
DASH
370
35
 62
1
100
AcDbLine
 10
19.248
 20
21.0345
 30
0.0
 11
19.248
 21
-21.0345
 31
0.0
  0
LINE
  5
AB2
330
1F
100
AcDbEntity
  8
SK3
  6
DASH
370
35
 62
1
100
AcDbLine
 10
19.248
 20
21.0345
 30
0.0
 11
32.32912162
 21
21.0345
 31
0.0
  0
LINE
  5
AB3
330
1F
100
AcDbEntity
  8
SK3
  6
DASH
370
35
 62
1
100
AcDbLine
 10
19.248
 20
-21.0345
 30
0.0
 11
32.32912162
 21
-21.0345
 31
0.0
  0
LINE
  5
AB4
330
1F
100
AcDbEntity
  8
2
  6
CONTINUOUS
370
25
 62
7
100
AcDbLine
 10
0.0
 20
-15.875
 30
0.0
 11
-13.0
 21
-15.875
 31
0.0
  0
LINE
  5
AB5
330
1F
100
AcDbEntity
  8
2
  6
CONTINUOUS
370
25
 62
7
100
AcDbLine
 10
-13.0
 20
15.875
 30
0.0
 11
0.0000000000000018
 21
15.875
 31
0.0
  0
LINE
  5
AB6
330
1F
100
AcDbEntity
  8
2
  6
CONTINUOUS
370
25
 62
7
100
AcDbLine
 10
-12.0
 20
-15.875
 30
0.0
 11
-12.0
 21
15.875
 31
0.0
  0
LINE
  5
AB7
330
1F
100
AcDbEntity
  8
2
  6
CONTINUOUS
370
25
 62
7
100
AcDbLine
 10
-12.0
 20
-15.875
 30
0.0
 11
-13.0
 21
-10.875
 31
0.0
  0
LINE
  5
AB8
330
1F
100
AcDbEntity
  8
2
  6
CONTINUOUS
370
25
 62
7
100
AcDbLine
 10
-13.0
 20
-10.875
 30
0.0
 11
-11.0
 21
-10.875
 31
0.0
  0
LINE
  5
AB9
330
1F
100
AcDbEntity
  8
2
  6
CONTINUOUS
370
25
 62
7
100
AcDbLine
 10
-11.0
 20
-10.875
 30
0.0
 11
-12.0
 21
-15.875
 31
0.0
  0
LINE
  5
ABA
330
1F
100
AcDbEntity
  8
2
  6
CONTINUOUS
370
25
 62
7
100
AcDbLine
 10
-12.06406646268768
 20
-15.55466768656158
 30
0.0
 11
-11.90390030596847
 21
-15.39450152984237
 31
0.0
  0
LINE
  5
ABB
330
1F
100
AcDbEntity
  8
2
  6
CONTINUOUS
370
25
 62
7
100
AcDbLine
 10
-12.13477714080634
 20
-15.20111429596831
 30
0.0
 11
-11.79783428879049
 21
-14.86417144395246
 31
0.0
  0
LINE
  5
ABC
330
1F
100
AcDbEntity
  8
2
  6
CONTINUOUS
370
25
 62
7
100
AcDbLine
 10
-12.20548781892499
 20
-14.84756090537504
 30
0.0
 11
-11.69176827161251
 21
-14.33384135806255
 31
0.0
  0
LINE
  5
ABD
330
1F
100
AcDbEntity
  8
2
  6
CONTINUOUS
370
25
 62
7
100
AcDbLine
 10
-12.27619849704365
 20
-14.49400751478176
 30
0.0
 11
-11.58570225443453
 21
-13.80351127217264
 31
0.0
  0
LINE
  5
ABE
330
1F
100
AcDbEntity
  8
2
  6
CONTINUOUS
370
25
 62
7
100
AcDbLine
 10
-12.3469091751623
 20
-14.14045412418849
 30
0.0
 11
-11.47963623725655
 21
-13.27318118628274
 31
0.0
  0
LINE
  5
ABF
330
1F
100
AcDbEntity
  8
2
  6
CONTINUOUS
370
25
 62
7
100
AcDbLine
 10
-12.41761985328096
 20
-13.78690073359522
 30
0.0
 11
-11.37357022007856
 21
-12.74285110039282
 31
0.0
  0
LINE
  5
AC0
330
1F
100
AcDbEntity
  8
2
  6
CONTINUOUS
370
25
 62
7
100
AcDbLine
 10
-12.48833053139961
 20
-13.43334734300194
 30
0.0
 11
-11.26750420290058
 21
-12.21252101450292
 31
0.0
  0
LINE
  5
AC1
330
1F
100
AcDbEntity
  8
2
  6
CONTINUOUS
370
25
 62
7
100
AcDbLine
 10
-12.55904120951827
 20
-13.07979395240867
 30
0.0
 11
-11.1614381857226
 21
-11.68219092861301
 31
0.0
  0
LINE
  5
AC2
330
1F
100
AcDbEntity
  8
2
  6
CONTINUOUS
370
25
 62
7
100
AcDbLine
 10
-12.62975188763692
 20
-12.7262405618154
 30
0.0
 11
-11.05537216854462
 21
-11.1518608427231
 31
0.0
  0
LINE
  5
AC3
330
1F
100
AcDbEntity
  8
2
  6
CONTINUOUS
370
25
 62
7
100
AcDbLine
 10
-12.70046256575557
 20
-12.37268717122212
 30
0.0
 11
-11.20277539453345
 21
-10.875
 31
0.0
  0
LINE
  5
AC4
330
1F
100
AcDbEntity
  8
2
  6
CONTINUOUS
370
25
 62
7
100
AcDbLine
 10
-12.77117324387423
 20
-12.01913378062885
 30
0.0
 11
-11.62703946324538
 21
-10.875
 31
0.0
  0
LINE
  5
AC5
330
1F
100
AcDbEntity
  8
2
  6
CONTINUOUS
370
25
 62
7
100
AcDbLine
 10
-12.84188392199288
 20
-11.66558039003558
 30
0.0
 11
-12.05130353195731
 21
-10.875
 31
0.0
  0
LINE
  5
AC6
330
1F
100
AcDbEntity
  8
2
  6
CONTINUOUS
370
25
 62
7
100
AcDbLine
 10
-12.91259460011154
 20
-11.3120269994423
 30
0.0
 11
-12.47556760066923
 21
-10.875
 31
0.0
  0
LINE
  5
AC7
330
1F
100
AcDbEntity
  8
2
  6
CONTINUOUS
370
25
 62
7
100
AcDbLine
 10
-12.98330527823019
 20
-10.95847360884903
 30
0.0
 11
-12.89983166938116
 21
-10.875
 31
0.0
  0
LINE
  5
AC8
330
1F
100
AcDbEntity
  8
2
  6
CONTINUOUS
370
25
 62
7
100
AcDbLine
 10
-12.03579665599852
 20
-15.69601672000738
 30
0.0
 11
-11.97613556266765
 21
-15.75567781333825
 31
0.0
  0
LINE
  5
AC9
330
1F
100
AcDbEntity
  8
2
  6
CONTINUOUS
370
25
 62
7
100
AcDbLine
 10
-12.1418626731765
 20
-15.16568663411747
 30
0.0
 11
-11.905424884549
 21
-15.40212442274498
 31
0.0
  0
LINE
  5
ACA
330
1F
100
AcDbEntity
  8
2
  6
CONTINUOUS
370
25
 62
7
100
AcDbLine
 10
-12.24792869035449
 20
-14.63535654822756
 30
0.0
 11
-11.83471420643034
 21
-15.04857103215171
 31
0.0
  0
LINE
  5
ACB
330
1F
100
AcDbEntity
  8
2
  6
CONTINUOUS
370
25
 62
7
100
AcDbLine
 10
-12.35399470753247
 20
-14.10502646233765
 30
0.0
 11
-11.76400352831169
 21
-14.69501764155843
 31
0.0
  0
LINE
  5
ACC
330
1F
100
AcDbEntity
  8
2
  6
CONTINUOUS
370
25
 62
7
100
AcDbLine
 10
-12.46006072471045
 20
-13.57469637644774
 30
0.0
 11
-11.69329285019303
 21
-14.34146425096516
 31
0.0
  0
LINE
  5
ACD
330
1F
100
AcDbEntity
  8
2
  6
CONTINUOUS
370
25
 62
7
100
AcDbLine
 10
-12.56612674188843
 20
-13.04436629055784
 30
0.0
 11
-11.62258217207438
 21
-13.98791086037189
 31
0.0
  0
LINE
  5
ACE
330
1F
100
AcDbEntity
  8
2
  6
CONTINUOUS
370
25
 62
7
100
AcDbLine
 10
-12.67219275906642
 20
-12.51403620466792
 30
0.0
 11
-11.55187149395572
 21
-13.63435746977862
 31
0.0
  0
LINE
  5
ACF
330
1F
100
AcDbEntity
  8
2
  6
CONTINUOUS
370
25
 62
7
100
AcDbLine
 10
-12.7782587762444
 20
-11.98370611877802
 30
0.0
 11
-11.48116081583707
 21
-13.28080407918534
 31
0.0
  0
LINE
  5
AD0
330
1F
100
AcDbEntity
  8
2
  6
CONTINUOUS
370
25
 62
7
100
AcDbLine
 10
-12.88432479342238
 20
-11.45337603288811
 30
0.0
 11
-11.41045013771841
 21
-12.92725068859207
 31
0.0
  0
LINE
  5
AD1
330
1F
100
AcDbEntity
  8
2
  6
CONTINUOUS
370
25
 62
7
100
AcDbLine
 10
-12.99039081060036
 20
-10.9230459469982
 30
0.0
 11
-11.33973945959976
 21
-12.5736972979988
 31
0.0
  0
LINE
  5
AD2
330
1F
100
AcDbEntity
  8
2
  6
CONTINUOUS
370
25
 62
7
100
AcDbLine
 10
-12.61417268888663
 20
-10.875
 30
0.0
 11
-11.2690287814811
 21
-12.22014390740552
 31
0.0
  0
LINE
  5
AD3
330
1F
100
AcDbEntity
  8
2
  6
CONTINUOUS
370
25
 62
7
100
AcDbLine
 10
-12.1899086201747
 20
-10.875
 30
0.0
 11
-11.19831810336245
 21
-11.86659051681225
 31
0.0
  0
LINE
  5
AD4
330
1F
100
AcDbEntity
  8
2
  6
CONTINUOUS
370
25
 62
7
100
AcDbLine
 10
-11.76564455146277
 20
-10.875
 30
0.0
 11
-11.1276074252438
 21
-11.51303712621898
 31
0.0
  0
LINE
  5
AD5
330
1F
100
AcDbEntity
  8
2
  6
CONTINUOUS
370
25
 62
7
100
AcDbLine
 10
-11.34138048275084
 20
-10.875
 30
0.0
 11
-11.05689674712514
 21
-11.1594837356257
 31
0.0
  0
LINE
  5
AD6
330
1F
100
AcDbEntity
  8
2
  6
CONTINUOUS
370
25
 62
7
100
AcDbLine
 10
-12.0
 20
15.875
 30
0.0
 11
-11.0
 21
10.875
 31
0.0
  0
LINE
  5
AD7
330
1F
100
AcDbEntity
  8
2
  6
CONTINUOUS
370
25
 62
7
100
AcDbLine
 10
-11.0
 20
10.875
 30
0.0
 11
-13.0
 21
10.875
 31
0.0
  0
LINE
  5
AD8
330
1F
100
AcDbEntity
  8
2
  6
CONTINUOUS
370
25
 62
7
100
AcDbLine
 10
-13.0
 20
10.875
 30
0.0
 11
-12.0
 21
15.875
 31
0.0
  0
LINE
  5
AD9
330
1F
100
AcDbEntity
  8
2
  6
CONTINUOUS
370
25
 62
7
100
AcDbLine
 10
-11.18673157302028
 20
10.875
 30
0.0
 11
-11.03112192883671
 21
11.03060964418357
 31
0.0
  0
LINE
  5
ADA
330
1F
100
AcDbEntity
  8
2
  6
CONTINUOUS
370
25
 62
7
100
AcDbLine
 10
-11.61099564173221
 20
10.875
 30
0.0
 11
-11.10183260695537
 21
11.38416303477684
 31
0.0
  0
LINE
  5
ADB
330
1F
100
AcDbEntity
  8
2
  6
CONTINUOUS
370
25
 62
7
100
AcDbLine
 10
-12.03525971044413
 20
10.875
 30
0.0
 11
-11.17254328507402
 21
11.73771642537011
 31
0.0
  0
LINE
  5
ADC
330
1F
100
AcDbEntity
  8
2
  6
CONTINUOUS
370
25
 62
7
100
AcDbLine
 10
-12.45952377915606
 20
10.875
 30
0.0
 11
-11.24325396319268
 21
12.09126981596339
 31
0.0
  0
LINE
  5
ADD
330
1F
100
AcDbEntity
  8
2
  6
CONTINUOUS
370
25
 62
7
100
AcDbLine
 10
-12.88378784786799
 20
10.875
 30
0.0
 11
-11.31396464131133
 21
12.44482320655666
 31
0.0
  0
LINE
  5
ADE
330
1F
100
AcDbEntity
  8
2
  6
CONTINUOUS
370
25
 62
7
100
AcDbLine
 10
-12.92298702085502
 20
11.2600648957249
 30
0.0
 11
-11.38467531942999
 21
12.79837659714993
 31
0.0
  0
LINE
  5
ADF
330
1F
100
AcDbEntity
  8
2
  6
CONTINUOUS
370
25
 62
7
100
AcDbLine
 10
-12.81692100367703
 20
11.79039498161481
 30
0.0
 11
-11.45538599754864
 21
13.15192998774321
 31
0.0
  0
LINE
  5
AE0
330
1F
100
AcDbEntity
  8
2
  6
CONTINUOUS
370
25
 62
7
100
AcDbLine
 10
-12.71085498649905
 20
12.32072506750472
 30
0.0
 11
-11.5260966756673
 21
13.50548337833648
 31
0.0
  0
LINE
  5
AE1
330
1F
100
AcDbEntity
  8
2
  6
CONTINUOUS
370
25
 62
7
100
AcDbLine
 10
-12.60478896932107
 20
12.85105515339463
 30
0.0
 11
-11.59680735378595
 21
13.85903676892975
 31
0.0
  0
LINE
  5
AE2
330
1F
100
AcDbEntity
  8
2
  6
CONTINUOUS
370
25
 62
7
100
AcDbLine
 10
-12.49872295214309
 20
13.38138523928454
 30
0.0
 11
-11.6675180319046
 21
14.21259015952302
 31
0.0
  0
LINE
  5
AE3
330
1F
100
AcDbEntity
  8
2
  6
CONTINUOUS
370
25
 62
7
100
AcDbLine
 10
-12.39265693496511
 20
13.91171532517445
 30
0.0
 11
-11.73822871002326
 21
14.5661435501163
 31
0.0
  0
LINE
  5
AE4
330
1F
100
AcDbEntity
  8
2
  6
CONTINUOUS
370
25
 62
7
100
AcDbLine
 10
-12.28659091778712
 20
14.44204541106436
 30
0.0
 11
-11.80893938814191
 21
14.91969694070957
 31
0.0
  0
LINE
  5
AE5
330
1F
100
AcDbEntity
  8
2
  6
CONTINUOUS
370
25
 62
7
100
AcDbLine
 10
-12.18052490060914
 20
14.97237549695427
 30
0.0
 11
-11.87965006626057
 21
15.27325033130285
 31
0.0
  0
LINE
  5
AE6
330
1F
100
AcDbEntity
  8
2
  6
CONTINUOUS
370
25
 62
7
100
AcDbLine
 10
-12.07445888343116
 20
15.50270558284418
 30
0.0
 11
-11.95036074437922
 21
15.62680372189612
 31
0.0
  0
LINE
  5
AE7
330
1F
100
AcDbEntity
  8
2
  6
CONTINUOUS
370
25
 62
7
100
AcDbLine
 10
-12.94732964038021
 20
11.13835179809896
 30
0.0
 11
-12.68397784228125
 21
10.875
 31
0.0
  0
LINE
  5
AE8
330
1F
100
AcDbEntity
  8
2
  6
CONTINUOUS
370
25
 62
7
100
AcDbLine
 10
-12.87661896226155
 20
11.49190518869223
 30
0.0
 11
-12.25971377356932
 21
10.875
 31
0.0
  0
LINE
  5
AE9
330
1F
100
AcDbEntity
  8
2
  6
CONTINUOUS
370
25
 62
7
100
AcDbLine
 10
-12.8059082841429
 20
11.8454585792855
 30
0.0
 11
-11.83544970485739
 21
10.875
 31
0.0
  0
LINE
  5
AEA
330
1F
100
AcDbEntity
  8
2
  6
CONTINUOUS
370
25
 62
7
100
AcDbLine
 10
-12.73519760602424
 20
12.19901196987878
 30
0.0
 11
-11.41118563614546
 21
10.875
 31
0.0
  0
LINE
  5
AEB
330
1F
100
AcDbEntity
  8
2
  6
CONTINUOUS
370
25
 62
7
100
AcDbLine
 10
-12.66448692790559
 20
12.55256536047205
 30
0.0
 11
-11.00326960814161
 21
10.89134804070808
 31
0.0
  0
LINE
  5
AEC
330
1F
100
AcDbEntity
  8
2
  6
CONTINUOUS
370
25
 62
7
100
AcDbLine
 10
-12.59377624978693
 20
12.90611875106532
 30
0.0
 11
-11.1093356253196
 21
11.42167812659799
 31
0.0
  0
LINE
  5
AED
330
1F
100
AcDbEntity
  8
2
  6
CONTINUOUS
370
25
 62
7
100
AcDbLine
 10
-12.52306557166828
 20
13.2596721416586
 30
0.0
 11
-11.21540164249758
 21
11.9520082124879
 31
0.0
  0
LINE
  5
AEE
330
1F
100
AcDbEntity
  8
2
  6
CONTINUOUS
370
25
 62
7
100
AcDbLine
 10
-12.45235489354962
 20
13.61322553225187
 30
0.0
 11
-11.32146765967556
 21
12.48233829837781
 31
0.0
  0
LINE
  5
AEF
330
1F
100
AcDbEntity
  8
2
  6
CONTINUOUS
370
25
 62
7
100
AcDbLine
 10
-12.38164421543097
 20
13.96677892284514
 30
0.0
 11
-11.42753367685354
 21
13.01266838426772
 31
0.0
  0
LINE
  5
AF0
330
1F
100
AcDbEntity
  8
2
  6
CONTINUOUS
370
25
 62
7
100
AcDbLine
 10
-12.31093353731231
 20
14.32033231343842
 30
0.0
 11
-11.53359969403152
 21
13.54299847015763
 31
0.0
  0
LINE
  5
AF1
330
1F
100
AcDbEntity
  8
2
  6
CONTINUOUS
370
25
 62
7
100
AcDbLine
 10
-12.24022285919366
 20
14.67388570403169
 30
0.0
 11
-11.63966571120951
 21
14.07332855604754
 31
0.0
  0
LINE
  5
AF2
330
1F
100
AcDbEntity
  8
2
  6
CONTINUOUS
370
25
 62
7
100
AcDbLine
 10
-12.169512181075
 20
15.02743909462496
 30
0.0
 11
-11.74573172838749
 21
14.60365864193745
 31
0.0
  0
LINE
  5
AF3
330
1F
100
AcDbEntity
  8
2
  6
CONTINUOUS
370
25
 62
7
100
AcDbLine
 10
-12.09880150295635
 20
15.38099248521823
 30
0.0
 11
-11.85179774556547
 21
15.13398872782735
 31
0.0
  0
LINE
  5
AF4
330
1F
100
AcDbEntity
  8
2
  6
CONTINUOUS
370
25
 62
7
100
AcDbLine
 10
-12.0280908248377
 20
15.73454587581151
 30
0.0
 11
-11.95786376274345
 21
15.66431881371726
 31
0.0
  0
TEXT
  5
AF5
330
1F
100
AcDbEntity
  8
2
  6
CONTINUOUS
370
25
 62
7
100
AcDbText
 10
-13.5
 20
-6.416666666666667
 30
0.0
 40
3.5
  1
31.75
 50
90.0
 72
     1
 11
-13.5
 21
0.0
 31
0.0
100
AcDbText
  0
LINE
  5
AF6
330
1F
100
AcDbEntity
  8
CUT
  6
CONTINUOUS
370
25
 62
1
100
AcDbLine
 10
49.76568542494924
 20
51.03431457505076
 30
0.0
 11
45.22584053334073
 21
55.57415946665927
 31
0.0
  0
ARC
  5
AF7
330
1F
100
AcDbEntity
  8
CUT
  6
CONTINUOUS
370
25
 62
1
100
AcDbCircle
 10
44.66015510835007
 20
55.00847404161003
 30
0.0
 40
0.7999999999999984
100
AcDbArc
 50
45.00000000296651
 51
89.99999999703319
  0
LINE
  5
AF8
330
1F
100
AcDbEntity
  8
CUT
  6
CONTINUOUS
370
25
 62
1
100
AcDbLine
 10
44.66015510839149
 20
55.80847404171003
 30
0.0
 11
38.23984489160851
 21
55.80847404171003
 31
0.0
  0
ARC
  5
AF9
330
1F
100
AcDbEntity
  8
CUT
  6
CONTINUOUS
370
25
 62
1
100
AcDbCircle
 10
38.23984489164994
 20
55.00847404161003
 30
0.0
 40
0.8000000000000043
100
AcDbArc
 50
90.0000000029663
 51
134.9999999970331
  0
LINE
  5
AFA
330
1F
100
AcDbEntity
  8
CUT
  6
CONTINUOUS
370
25
 62
1
100
AcDbLine
 10
37.67415946665928
 20
55.57415946665927
 30
0.0
 11
33.13431457505077
 21
51.03431457505076
 31
0.0
  0
ARC
  5
AFB
330
1F
100
AcDbEntity
  8
CUT
  6
CONTINUOUS
370
25
 62
1
100
AcDbCircle
 10
33.7000000001
 20
50.4686291500601
 30
0.0
 40
0.8000000000000034
100
AcDbArc
 50
135.0000000029662
 51
180.0
  0
LINE
  5
AFC
330
1F
100
AcDbEntity
  8
CUT
  6
CONTINUOUS
370
25
 62
1
100
AcDbLine
 10
32.90000000000001
 20
50.46862915010152
 30
0.0
 11
32.90000000000001
 21
44.04831893331855
 31
0.0
  0
ARC
  5
AFD
330
1F
100
AcDbEntity
  8
CUT
  6
CONTINUOUS
370
25
 62
1
100
AcDbCircle
 10
33.7000000001
 20
44.04831893335997
 30
0.0
 40
0.7999999999999972
100
AcDbArc
 50
180.0
 51
224.9999999970331
  0
LINE
  5
AFE
330
1F
100
AcDbEntity
  8
CUT
  6
CONTINUOUS
370
25
 62
1
100
AcDbLine
 10
33.13431457505077
 20
43.4826335083693
 30
0.0
 11
37.67415946665928
 21
38.94278861676079
 31
0.0
  0
ARC
  5
AFF
330
1F
100
AcDbEntity
  8
CUT
  6
CONTINUOUS
370
25
 62
1
100
AcDbCircle
 10
38.23984489164994
 20
39.50847404181003
 30
0.0
 40
0.8000000000000034
100
AcDbArc
 50
225.0000000029661
 51
269.9999999970332
  0
LINE
  5
B00
330
1F
100
AcDbEntity
  8
CUT
  6
CONTINUOUS
370
25
 62
1
100
AcDbLine
 10
38.23984489160852
 20
38.70847404171003
 30
0.0
 11
44.66015510839149
 21
38.70847404171003
 31
0.0
  0
ARC
  5
B01
330
1F
100
AcDbEntity
  8
CUT
  6
CONTINUOUS
370
25
 62
1
100
AcDbCircle
 10
44.66015510835007
 20
39.50847404181003
 30
0.0
 40
0.7999999999999972
100
AcDbArc
 50
270.0000000029668
 51
314.9999999970335
  0
LINE
  5
B02
330
1F
100
AcDbEntity
  8
CUT
  6
CONTINUOUS
370
25
 62
1
100
AcDbLine
 10
45.22584053334073
 20
38.94278861676079
 30
0.0
 11
49.76568542494924
 21
43.4826335083693
 31
0.0
  0
ARC
  5
B03
330
1F
100
AcDbEntity
  8
CUT
  6
CONTINUOUS
370
25
 62
1
100
AcDbCircle
 10
49.1999999999
 20
44.04831893335997
 30
0.0
 40
0.7999999999999984
100
AcDbArc
 50
315.0000000029665
 51
0.0
  0
LINE
  5
B04
330
1F
100
AcDbEntity
  8
CUT
  6
CONTINUOUS
370
25
 62
1
100
AcDbLine
 10
50.0
 20
44.04831893331855
 30
0.0
 11
50.00000000000001
 21
50.46862915010151
 31
0.0
  0
ARC
  5
B05
330
1F
100
AcDbEntity
  8
CUT
  6
CONTINUOUS
370
25
 62
1
100
AcDbCircle
 10
49.1999999999
 20
50.4686291500601
 30
0.0
 40
0.8000000000000043
100
AcDbArc
 50
0.0
 51
44.9999999970335
  0
LINE
  5
B06
330
1F
100
AcDbEntity
  8
NOCUT
  6
CONTINUOUS
370
25
 62
7
100
AcDbLine
 10
0.0
 20
0.0
 30
0.0
 11
31.85066666666667
 21
0.0
 31
0.0
  0
LINE
  5
B07
330
1F
100
AcDbEntity
  8
NOCUT
  6
CONTINUOUS
370
25
 62
7
100
AcDbLine
 10
31.85066666666667
 20
0.0
 30
0.0
 11
31.85066666666667
 21
20.32
 31
0.0
  0
LINE
  5
B08
330
1F
100
AcDbEntity
  8
NOCUT
  6
CONTINUOUS
370
25
 62
7
100
AcDbLine
 10
31.85066666666667
 20
20.32
 30
0.0
 11
47.776
 21
44.10207294903616
 31
0.0
  0
LINE
  5
B09
330
1F
100
AcDbEntity
  8
NOCUT
  6
CONTINUOUS
370
25
 62
7
100
AcDbLine
 10
47.776
 20
44.10207294903616
 30
0.0
 11
47.776
 21
50.443731765
 31
0.0
  0
LINE
  5
B0A
330
1F
100
AcDbEntity
  8
NOCUT
  6
CONTINUOUS
370
25
 62
7
100
AcDbLine
 10
47.776
 20
50.443731765
 30
0.0
 11
43.52325772500001
 21
54.69647404
 31
0.0
  0
LINE
  5
B0B
330
1F
100
AcDbEntity
  8
NOCUT
  6
CONTINUOUS
370
25
 62
7
100
AcDbLine
 10
43.52325772500001
 20
54.69647404
 30
0.0
 11
26.42325772500001
 21
54.69647404
 31
0.0
  0
LINE
  5
B0C
330
1F
100
AcDbEntity
  8
NOCUT
  6
CONTINUOUS
370
25
 62
7
100
AcDbLine
 10
26.42325772500001
 20
54.69647404
 30
0.0
 11
15.0
 21
35.0
 31
0.0
  0
LINE
  5
B0D
330
1F
100
AcDbEntity
  8
NOCUT
  6
CONTINUOUS
370
25
 62
7
100
AcDbLine
 10
15.0
 20
35.0
 30
0.0
 11
0.0
 21
35.0
 31
0.0
  0
LINE
  5
B0E
330
1F
100
AcDbEntity
  8
NOCUT
  6
CONTINUOUS
370
25
 62
7
100
AcDbLine
 10
0.0
 20
35.0
 30
0.0
 11
0.0
 21
0.0
 31
0.0
  0
LINE
  5
B0F
330
1F
100
AcDbEntity
  8
SK3
  6
DASH
370
35
 62
1
100
AcDbLine
 10
32.32912162267704
 20
21.0345
 30
0.0
 11
32.32912162267704
 21
-21.0345
 31
0.0
  0
LINE
  5
B10
330
1F
100
AcDbEntity
  8
SK3
  6
DASH
370
35
 62
1
100
AcDbLine
 10
32.32912162267704
 20
21.0345
 30
0.0
 11
47.776
 21
44.10207294903616
 31
0.0
  0
LINE
  5
B11
330
1F
100
AcDbEntity
  8
SK3
  6
DASH
370
35
 62
1
100
AcDbLine
 10
32.32912162267704
 20
-21.0345
 30
0.0
 11
47.776
 21
-44.10207294903616
 31
0.0
  0
LINE
  5
B12
330
1F
100
AcDbEntity
  8
SK3
  6
DASH
370
35
 62
1
100
AcDbLine
 10
47.776
 20
44.10207294903616
 30
0.0
 11
47.776
 21
-44.10207294903616
 31
0.0
  0
LINE
  5
B13
330
1F
100
AcDbEntity
  8
SK3
  6
DASH
370
35
 62
1
100
AcDbLine
 10
47.776
 20
44.10207294903616
 30
0.0
 11
47.776
 21
50.443731765
 31
0.0
  0
LINE
  5
B14
330
1F
100
AcDbEntity
  8
SK3
  6
DASH
370
35
 62
1
100
AcDbLine
 10
47.776
 20
-44.10207294903616
 30
0.0
 11
47.776
 21
-50.443731765
 31
0.0
  0
LINE
  5
B15
330
1F
100
AcDbEntity
  8
2
  6
CONTINUOUS
370
25
 62
7
100
AcDbLine
 10
50.0
 20
-50.8
 30
0.0
 11
73.0
 21
-50.8
 31
0.0
  0
LINE
  5
B16
330
1F
100
AcDbEntity
  8
2
  6
CONTINUOUS
370
25
 62
7
100
AcDbLine
 10
73.0
 20
50.8
 30
0.0
 11
50.0
 21
50.8
 31
0.0
  0
LINE
  5
B17
330
1F
100
AcDbEntity
  8
2
  6
CONTINUOUS
370
25
 62
7
100
AcDbLine
 10
72.0
 20
-50.8
 30
0.0
 11
72.0
 21
50.8
 31
0.0
  0
LINE
  5
B18
330
1F
100
AcDbEntity
  8
2
  6
CONTINUOUS
370
25
 62
7
100
AcDbLine
 10
72.0
 20
-50.8
 30
0.0
 11
71.0
 21
-45.8
 31
0.0
  0
LINE
  5
B19
330
1F
100
AcDbEntity
  8
2
  6
CONTINUOUS
370
25
 62
7
100
AcDbLine
 10
71.0
 20
-45.8
 30
0.0
 11
73.0
 21
-45.8
 31
0.0
  0
LINE
  5
B1A
330
1F
100
AcDbEntity
  8
2
  6
CONTINUOUS
370
25
 62
7
100
AcDbLine
 10
73.0
 20
-45.8
 30
0.0
 11
72.0
 21
-50.8
 31
0.0
  0
LINE
  5
B1B
330
1F
100
AcDbEntity
  8
2
  6
CONTINUOUS
370
25
 62
7
100
AcDbLine
 10
71.9577769974223
 20
-50.58888498711148
 30
0.0
 11
72.06333450386656
 21
-50.48332748066723
 31
0.0
  0
LINE
  5
B1C
330
1F
100
AcDbEntity
  8
2
  6
CONTINUOUS
370
25
 62
7
100
AcDbLine
 10
71.88706631930364
 20
-50.23533159651822
 30
0.0
 11
72.16940052104454
 21
-49.95299739477733
 31
0.0
  0
LINE
  5
B1D
330
1F
100
AcDbEntity
  8
2
  6
CONTINUOUS
370
25
 62
7
100
AcDbLine
 10
71.81635564118498
 20
-49.88177820592495
 30
0.0
 11
72.27546653822252
 21
-49.42266730888741
 31
0.0
  0
LINE
  5
B1E
330
1F
100
AcDbEntity
  8
2
  6
CONTINUOUS
370
25
 62
7
100
AcDbLine
 10
71.74564496306634
 20
-49.52822481533165
 30
0.0
 11
72.3815325554005
 21
-48.8923372229975
 31
0.0
  0
LINE
  5
B1F
330
1F
100
AcDbEntity
  8
2
  6
CONTINUOUS
370
25
 62
7
100
AcDbLine
 10
71.67493428494767
 20
-49.17467142473841
 30
0.0
 11
72.48759857257849
 21
-48.36200713710758
 31
0.0
  0
LINE
  5
B20
330
1F
100
AcDbEntity
  8
2
  6
CONTINUOUS
370
25
 62
7
100
AcDbLine
 10
71.60422360682902
 20
-48.82111803414513
 30
0.0
 11
72.59366458975646
 21
-47.8316770512177
 31
0.0
  0
LINE
  5
B21
330
1F
100
AcDbEntity
  8
2
  6
CONTINUOUS
370
25
 62
7
100
AcDbLine
 10
71.53351292871037
 20
-48.46756464355185
 30
0.0
 11
72.69973060693445
 21
-47.30134696532777
 31
0.0
  0
LINE
  5
B22
330
1F
100
AcDbEntity
  8
2
  6
CONTINUOUS
370
25
 62
7
100
AcDbLine
 10
71.46280225059171
 20
-48.11401125295858
 30
0.0
 11
72.80579662411243
 21
-46.77101687943785
 31
0.0
  0
LINE
  5
B23
330
1F
100
AcDbEntity
  8
2
  6
CONTINUOUS
370
25
 62
7
100
AcDbLine
 10
71.39209157247306
 20
-47.7604578623653
 30
0.0
 11
72.91186264129041
 21
-46.24068679354795
 31
0.0
  0
LINE
  5
B24
330
1F
100
AcDbEntity
  8
2
  6
CONTINUOUS
370
25
 62
7
100
AcDbLine
 10
71.3213808943544
 20
-47.40690447177204
 30
0.0
 11
72.92828536612645
 21
-45.8
 31
0.0
  0
LINE
  5
B25
330
1F
100
AcDbEntity
  8
2
  6
CONTINUOUS
370
25
 62
7
100
AcDbLine
 10
71.25067021623575
 20
-47.05335108117876
 30
0.0
 11
72.50402129741451
 21
-45.8
 31
0.0
  0
LINE
  5
B26
330
1F
100
AcDbEntity
  8
2
  6
CONTINUOUS
370
25
 62
7
100
AcDbLine
 10
71.17995953811709
 20
-46.69979769058548
 30
0.0
 11
72.07975722870258
 21
-45.8
 31
0.0
  0
LINE
  5
B27
330
1F
100
AcDbEntity
  8
2
  6
CONTINUOUS
370
25
 62
7
100
AcDbLine
 10
71.10924885999844
 20
-46.34624429999221
 30
0.0
 11
71.65549315999066
 21
-45.8
 31
0.0
  0
LINE
  5
B28
330
1F
100
AcDbEntity
  8
2
  6
CONTINUOUS
370
25
 62
7
100
AcDbLine
 10
71.03853818187979
 20
-45.99269090939895
 30
0.0
 11
71.23122909127873
 21
-45.8
 31
0.0
  0
LINE
  5
B29
330
1F
100
AcDbEntity
  8
2
  6
CONTINUOUS
370
25
 62
7
100
AcDbLine
 10
71.99669914110073
 20
-50.78349570550369
 30
0.0
 11
72.00220057259952
 21
-50.78899713700248
 31
0.0
  0
LINE
  5
B2A
330
1F
100
AcDbEntity
  8
2
  6
CONTINUOUS
370
25
 62
7
100
AcDbLine
 10
71.89063312392275
 20
-50.25316561961378
 30
0.0
 11
72.07291125071816
 21
-50.43544374640919
 31
0.0
  0
LINE
  5
B2B
330
1F
100
AcDbEntity
  8
2
  6
CONTINUOUS
370
25
 62
7
100
AcDbLine
 10
71.78456710674477
 20
-49.72283553372387
 30
0.0
 11
72.14362192883682
 21
-50.08189035581592
 31
0.0
  0
LINE
  5
B2C
330
1F
100
AcDbEntity
  8
2
  6
CONTINUOUS
370
25
 62
7
100
AcDbLine
 10
71.6785010895668
 20
-49.19250544783397
 30
0.0
 11
72.21433260695548
 21
-49.72833696522265
 31
0.0
  0
LINE
  5
B2D
330
1F
100
AcDbEntity
  8
2
  6
CONTINUOUS
370
25
 62
7
100
AcDbLine
 10
71.57243507238881
 20
-48.66217536194406
 30
0.0
 11
72.28504328507412
 21
-49.37478357462937
 31
0.0
  0
LINE
  5
B2E
330
1F
100
AcDbEntity
  8
2
  6
CONTINUOUS
370
25
 62
7
100
AcDbLine
 10
71.46636905521083
 20
-48.13184527605415
 30
0.0
 11
72.35575396319278
 21
-49.0212301840361
 31
0.0
  0
LINE
  5
B2F
330
1F
100
AcDbEntity
  8
2
  6
CONTINUOUS
370
25
 62
7
100
AcDbLine
 10
71.36030303803284
 20
-47.60151519016423
 30
0.0
 11
72.42646464131144
 21
-48.66767679344283
 31
0.0
  0
LINE
  5
B30
330
1F
100
AcDbEntity
  8
2
  6
CONTINUOUS
370
25
 62
7
100
AcDbLine
 10
71.25423702085486
 20
-47.07118510427432
 30
0.0
 11
72.4971753194301
 21
-48.31412340284956
 31
0.0
  0
LINE
  5
B31
330
1F
100
AcDbEntity
  8
2
  6
CONTINUOUS
370
25
 62
7
100
AcDbLine
 10
71.14817100367688
 20
-46.54085501838441
 30
0.0
 11
72.56788599754876
 21
-47.96057001225629
 31
0.0
  0
LINE
  5
B32
330
1F
100
AcDbEntity
  8
2
  6
CONTINUOUS
370
25
 62
7
100
AcDbLine
 10
71.0421049864989
 20
-46.0105249324945
 30
0.0
 11
72.6385966756674
 21
-47.60701662166301
 31
0.0
  0
LINE
  5
B33
330
1F
100
AcDbEntity
  8
2
  6
CONTINUOUS
370
25
 62
7
100
AcDbLine
 10
71.25584412271633
 20
-45.8
 30
0.0
 11
72.70930735378606
 21
-47.25346323106974
 31
0.0
  0
LINE
  5
B34
330
1F
100
AcDbEntity
  8
2
  6
CONTINUOUS
370
25
 62
7
100
AcDbLine
 10
71.68010819142825
 20
-45.8
 30
0.0
 11
72.78001803190472
 21
-46.89990984047647
 31
0.0
  0
LINE
  5
B35
330
1F
100
AcDbEntity
  8
2
  6
CONTINUOUS
370
25
 62
7
100
AcDbLine
 10
72.10437226014017
 20
-45.8
 30
0.0
 11
72.85072871002336
 21
-46.5463564498832
 31
0.0
  0
LINE
  5
B36
330
1F
100
AcDbEntity
  8
2
  6
CONTINUOUS
370
25
 62
7
100
AcDbLine
 10
72.52863632885209
 20
-45.8
 30
0.0
 11
72.92143938814202
 21
-46.19280305928993
 31
0.0
  0
LINE
  5
B37
330
1F
100
AcDbEntity
  8
2
  6
CONTINUOUS
370
25
 62
7
100
AcDbLine
 10
72.95290039756401
 20
-45.79999999999999
 30
0.0
 11
72.99215006626068
 21
-45.83924966869666
 31
0.0
  0
LINE
  5
B38
330
1F
100
AcDbEntity
  8
2
  6
CONTINUOUS
370
25
 62
7
100
AcDbLine
 10
72.0
 20
50.8
 30
0.0
 11
73.0
 21
45.8
 31
0.0
  0
LINE
  5
B39
330
1F
100
AcDbEntity
  8
2
  6
CONTINUOUS
370
25
 62
7
100
AcDbLine
 10
73.0
 20
45.8
 30
0.0
 11
71.0
 21
45.8
 31
0.0
  0
LINE
  5
B3A
330
1F
100
AcDbEntity
  8
2
  6
CONTINUOUS
370
25
 62
7
100
AcDbLine
 10
71.0
 20
45.8
 30
0.0
 11
72.0
 21
50.8
 31
0.0
  0
LINE
  5
B3B
330
1F
100
AcDbEntity
  8
2
  6
CONTINUOUS
370
25
 62
7
100
AcDbLine
 10
72.72739778827685
 20
45.8
 30
0.0
 11
72.95456629804615
 21
46.0271685097693
 31
0.0
  0
LINE
  5
B3C
330
1F
100
AcDbEntity
  8
2
  6
CONTINUOUS
370
25
 62
7
100
AcDbLine
 10
72.30313371956493
 20
45.8
 30
0.0
 11
72.88385561992749
 21
46.38072190036257
 31
0.0
  0
LINE
  5
B3D
330
1F
100
AcDbEntity
  8
2
  6
CONTINUOUS
370
25
 62
7
100
AcDbLine
 10
71.87886965085299
 20
45.8
 30
0.0
 11
72.81314494180883
 21
46.73427529095584
 31
0.0
  0
LINE
  5
B3E
330
1F
100
AcDbEntity
  8
2
  6
CONTINUOUS
370
25
 62
7
100
AcDbLine
 10
71.45460558214106
 20
45.79999999999999
 30
0.0
 11
72.74243426369019
 21
47.08782868154912
 31
0.0
  0
LINE
  5
B3F
330
1F
100
AcDbEntity
  8
2
  6
CONTINUOUS
370
25
 62
7
100
AcDbLine
 10
71.03034151342914
 20
45.8
 30
0.0
 11
72.67172358557153
 21
47.44138207214239
 31
0.0
  0
LINE
  5
B40
330
1F
100
AcDbEntity
  8
2
  6
CONTINUOUS
370
25
 62
7
100
AcDbLine
 10
71.09848063882069
 20
46.29240319410348
 30
0.0
 11
72.60101290745287
 21
47.79493546273566
 31
0.0
  0
LINE
  5
B41
330
1F
100
AcDbEntity
  8
2
  6
CONTINUOUS
370
25
 62
7
100
AcDbLine
 10
71.20454665599867
 20
46.82273327999339
 30
0.0
 11
72.53030222933423
 21
48.14848885332894
 31
0.0
  0
LINE
  5
B42
330
1F
100
AcDbEntity
  8
2
  6
CONTINUOUS
370
25
 62
7
100
AcDbLine
 10
71.31061267317666
 20
47.35306336588331
 30
0.0
 11
72.45959155121555
 21
48.5020422439222
 31
0.0
  0
LINE
  5
B43
330
1F
100
AcDbEntity
  8
2
  6
CONTINUOUS
370
25
 62
7
100
AcDbLine
 10
71.41667869035464
 20
47.88339345177322
 30
0.0
 11
72.38888087309691
 21
48.85559563451548
 31
0.0
  0
LINE
  5
B44
330
1F
100
AcDbEntity
  8
2
  6
CONTINUOUS
370
25
 62
7
100
AcDbLine
 10
71.52274470753262
 20
48.41372353766312
 30
0.0
 11
72.31817019497825
 21
49.20914902510875
 31
0.0
  0
LINE
  5
B45
330
1F
100
AcDbEntity
  8
2
  6
CONTINUOUS
370
25
 62
7
100
AcDbLine
 10
71.6288107247106
 20
48.94405362355303
 30
0.0
 11
72.24745951685959
 21
49.56270241570202
 31
0.0
  0
LINE
  5
B46
330
1F
100
AcDbEntity
  8
2
  6
CONTINUOUS
370
25
 62
7
100
AcDbLine
 10
71.73487674188858
 20
49.47438370944294
 30
0.0
 11
72.17674883874095
 21
49.9162558062953
 31
0.0
  0
LINE
  5
B47
330
1F
100
AcDbEntity
  8
2
  6
CONTINUOUS
370
25
 62
7
100
AcDbLine
 10
71.84094275906656
 20
50.00471379533285
 30
0.0
 11
72.10603816062229
 21
50.26980919688857
 31
0.0
  0
LINE
  5
B48
330
1F
100
AcDbEntity
  8
2
  6
CONTINUOUS
370
25
 62
7
100
AcDbLine
 10
71.94700877624454
 20
50.53504388122276
 30
0.0
 11
72.03532748250363
 21
50.62336258748184
 31
0.0
  0
LINE
  5
B49
330
1F
100
AcDbEntity
  8
2
  6
CONTINUOUS
370
25
 62
7
100
AcDbLine
 10
71.04948049408206
 20
46.04740247041035
 30
0.0
 11
71.29688296449241
 21
45.8
 31
0.0
  0
LINE
  5
B4A
330
1F
100
AcDbEntity
  8
2
  6
CONTINUOUS
370
25
 62
7
100
AcDbLine
 10
71.12019117220072
 20
46.40095586100362
 30
0.0
 11
71.72114703320435
 21
45.8
 31
0.0
  0
LINE
  5
B4B
330
1F
100
AcDbEntity
  8
2
  6
CONTINUOUS
370
25
 62
7
100
AcDbLine
 10
71.19090185031938
 20
46.7545092515969
 30
0.0
 11
72.14541110191628
 21
45.8
 31
0.0
  0
LINE
  5
B4C
330
1F
100
AcDbEntity
  8
2
  6
CONTINUOUS
370
25
 62
7
100
AcDbLine
 10
71.26161252843804
 20
47.10806264219016
 30
0.0
 11
72.5696751706282
 21
45.8
 31
0.0
  0
LINE
  5
B4D
330
1F
100
AcDbEntity
  8
2
  6
CONTINUOUS
370
25
 62
7
100
AcDbLine
 10
71.33232320655668
 20
47.46161603278344
 30
0.0
 11
72.99393923934012
 21
45.8
 31
0.0
  0
LINE
  5
B4E
330
1F
100
AcDbEntity
  8
2
  6
CONTINUOUS
370
25
 62
7
100
AcDbLine
 10
71.40303388467534
 20
47.81516942337672
 30
0.0
 11
72.89544917298699
 21
46.32275413506507
 31
0.0
  0
LINE
  5
B4F
330
1F
100
AcDbEntity
  8
2
  6
CONTINUOUS
370
25
 62
7
100
AcDbLine
 10
71.473744562794
 20
48.16872281396999
 30
0.0
 11
72.789383155809
 21
46.85308422095498
 31
0.0
  0
LINE
  5
B50
330
1F
100
AcDbEntity
  8
2
  6
CONTINUOUS
370
25
 62
7
100
AcDbLine
 10
71.54445524091265
 20
48.52227620456325
 30
0.0
 11
72.68331713863103
 21
47.38341430684488
 31
0.0
  0
LINE
  5
B51
330
1F
100
AcDbEntity
  8
2
  6
CONTINUOUS
370
25
 62
7
100
AcDbLine
 10
71.6151659190313
 20
48.87582959515653
 30
0.0
 11
72.57725112145305
 21
47.91374439273478
 31
0.0
  0
LINE
  5
B52
330
1F
100
AcDbEntity
  8
2
  6
CONTINUOUS
370
25
 62
7
100
AcDbLine
 10
71.68587659714996
 20
49.22938298574981
 30
0.0
 11
72.47118510427507
 21
48.4440744786247
 31
0.0
  0
LINE
  5
B53
330
1F
100
AcDbEntity
  8
2
  6
CONTINUOUS
370
25
 62
7
100
AcDbLine
 10
71.75658727526861
 20
49.58293637634308
 30
0.0
 11
72.36511908709707
 21
48.97440456451463
 31
0.0
  0
LINE
  5
B54
330
1F
100
AcDbEntity
  8
2
  6
CONTINUOUS
370
25
 62
7
100
AcDbLine
 10
71.82729795338726
 20
49.93648976693636
 30
0.0
 11
72.2590530699191
 21
49.50473465040452
 31
0.0
  0
LINE
  5
B55
330
1F
100
AcDbEntity
  8
2
  6
CONTINUOUS
370
25
 62
7
100
AcDbLine
 10
71.89800863150593
 20
50.29004315752961
 30
0.0
 11
72.15298705274111
 21
50.03506473629443
 31
0.0
  0
LINE
  5
B56
330
1F
100
AcDbEntity
  8
2
  6
CONTINUOUS
370
25
 62
7
100
AcDbLine
 10
71.96871930962457
 20
50.6435965481229
 30
0.0
 11
72.04692103556313
 21
50.56539482218435
 31
0.0
  0
TEXT
  5
B57
330
1F
100
AcDbEntity
  8
2
  6
CONTINUOUS
370
25
 62
7
100
AcDbText
 10
70.5
 20
-3.266666666666667
 30
0.0
 40
3.5
  1
101.6
 50
90.0
 72
     1
 11
70.5
 21
2.275
 31
0.0
100
AcDbText
  0
CIRCLE
  5
B58
330
1F
100
AcDbEntity
  8
2
  6
CONTINUOUS
370
25
 62
7
100
AcDbCircle
 10
68.75
 20
-7.350000000000001
 30
0.0
 40
1.4
  0
LINE
  5
B59
330
1F
100
AcDbEntity
  8
2
  6
CONTINUOUS
370
25
 62
7
100
AcDbLine
 10
70.15
 20
-8.75
 30
0.0
 11
67.35
 21
-5.949999999999999
 31
0.0
  0
LINE
  5
B5A
330
1F
100
AcDbEntity
  8
2
  6
CONTINUOUS
370
25
 62
7
100
AcDbLine
 10
44.99152596
 20
-55.80847404
 30
0.0
 11
83.0
 21
-55.80847404
 31
0.0
  0
LINE
  5
B5B
330
1F
100
AcDbEntity
  8
2
  6
CONTINUOUS
370
25
 62
7
100
AcDbLine
 10
83.0
 20
55.81152596
 30
0.0
 11
44.99152596
 21
55.81152596
 31
0.0
  0
LINE
  5
B5C
330
1F
100
AcDbEntity
  8
2
  6
CONTINUOUS
370
25
 62
7
100
AcDbLine
 10
82.0
 20
-55.80847404
 30
0.0
 11
82.0
 21
55.81152596
 31
0.0
  0
LINE
  5
B5D
330
1F
100
AcDbEntity
  8
2
  6
CONTINUOUS
370
25
 62
7
100
AcDbLine
 10
82.0
 20
-55.80847404
 30
0.0
 11
81.0
 21
-50.80847404
 31
0.0
  0
LINE
  5
B5E
330
1F
100
AcDbEntity
  8
2
  6
CONTINUOUS
370
25
 62
7
100
AcDbLine
 10
81.0
 20
-50.80847404
 30
0.0
 11
83.0
 21
-50.80847404
 31
0.0
  0
LINE
  5
B5F
330
1F
100
AcDbEntity
  8
2
  6
CONTINUOUS
370
25
 62
7
100
AcDbLine
 10
83.0
 20
-50.80847404
 30
0.0
 11
82.0
 21
-55.80847404
 31
0.0
  0
LINE
  5
B60
330
1F
100
AcDbEntity
  8
2
  6
CONTINUOUS
370
25
 62
7
100
AcDbLine
 10
81.98431560326938
 20
-55.73005205634689
 30
0.0
 11
82.02352659509593
 21
-55.69084106452034
 31
0.0
  0
LINE
  5
B61
330
1F
100
AcDbEntity
  8
2
  6
CONTINUOUS
370
25
 62
7
100
AcDbLine
 10
81.91360492515072
 20
-55.37649866575363
 30
0.0
 11
82.12959261227392
 21
-55.16051097863043
 31
0.0
  0
LINE
  5
B62
330
1F
100
AcDbEntity
  8
2
  6
CONTINUOUS
370
25
 62
7
100
AcDbLine
 10
81.84289424703206
 20
-55.02294527516034
 30
0.0
 11
82.2356586294519
 21
-54.6301808927405
 31
0.0
  0
LINE
  5
B63
330
1F
100
AcDbEntity
  8
2
  6
CONTINUOUS
370
25
 62
7
100
AcDbLine
 10
81.77218356891342
 20
-54.66939188456706
 30
0.0
 11
82.34172464662988
 21
-54.09985080685061
 31
0.0
  0
LINE
  5
B64
330
1F
100
AcDbEntity
  8
2
  6
CONTINUOUS
370
25
 62
7
100
AcDbLine
 10
81.70147289079476
 20
-54.3158384939738
 30
0.0
 11
82.44779066380787
 21
-53.56952072096071
 31
0.0
  0
LINE
  5
B65
330
1F
100
AcDbEntity
  8
2
  6
CONTINUOUS
370
25
 62
7
100
AcDbLine
 10
81.6307622126761
 20
-53.96228510338054
 30
0.0
 11
82.55385668098585
 21
-53.03919063507081
 31
0.0
  0
LINE
  5
B66
330
1F
100
AcDbEntity
  8
2
  6
CONTINUOUS
370
25
 62
7
100
AcDbLine
 10
81.56005153455746
 20
-53.60873171278726
 30
0.0
 11
82.65992269816383
 21
-52.50886054918091
 31
0.0
  0
LINE
  5
B67
330
1F
100
AcDbEntity
  8
2
  6
CONTINUOUS
370
25
 62
7
100
AcDbLine
 10
81.4893408564388
 20
-53.25517832219397
 30
0.0
 11
82.7659887153418
 21
-51.97853046329098
 31
0.0
  0
LINE
  5
B68
330
1F
100
AcDbEntity
  8
2
  6
CONTINUOUS
370
25
 62
7
100
AcDbLine
 10
81.41863017832014
 20
-52.90162493160071
 30
0.0
 11
82.8720547325198
 21
-51.44820037740106
 31
0.0
  0
LINE
  5
B69
330
1F
100
AcDbEntity
  8
2
  6
CONTINUOUS
370
25
 62
7
100
AcDbLine
 10
81.3479195002015
 20
-52.54807154100743
 30
0.0
 11
82.97812074969777
 21
-50.91787029151118
 31
0.0
  0
LINE
  5
B6A
330
1F
100
AcDbEntity
  8
2
  6
CONTINUOUS
370
25
 62
7
100
AcDbLine
 10
81.27720882208283
 20
-52.19451815041415
 30
0.0
 11
82.663252932497
 21
-50.80847403999999
 31
0.0
  0
LINE
  5
B6B
330
1F
100
AcDbEntity
  8
2
  6
CONTINUOUS
370
25
 62
7
100
AcDbLine
 10
81.20649814396418
 20
-51.84096475982088
 30
0.0
 11
82.23898886378507
 21
-50.80847403999999
 31
0.0
  0
LINE
  5
B6C
330
1F
100
AcDbEntity
  8
2
  6
CONTINUOUS
370
25
 62
7
100
AcDbLine
 10
81.13578746584552
 20
-51.48741136922762
 30
0.0
 11
81.81472479507315
 21
-50.80847403999999
 31
0.0
  0
LINE
  5
B6D
330
1F
100
AcDbEntity
  8
2
  6
CONTINUOUS
370
25
 62
7
100
AcDbLine
 10
81.06507678772687
 20
-51.13385797863435
 30
0.0
 11
81.39046072636123
 21
-50.80847403999999
 31
0.0
  0
LINE
  5
B6E
330
1F
100
AcDbEntity
  8
2
  6
CONTINUOUS
370
25
 62
7
100
AcDbLine
 10
81.97178842496491
 20
-55.66741616482466
 30
0.0
 11
82.01880771669005
 21
-55.71443545654979
 31
0.0
  0
LINE
  5
B6F
330
1F
100
AcDbEntity
  8
2
  6
CONTINUOUS
370
25
 62
7
100
AcDbLine
 10
81.86572240778693
 20
-55.13708607893475
 30
0.0
 11
82.0895183948087
 21
-55.36088206595652
 31
0.0
  0
LINE
  5
B70
330
1F
100
AcDbEntity
  8
2
  6
CONTINUOUS
370
25
 62
7
100
AcDbLine
 10
81.75965639060895
 20
-54.60675599304484
 30
0.0
 11
82.16022907292736
 21
-55.00732867536325
 31
0.0
  0
LINE
  5
B71
330
1F
100
AcDbEntity
  8
2
  6
CONTINUOUS
370
25
 62
7
100
AcDbLine
 10
81.65359037343097
 20
-54.07642590715493
 30
0.0
 11
82.23093975104601
 21
-54.65377528476997
 31
0.0
  0
LINE
  5
B72
330
1F
100
AcDbEntity
  8
2
  6
CONTINUOUS
370
25
 62
7
100
AcDbLine
 10
81.54752435625299
 20
-53.54609582126503
 30
0.0
 11
82.30165042916467
 21
-54.3002218941767
 31
0.0
  0
LINE
  5
B73
330
1F
100
AcDbEntity
  8
2
  6
CONTINUOUS
370
25
 62
7
100
AcDbLine
 10
81.44145833907501
 20
-53.01576573537512
 30
0.0
 11
82.37236110728333
 21
-53.94666850358343
 31
0.0
  0
LINE
  5
B74
330
1F
100
AcDbEntity
  8
2
  6
CONTINUOUS
370
25
 62
7
100
AcDbLine
 10
81.33539232189703
 20
-52.48543564948521
 30
0.0
 11
82.44307178540197
 21
-53.59311511299015
 31
0.0
  0
LINE
  5
B75
330
1F
100
AcDbEntity
  8
2
  6
CONTINUOUS
370
25
 62
7
100
AcDbLine
 10
81.22932630471905
 20
-51.9551055635953
 30
0.0
 11
82.51378246352063
 21
-53.23956172239688
 31
0.0
  0
LINE
  5
B76
330
1F
100
AcDbEntity
  8
2
  6
CONTINUOUS
370
25
 62
7
100
AcDbLine
 10
81.12326028754107
 20
-51.42477547770541
 30
0.0
 11
82.58449314163929
 21
-52.88600833180362
 31
0.0
  0
LINE
  5
B77
330
1F
100
AcDbEntity
  8
2
  6
CONTINUOUS
370
25
 62
7
100
AcDbLine
 10
81.01719427036309
 20
-50.8944453918155
 30
0.0
 11
82.65520381975793
 21
-52.53245494121034
 31
0.0
  0
LINE
  5
B78
330
1F
100
AcDbEntity
  8
2
  6
CONTINUOUS
370
25
 62
7
100
AcDbLine
 10
81.35548698725951
 20
-50.80847403999999
 30
0.0
 11
82.72591449787659
 21
-52.17890155061707
 31
0.0
  0
LINE
  5
B79
330
1F
100
AcDbEntity
  8
2
  6
CONTINUOUS
370
25
 62
7
100
AcDbLine
 10
81.77975105597145
 20
-50.80847404
 30
0.0
 11
82.79662517599525
 21
-51.8253481600238
 31
0.0
  0
LINE
  5
B7A
330
1F
100
AcDbEntity
  8
2
  6
CONTINUOUS
370
25
 62
7
100
AcDbLine
 10
82.20401512468338
 20
-50.80847404000001
 30
0.0
 11
82.8673358541139
 21
-51.47179476943053
 31
0.0
  0
LINE
  5
B7B
330
1F
100
AcDbEntity
  8
2
  6
CONTINUOUS
370
25
 62
7
100
AcDbLine
 10
82.6282791933953
 20
-50.80847404
 30
0.0
 11
82.93804653223256
 21
-51.11824137883726
 31
0.0
  0
LINE
  5
B7C
330
1F
100
AcDbEntity
  8
2
  6
CONTINUOUS
370
25
 62
7
100
AcDbLine
 10
82.0
 20
55.81152596
 30
0.0
 11
83.0
 21
50.81152596
 31
0.0
  0
LINE
  5
B7D
330
1F
100
AcDbEntity
  8
2
  6
CONTINUOUS
370
25
 62
7
100
AcDbLine
 10
83.0
 20
50.81152596
 30
0.0
 11
81.0
 21
50.81152596
 31
0.0
  0
LINE
  5
B7E
330
1F
100
AcDbEntity
  8
2
  6
CONTINUOUS
370
25
 62
7
100
AcDbLine
 10
81.0
 20
50.81152596
 30
0.0
 11
82.0
 21
55.81152596
 31
0.0
  0
LINE
  5
B7F
330
1F
100
AcDbEntity
  8
2
  6
CONTINUOUS
370
25
 62
7
100
AcDbLine
 10
82.62470300373364
 20
50.81152596000001
 30
0.0
 11
82.93745050062228
 21
51.12427345688864
 31
0.0
  0
LINE
  5
B80
330
1F
100
AcDbEntity
  8
2
  6
CONTINUOUS
370
25
 62
7
100
AcDbLine
 10
82.2004389350217
 20
50.81152596
 30
0.0
 11
82.86673982250362
 21
51.47782684748191
 31
0.0
  0
LINE
  5
B81
330
1F
100
AcDbEntity
  8
2
  6
CONTINUOUS
370
25
 62
7
100
AcDbLine
 10
81.77617486630976
 20
50.81152596
 30
0.0
 11
82.79602914438496
 21
51.83138023807518
 31
0.0
  0
LINE
  5
B82
330
1F
100
AcDbEntity
  8
2
  6
CONTINUOUS
370
25
 62
7
100
AcDbLine
 10
81.35191079759784
 20
50.81152596
 30
0.0
 11
82.72531846626632
 21
52.18493362866847
 31
0.0
  0
LINE
  5
B83
330
1F
100
AcDbEntity
  8
2
  6
CONTINUOUS
370
25
 62
7
100
AcDbLine
 10
81.01808831777852
 20
50.90196754889261
 30
0.0
 11
82.65460778814766
 21
52.53848701926174
 31
0.0
  0
LINE
  5
B84
330
1F
100
AcDbEntity
  8
2
  6
CONTINUOUS
370
25
 62
7
100
AcDbLine
 10
81.12415433495651
 20
51.43229763478254
 30
0.0
 11
82.583897110029
 21
52.89204040985501
 31
0.0
  0
LINE
  5
B85
330
1F
100
AcDbEntity
  8
2
  6
CONTINUOUS
370
25
 62
7
100
AcDbLine
 10
81.2302203521345
 20
51.96262772067244
 30
0.0
 11
82.51318643191034
 21
53.24559380044828
 31
0.0
  0
LINE
  5
B86
330
1F
100
AcDbEntity
  8
2
  6
CONTINUOUS
370
25
 62
7
100
AcDbLine
 10
81.33628636931248
 20
52.49295780656235
 30
0.0
 11
82.44247575379168
 21
53.59914719104155
 31
0.0
  0
LINE
  5
B87
330
1F
100
AcDbEntity
  8
2
  6
CONTINUOUS
370
25
 62
7
100
AcDbLine
 10
81.44235238649046
 20
53.02328789245226
 30
0.0
 11
82.37176507567304
 21
53.95270058163483
 31
0.0
  0
LINE
  5
B88
330
1F
100
AcDbEntity
  8
2
  6
CONTINUOUS
370
25
 62
7
100
AcDbLine
 10
81.54841840366844
 20
53.55361797834217
 30
0.0
 11
82.30105439755438
 21
54.3062539722281
 31
0.0
  0
LINE
  5
B89
330
1F
100
AcDbEntity
  8
2
  6
CONTINUOUS
370
25
 62
7
100
AcDbLine
 10
81.65448442084642
 20
54.08394806423208
 30
0.0
 11
82.23034371943572
 21
54.65980736282138
 31
0.0
  0
LINE
  5
B8A
330
1F
100
AcDbEntity
  8
2
  6
CONTINUOUS
370
25
 62
7
100
AcDbLine
 10
81.7605504380244
 20
54.61427815012198
 30
0.0
 11
82.15963304131708
 21
55.01336075341467
 31
0.0
  0
LINE
  5
B8B
330
1F
100
AcDbEntity
  8
2
  6
CONTINUOUS
370
25
 62
7
100
AcDbLine
 10
81.86661645520239
 20
55.1446082360119
 30
0.0
 11
82.0889223631984
 21
55.36691414400792
 31
0.0
  0
LINE
  5
B8C
330
1F
100
AcDbEntity
  8
2
  6
CONTINUOUS
370
25
 62
7
100
AcDbLine
 10
81.97268247238037
 20
55.67493832190181
 30
0.0
 11
82.01821168507976
 21
55.72046753460121
 31
0.0
  0
LINE
  5
B8D
330
1F
100
AcDbEntity
  8
2
  6
CONTINUOUS
370
25
 62
7
100
AcDbLine
 10
81.02243323490165
 20
50.92369213450827
 30
0.0
 11
81.13459940940992
 21
50.81152596000001
 31
0.0
  0
LINE
  5
B8E
330
1F
100
AcDbEntity
  8
2
  6
CONTINUOUS
370
25
 62
7
100
AcDbLine
 10
81.09314391302031
 20
51.27724552510153
 30
0.0
 11
81.55886347812184
 21
50.81152596000001
 31
0.0
  0
LINE
  5
B8F
330
1F
100
AcDbEntity
  8
2
  6
CONTINUOUS
370
25
 62
7
100
AcDbLine
 10
81.16385459113897
 20
51.6307989156948
 30
0.0
 11
81.98312754683376
 21
50.81152596000001
 31
0.0
  0
LINE
  5
B90
330
1F
100
AcDbEntity
  8
2
  6
CONTINUOUS
370
25
 62
7
100
AcDbLine
 10
81.23456526925762
 20
51.98435230628807
 30
0.0
 11
82.40739161554568
 21
50.81152596000001
 31
0.0
  0
LINE
  5
B91
330
1F
100
AcDbEntity
  8
2
  6
CONTINUOUS
370
25
 62
7
100
AcDbLine
 10
81.30527594737627
 20
52.33790569688136
 30
0.0
 11
82.83165568425763
 21
50.81152596000001
 31
0.0
  0
LINE
  5
B92
330
1F
100
AcDbEntity
  8
2
  6
CONTINUOUS
370
25
 62
7
100
AcDbLine
 10
81.37598662549493
 20
52.69145908747463
 30
0.0
 11
82.93602006175759
 21
51.13142565121197
 31
0.0
  0
LINE
  5
B93
330
1F
100
AcDbEntity
  8
2
  6
CONTINUOUS
370
25
 62
7
100
AcDbLine
 10
81.44669730361358
 20
53.0450124780679
 30
0.0
 11
82.82995404457962
 21
51.66175573710186
 31
0.0
  0
LINE
  5
B94
330
1F
100
AcDbEntity
  8
2
  6
CONTINUOUS
370
25
 62
7
100
AcDbLine
 10
81.51740798173225
 20
53.39856586866118
 30
0.0
 11
82.72388802740163
 21
52.1920858229918
 31
0.0
  0
LINE
  5
B95
330
1F
100
AcDbEntity
  8
2
  6
CONTINUOUS
370
25
 62
7
100
AcDbLine
 10
81.58811865985089
 20
53.75211925925446
 30
0.0
 11
82.61782201022365
 21
52.7224159088817
 31
0.0
  0
LINE
  5
B96
330
1F
100
AcDbEntity
  8
2
  6
CONTINUOUS
370
25
 62
7
100
AcDbLine
 10
81.65882933796955
 20
54.10567264984772
 30
0.0
 11
82.51175599304567
 21
53.2527459947716
 31
0.0
  0
LINE
  5
B97
330
1F
100
AcDbEntity
  8
2
  6
CONTINUOUS
370
25
 62
7
100
AcDbLine
 10
81.72954001608821
 20
54.45922604044098
 30
0.0
 11
82.40568997586769
 21
53.7830760806615
 31
0.0
  0
LINE
  5
B98
330
1F
100
AcDbEntity
  8
2
  6
CONTINUOUS
370
25
 62
7
100
AcDbLine
 10
81.80025069420685
 20
54.81277943103426
 30
0.0
 11
82.29962395868971
 21
54.3134061665514
 31
0.0
  0
LINE
  5
B99
330
1F
100
AcDbEntity
  8
2
  6
CONTINUOUS
370
25
 62
7
100
AcDbLine
 10
81.87096137232551
 20
55.16633282162752
 30
0.0
 11
82.19355794151173
 21
54.8437362524413
 31
0.0
  0
LINE
  5
B9A
330
1F
100
AcDbEntity
  8
2
  6
CONTINUOUS
370
25
 62
7
100
AcDbLine
 10
81.94167205044417
 20
55.51988621222078
 30
0.0
 11
82.08749192433375
 21
55.3740663383312
 31
0.0
  0
TEXT
  5
B9B
330
1F
100
AcDbEntity
  8
2
  6
CONTINUOUS
370
25
 62
7
100
AcDbText
 10
80.5
 20
-4.723474039999997
 30
0.0
 40
3.5
  1
111.62
 50
90.0
 72
     1
 11
80.5
 21
2.276525960000002
 31
0.0
100
AcDbText
  0
CIRCLE
  5
B9C
330
1F
100
AcDbEntity
  8
2
  6
CONTINUOUS
370
25
 62
7
100
AcDbCircle
 10
78.75
 20
-8.923474039999999
 30
0.0
 40
1.4
  0
LINE
  5
B9D
330
1F
100
AcDbEntity
  8
2
  6
CONTINUOUS
370
25
 62
7
100
AcDbLine
 10
80.15
 20
-10.32347404
 30
0.0
 11
77.35
 21
-7.523474039999998
 31
0.0
  0
LINE
  5
B9E
330
1F
100
AcDbEntity
  8
2
  6
CONTINUOUS
370
25
 62
7
100
AcDbLine
 10
0.0
 20
-35.0
 30
0.0
 11
-23.0
 21
-35.0
 31
0.0
  0
LINE
  5
B9F
330
1F
100
AcDbEntity
  8
2
  6
CONTINUOUS
370
25
 62
7
100
AcDbLine
 10
-23.0
 20
35.0
 30
0.0
 11
0.0000000000000036
 21
35.0
 31
0.0
  0
LINE
  5
BA0
330
1F
100
AcDbEntity
  8
2
  6
CONTINUOUS
370
25
 62
7
100
AcDbLine
 10
-22.0
 20
-35.0
 30
0.0
 11
-22.0
 21
35.0
 31
0.0
  0
LINE
  5
BA1
330
1F
100
AcDbEntity
  8
2
  6
CONTINUOUS
370
25
 62
7
100
AcDbLine
 10
-22.0
 20
-35.0
 30
0.0
 11
-23.0
 21
-30.0
 31
0.0
  0
LINE
  5
BA2
330
1F
100
AcDbEntity
  8
2
  6
CONTINUOUS
370
25
 62
7
100
AcDbLine
 10
-23.0
 20
-30.0
 30
0.0
 11
-21.0
 21
-30.0
 31
0.0
  0
LINE
  5
BA3
330
1F
100
AcDbEntity
  8
2
  6
CONTINUOUS
370
25
 62
7
100
AcDbLine
 10
-21.0
 20
-30.0
 30
0.0
 11
-22.0
 21
-35.0
 31
0.0
  0
LINE
  5
BA4
330
1F
100
AcDbEntity
  8
2
  6
CONTINUOUS
370
25
 62
7
100
AcDbLine
 10
-22.0281573698461
 20
-34.85921315076949
 30
0.0
 11
-21.95776394523085
 21
-34.78881972615424
 31
0.0
  0
LINE
  5
BA5
330
1F
100
AcDbEntity
  8
2
  6
CONTINUOUS
370
25
 62
7
100
AcDbLine
 10
-22.09886804796476
 20
-34.50565976017621
 30
0.0
 11
-21.85169792805287
 21
-34.25848964026433
 31
0.0
  0
LINE
  5
BA6
330
1F
100
AcDbEntity
  8
2
  6
CONTINUOUS
370
25
 62
7
100
AcDbLine
 10
-22.16957872608341
 20
-34.15210636958294
 30
0.0
 11
-21.74563191087489
 21
-33.72815955437441
 31
0.0
  0
LINE
  5
BA7
330
1F
100
AcDbEntity
  8
2
  6
CONTINUOUS
370
25
 62
7
100
AcDbLine
 10
-22.24028940420207
 20
-33.79855297898967
 30
0.0
 11
-21.6395658936969
 21
-33.1978294684845
 31
0.0
  0
LINE
  5
BA8
330
1F
100
AcDbEntity
  8
2
  6
CONTINUOUS
370
25
 62
7
100
AcDbLine
 10
-22.31100008232072
 20
-33.4449995883964
 30
0.0
 11
-21.53349987651892
 21
-32.6674993825946
 31
0.0
  0
LINE
  5
BA9
330
1F
100
AcDbEntity
  8
2
  6
CONTINUOUS
370
25
 62
7
100
AcDbLine
 10
-22.38171076043938
 20
-33.09144619780312
 30
0.0
 11
-21.42743385934094
 21
-32.13716929670468
 31
0.0
  0
LINE
  5
BAA
330
1F
100
AcDbEntity
  8
2
  6
CONTINUOUS
370
25
 62
7
100
AcDbLine
 10
-22.45242143855803
 20
-32.73789280720985
 30
0.0
 11
-21.32136784216296
 21
-31.60683921081478
 31
0.0
  0
LINE
  5
BAB
330
1F
100
AcDbEntity
  8
2
  6
CONTINUOUS
370
25
 62
7
100
AcDbLine
 10
-22.52313211667668
 20
-32.38433941661657
 30
0.0
 11
-21.21530182498498
 21
-31.07650912492487
 31
0.0
  0
LINE
  5
BAC
330
1F
100
AcDbEntity
  8
2
  6
CONTINUOUS
370
25
 62
7
100
AcDbLine
 10
-22.59384279479534
 20
-32.03078602602329
 30
0.0
 11
-21.10923580780699
 21
-30.54617903903496
 31
0.0
  0
LINE
  5
BAD
330
1F
100
AcDbEntity
  8
2
  6
CONTINUOUS
370
25
 62
7
100
AcDbLine
 10
-22.66455347291399
 20
-31.67723263543002
 30
0.0
 11
-21.00316979062901
 21
-30.01584895314505
 31
0.0
  0
LINE
  5
BAE
330
1F
100
AcDbEntity
  8
2
  6
CONTINUOUS
370
25
 62
7
100
AcDbLine
 10
-22.73526415103265
 20
-31.32367924483675
 30
0.0
 11
-21.41158490619589
 21
-30.0
 31
0.0
  0
LINE
  5
BAF
330
1F
100
AcDbEntity
  8
2
  6
CONTINUOUS
370
25
 62
7
100
AcDbLine
 10
-22.8059748291513
 20
-30.97012585424347
 30
0.0
 11
-21.83584897490782
 21
-30.0
 31
0.0
  0
LINE
  5
BB0
330
1F
100
AcDbEntity
  8
2
  6
CONTINUOUS
370
25
 62
7
100
AcDbLine
 10
-22.87668550726996
 20
-30.6165724636502
 30
0.0
 11
-22.26011304361975
 21
-30.0
 31
0.0
  0
LINE
  5
BB1
330
1F
100
AcDbEntity
  8
2
  6
CONTINUOUS
370
25
 62
7
100
AcDbLine
 10
-22.94739618538862
 20
-30.26301907305693
 30
0.0
 11
-22.68437711233168
 21
-30.0
 31
0.0
  0
LINE
  5
BB2
330
1F
100
AcDbEntity
  8
2
  6
CONTINUOUS
370
25
 62
7
100
AcDbLine
 10
-22.07310184127929
 20
-34.63449079360355
 30
0.0
 11
-21.95126543914714
 21
-34.7563271957357
 31
0.0
  0
LINE
  5
BB3
330
1F
100
AcDbEntity
  8
2
  6
CONTINUOUS
370
25
 62
7
100
AcDbLine
 10
-22.17916785845727
 20
-34.10416070771363
 30
0.0
 11
-21.88055476102848
 21
-34.40277380514242
 31
0.0
  0
LINE
  5
BB4
330
1F
100
AcDbEntity
  8
2
  6
CONTINUOUS
370
25
 62
7
100
AcDbLine
 10
-22.28523387563525
 20
-33.57383062182373
 30
0.0
 11
-21.80984408290983
 21
-34.04922041454915
 31
0.0
  0
LINE
  5
BB5
330
1F
100
AcDbEntity
  8
2
  6
CONTINUOUS
370
25
 62
7
100
AcDbLine
 10
-22.39129989281324
 20
-33.04350053593382
 30
0.0
 11
-21.73913340479117
 21
-33.69566702395588
 31
0.0
  0
LINE
  5
BB6
330
1F
100
AcDbEntity
  8
2
  6
CONTINUOUS
370
25
 62
7
100
AcDbLine
 10
-22.49736590999122
 20
-32.51317045004392
 30
0.0
 11
-21.66842272667252
 21
-33.3421136333626
 31
0.0
  0
LINE
  5
BB7
330
1F
100
AcDbEntity
  8
2
  6
CONTINUOUS
370
25
 62
7
100
AcDbLine
 10
-22.6034319271692
 20
-31.982840364154
 30
0.0
 11
-21.59771204855386
 21
-32.98856024276933
 31
0.0
  0
LINE
  5
BB8
330
1F
100
AcDbEntity
  8
2
  6
CONTINUOUS
370
25
 62
7
100
AcDbLine
 10
-22.70949794434718
 20
-31.45251027826409
 30
0.0
 11
-21.52700137043521
 21
-32.63500685217605
 31
0.0
  0
LINE
  5
BB9
330
1F
100
AcDbEntity
  8
2
  6
CONTINUOUS
370
25
 62
7
100
AcDbLine
 10
-22.81556396152516
 20
-30.92218019237418
 30
0.0
 11
-21.45629069231656
 21
-32.28145346158279
 31
0.0
  0
LINE
  5
BBA
330
1F
100
AcDbEntity
  8
2
  6
CONTINUOUS
370
25
 62
7
100
AcDbLine
 10
-22.92162997870315
 20
-30.39185010648427
 30
0.0
 11
-21.3855800141979
 21
-31.9279000709895
 31
0.0
  0
LINE
  5
BBB
330
1F
100
AcDbEntity
  8
2
  6
CONTINUOUS
370
25
 62
7
100
AcDbLine
 10
-22.88921601647549
 20
-30.0
 30
0.0
 11
-21.31486933607925
 21
-31.57434668039623
 31
0.0
  0
LINE
  5
BBC
330
1F
100
AcDbEntity
  8
2
  6
CONTINUOUS
370
25
 62
7
100
AcDbLine
 10
-22.46495194776356
 20
-30.0
 30
0.0
 11
-21.24415865796059
 21
-31.22079328980296
 31
0.0
  0
LINE
  5
BBD
330
1F
100
AcDbEntity
  8
2
  6
CONTINUOUS
370
25
 62
7
100
AcDbLine
 10
-22.04068787905163
 20
-30.0
 30
0.0
 11
-21.17344797984194
 21
-30.86723989920969
 31
0.0
  0
LINE
  5
BBE
330
1F
100
AcDbEntity
  8
2
  6
CONTINUOUS
370
25
 62
7
100
AcDbLine
 10
-21.6164238103397
 20
-30.0
 30
0.0
 11
-21.10273730172328
 21
-30.51368650861641
 31
0.0
  0
LINE
  5
BBF
330
1F
100
AcDbEntity
  8
2
  6
CONTINUOUS
370
25
 62
7
100
AcDbLine
 10
-21.19215974162777
 20
-30.0
 30
0.0
 11
-21.03202662360463
 21
-30.16013311802314
 31
0.0
  0
LINE
  5
BC0
330
1F
100
AcDbEntity
  8
2
  6
CONTINUOUS
370
25
 62
7
100
AcDbLine
 10
-22.0
 20
35.0
 30
0.0
 11
-21.0
 21
30.0
 31
0.0
  0
LINE
  5
BC1
330
1F
100
AcDbEntity
  8
2
  6
CONTINUOUS
370
25
 62
7
100
AcDbLine
 10
-21.0
 20
30.0
 30
0.0
 11
-23.0
 21
30.0
 31
0.0
  0
LINE
  5
BC2
330
1F
100
AcDbEntity
  8
2
  6
CONTINUOUS
370
25
 62
7
100
AcDbLine
 10
-23.0
 20
30.0
 30
0.0
 11
-22.0
 21
35.0
 31
0.0
  0
LINE
  5
BC3
330
1F
100
AcDbEntity
  8
2
  6
CONTINUOUS
370
25
 62
7
100
AcDbLine
 10
-21.33595231414334
 20
30.0
 30
0.0
 11
-21.05599205235722
 21
30.27996026178612
 31
0.0
  0
LINE
  5
BC4
330
1F
100
AcDbEntity
  8
2
  6
CONTINUOUS
370
25
 62
7
100
AcDbLine
 10
-21.76021638285527
 20
30.0
 30
0.0
 11
-21.12670273047588
 21
30.6335136523794
 31
0.0
  0
LINE
  5
BC5
330
1F
100
AcDbEntity
  8
2
  6
CONTINUOUS
370
25
 62
7
100
AcDbLine
 10
-22.1844804515672
 20
30.0
 30
0.0
 11
-21.19741340859453
 21
30.98706704297268
 31
0.0
  0
LINE
  5
BC6
330
1F
100
AcDbEntity
  8
2
  6
CONTINUOUS
370
25
 62
7
100
AcDbLine
 10
-22.60874452027913
 20
30.0
 30
0.0
 11
-21.26812408671319
 21
31.34062043356595
 31
0.0
  0
LINE
  5
BC7
330
1F
100
AcDbEntity
  8
2
  6
CONTINUOUS
370
25
 62
7
100
AcDbLine
 10
-22.99174785275224
 20
30.04126073623882
 30
0.0
 11
-21.33883476483184
 21
31.69417382415922
 31
0.0
  0
LINE
  5
BC8
330
1F
100
AcDbEntity
  8
2
  6
CONTINUOUS
370
25
 62
7
100
AcDbLine
 10
-22.88568183557425
 20
30.57159082212874
 30
0.0
 11
-21.4095454429505
 21
32.0477272147525
 31
0.0
  0
LINE
  5
BC9
330
1F
100
AcDbEntity
  8
2
  6
CONTINUOUS
370
25
 62
7
100
AcDbLine
 10
-22.77961581839627
 20
31.10192090801865
 30
0.0
 11
-21.48025612106915
 21
32.40128060534578
 31
0.0
  0
LINE
  5
BCA
330
1F
100
AcDbEntity
  8
2
  6
CONTINUOUS
370
25
 62
7
100
AcDbLine
 10
-22.67354980121829
 20
31.63225099390856
 30
0.0
 11
-21.5509667991878
 21
32.75483399593904
 31
0.0
  0
LINE
  5
BCB
330
1F
100
AcDbEntity
  8
2
  6
CONTINUOUS
370
25
 62
7
100
AcDbLine
 10
-22.56748378404031
 20
32.16258107979847
 30
0.0
 11
-21.62167747730646
 21
33.10838738653232
 31
0.0
  0
LINE
  5
BCC
330
1F
100
AcDbEntity
  8
2
  6
CONTINUOUS
370
25
 62
7
100
AcDbLine
 10
-22.46141776686232
 20
32.69291116568839
 30
0.0
 11
-21.69238815542511
 21
33.4619407771256
 31
0.0
  0
LINE
  5
BCD
330
1F
100
AcDbEntity
  8
2
  6
CONTINUOUS
370
25
 62
7
100
AcDbLine
 10
-22.35535174968434
 20
33.2232412515783
 30
0.0
 11
-21.76309883354377
 21
33.81549416771887
 31
0.0
  0
LINE
  5
BCE
330
1F
100
AcDbEntity
  8
2
  6
CONTINUOUS
370
25
 62
7
100
AcDbLine
 10
-22.24928573250636
 20
33.75357133746821
 30
0.0
 11
-21.83380951166242
 21
34.16904755831214
 31
0.0
  0
LINE
  5
BCF
330
1F
100
AcDbEntity
  8
2
  6
CONTINUOUS
370
25
 62
7
100
AcDbLine
 10
-22.14321971532837
 20
34.28390142335812
 30
0.0
 11
-21.90452018978108
 21
34.52260094890542
 31
0.0
  0
LINE
  5
BD0
330
1F
100
AcDbEntity
  8
2
  6
CONTINUOUS
370
25
 62
7
100
AcDbLine
 10
-22.03715369815039
 20
34.81423150924805
 30
0.0
 11
-21.97523086789974
 21
34.8761543394987
 31
0.0
  0
LINE
  5
BD1
330
1F
100
AcDbEntity
  8
2
  6
CONTINUOUS
370
25
 62
7
100
AcDbLine
 10
-22.96458513864956
 20
30.17707430675221
 30
0.0
 11
-22.78751083189735
 21
30.0
 31
0.0
  0
LINE
  5
BD2
330
1F
100
AcDbEntity
  8
2
  6
CONTINUOUS
370
25
 62
7
100
AcDbLine
 10
-22.8938744605309
 20
30.53062769734548
 30
0.0
 11
-22.36324676318542
 21
30.0
 31
0.0
  0
LINE
  5
BD3
330
1F
100
AcDbEntity
  8
2
  6
CONTINUOUS
370
25
 62
7
100
AcDbLine
 10
-22.82316378241225
 20
30.88418108793876
 30
0.0
 11
-21.93898269447349
 21
30.0
 31
0.0
  0
LINE
  5
BD4
330
1F
100
AcDbEntity
  8
2
  6
CONTINUOUS
370
25
 62
7
100
AcDbLine
 10
-22.75245310429359
 20
31.23773447853203
 30
0.0
 11
-21.51471862576156
 21
30.0
 31
0.0
  0
LINE
  5
BD5
330
1F
100
AcDbEntity
  8
2
  6
CONTINUOUS
370
25
 62
7
100
AcDbLine
 10
-22.68174242617494
 20
31.59128786912531
 30
0.0
 11
-21.09045455704963
 21
30.0
 31
0.0
  0
LINE
  5
BD6
330
1F
100
AcDbEntity
  8
2
  6
CONTINUOUS
370
25
 62
7
100
AcDbLine
 10
-22.61103174805628
 20
31.94484125971858
 30
0.0
 11
-21.08345237791557
 21
30.41726188957787
 31
0.0
  0
LINE
  5
BD7
330
1F
100
AcDbEntity
  8
2
  6
CONTINUOUS
370
25
 62
7
100
AcDbLine
 10
-22.54032106993763
 20
32.29839465031186
 30
0.0
 11
-21.18951839509355
 21
30.94759197546778
 31
0.0
  0
LINE
  5
BD8
330
1F
100
AcDbEntity
  8
2
  6
CONTINUOUS
370
25
 62
7
100
AcDbLine
 10
-22.46961039181897
 20
32.65194804090513
 30
0.0
 11
-21.29558441227154
 21
31.4779220613577
 31
0.0
  0
LINE
  5
BD9
330
1F
100
AcDbEntity
  8
2
  6
CONTINUOUS
370
25
 62
7
100
AcDbLine
 10
-22.39889971370032
 20
33.0055014314984
 30
0.0
 11
-21.40165042944951
 21
32.0082521472476
 31
0.0
  0
LINE
  5
BDA
330
1F
100
AcDbEntity
  8
2
  6
CONTINUOUS
370
25
 62
7
100
AcDbLine
 10
-22.32818903558167
 20
33.35905482209169
 30
0.0
 11
-21.5077164466275
 21
32.53858223313752
 31
0.0
  0
LINE
  5
BDB
330
1F
100
AcDbEntity
  8
2
  6
CONTINUOUS
370
25
 62
7
100
AcDbLine
 10
-22.25747835746301
 20
33.71260821268496
 30
0.0
 11
-21.61378246380549
 21
33.06891231902743
 31
0.0
  0
LINE
  5
BDC
330
1F
100
AcDbEntity
  8
2
  6
CONTINUOUS
370
25
 62
7
100
AcDbLine
 10
-22.18676767934435
 20
34.06616160327823
 30
0.0
 11
-21.71984848098347
 21
33.59924240491735
 31
0.0
  0
LINE
  5
BDD
330
1F
100
AcDbEntity
  8
2
  6
CONTINUOUS
370
25
 62
7
100
AcDbLine
 10
-22.1160570012257
 20
34.41971499387151
 30
0.0
 11
-21.82591449816145
 21
34.12957249080726
 31
0.0
  0
LINE
  5
BDE
330
1F
100
AcDbEntity
  8
2
  6
CONTINUOUS
370
25
 62
7
100
AcDbLine
 10
-22.04534632310704
 20
34.77326838446479
 30
0.0
 11
-21.93198051533943
 21
34.65990257669718
 31
0.0
  0
TEXT
  5
BDF
330
1F
100
AcDbEntity
  8
2
  6
CONTINUOUS
370
25
 62
7
100
AcDbText
 10
-23.5
 20
-0.3500000000000001
 30
0.0
 40
3.5
  1
70
 50
90.0
 72
     1
 11
-23.5
 21
2.275
 31
0.0
100
AcDbText
  0
CIRCLE
  5
BE0
330
1F
100
AcDbEntity
  8
2
  6
CONTINUOUS
370
25
 62
7
100
AcDbCircle
 10
-25.25
 20
-2.625
 30
0.0
 40
1.4
  0
LINE
  5
BE1
330
1F
100
AcDbEntity
  8
2
  6
CONTINUOUS
370
25
 62
7
100
AcDbLine
 10
-23.85
 20
-4.024999999999999
 30
0.0
 11
-26.65
 21
-1.224999999999999
 31
0.0
  0
LINE
  5
BE2
330
1F
100
AcDbEntity
  8
2
  6
CONTINUOUS
370
25
 62
7
100
AcDbLine
 10
50.0
 20
-21.0345
 30
0.0
 11
63.0
 21
-21.0345
 31
0.0
  0
LINE
  5
BE3
330
1F
100
AcDbEntity
  8
2
  6
CONTINUOUS
370
25
 62
7
100
AcDbLine
 10
63.0
 20
21.0345
 30
0.0
 11
50.0
 21
21.0345
 31
0.0
  0
LINE
  5
BE4
330
1F
100
AcDbEntity
  8
2
  6
CONTINUOUS
370
25
 62
7
100
AcDbLine
 10
62.0
 20
-21.0345
 30
0.0
 11
62.0
 21
21.0345
 31
0.0
  0
LINE
  5
BE5
330
1F
100
AcDbEntity
  8
2
  6
CONTINUOUS
370
25
 62
7
100
AcDbLine
 10
62.0
 20
-21.0345
 30
0.0
 11
61.0
 21
-16.0345
 31
0.0
  0
LINE
  5
BE6
330
1F
100
AcDbEntity
  8
2
  6
CONTINUOUS
370
25
 62
7
100
AcDbLine
 10
61.0
 20
-16.0345
 30
0.0
 11
63.0
 21
-16.0345
 31
0.0
  0
LINE
  5
BE7
330
1F
100
AcDbEntity
  8
2
  6
CONTINUOUS
370
25
 62
7
100
AcDbLine
 10
63.0
 20
-16.0345
 30
0.0
 11
62.0
 21
-21.0345
 31
0.0
  0
LINE
  5
BE8
330
1F
100
AcDbEntity
  8
2
  6
CONTINUOUS
370
25
 62
7
100
AcDbLine
 10
61.9769974072425
 20
-20.91948703621249
 30
0.0
 11
62.03450388913625
 21
-20.86198055431875
 31
0.0
  0
LINE
  5
BE9
330
1F
100
AcDbEntity
  8
2
  6
CONTINUOUS
370
25
 62
7
100
AcDbLine
 10
61.90628672912385
 20
-20.56593364561922
 30
0.0
 11
62.14056990631423
 21
-20.33165046842884
 31
0.0
  0
LINE
  5
BEA
330
1F
100
AcDbEntity
  8
2
  6
CONTINUOUS
370
25
 62
7
100
AcDbLine
 10
61.83557605100519
 20
-20.21238025502594
 30
0.0
 11
62.24663592349221
 21
-19.80132038253893
 31
0.0
  0
LINE
  5
BEB
330
1F
100
AcDbEntity
  8
2
  6
CONTINUOUS
370
25
 62
7
100
AcDbLine
 10
61.76486537288654
 20
-19.85882686443267
 30
0.0
 11
62.35270194067019
 21
-19.27099029664903
 31
0.0
  0
LINE
  5
BEC
330
1F
100
AcDbEntity
  8
2
  6
CONTINUOUS
370
25
 62
7
100
AcDbLine
 10
61.69415469476789
 20
-19.5052734738394
 30
0.0
 11
62.45876795784817
 21
-18.74066021075912
 31
0.0
  0
LINE
  5
BED
330
1F
100
AcDbEntity
  8
2
  6
CONTINUOUS
370
25
 62
7
100
AcDbLine
 10
61.62344401664923
 20
-19.15172008324612
 30
0.0
 11
62.56483397502615
 21
-18.21033012486921
 31
0.0
  0
LINE
  5
BEE
330
1F
100
AcDbEntity
  8
2
  6
CONTINUOUS
370
25
 62
7
100
AcDbLine
 10
61.55273333853058
 20
-18.79816669265284
 30
0.0
 11
62.67089999220413
 21
-17.6800000389793
 31
0.0
  0
LINE
  5
BEF
330
1F
100
AcDbEntity
  8
2
  6
CONTINUOUS
370
25
 62
7
100
AcDbLine
 10
61.48202266041191
 20
-18.44461330205959
 30
0.0
 11
62.77696600938212
 21
-17.14966995308939
 31
0.0
  0
LINE
  5
BF0
330
1F
100
AcDbEntity
  8
2
  6
CONTINUOUS
370
25
 62
7
100
AcDbLine
 10
61.41131198229326
 20
-18.09105991146631
 30
0.0
 11
62.8830320265601
 21
-16.61933986719949
 31
0.0
  0
LINE
  5
BF1
330
1F
100
AcDbEntity
  8
2
  6
CONTINUOUS
370
25
 62
7
100
AcDbLine
 10
61.3406013041746
 20
-17.73750652087304
 30
0.0
 11
62.98909804373808
 21
-16.08900978130958
 31
0.0
  0
LINE
  5
BF2
330
1F
100
AcDbEntity
  8
2
  6
CONTINUOUS
370
25
 62
7
100
AcDbLine
 10
61.26989062605596
 20
-17.38395313027977
 30
0.0
 11
62.61934375633574
 21
-16.0345
 31
0.0
  0
LINE
  5
BF3
330
1F
100
AcDbEntity
  8
2
  6
CONTINUOUS
370
25
 62
7
100
AcDbLine
 10
61.19917994793731
 20
-17.03039973968649
 30
0.0
 11
62.19507968762381
 21
-16.0345
 31
0.0
  0
LINE
  5
BF4
330
1F
100
AcDbEntity
  8
2
  6
CONTINUOUS
370
25
 62
7
100
AcDbLine
 10
61.12846926981865
 20
-16.67684634909322
 30
0.0
 11
61.77081561891188
 21
-16.0345
 31
0.0
  0
LINE
  5
BF5
330
1F
100
AcDbEntity
  8
2
  6
CONTINUOUS
370
25
 62
7
100
AcDbLine
 10
61.0577585917
 20
-16.32329295849995
 30
0.0
 11
61.34655155019995
 21
-16.0345
 31
0.0
  0
LINE
  5
BF6
330
1F
100
AcDbEntity
  8
2
  6
CONTINUOUS
370
25
 62
7
100
AcDbLine
 10
61.95297133373574
 20
-20.79935666867868
 30
0.0
 11
62.03135244417617
 21
-20.87773777911911
 31
0.0
  0
LINE
  5
BF7
330
1F
100
AcDbEntity
  8
2
  6
CONTINUOUS
370
25
 62
7
100
AcDbLine
 10
61.84690531655775
 20
-20.26902658278876
 30
0.0
 11
62.10206312229483
 21
-20.52418438852584
 31
0.0
  0
LINE
  5
BF8
330
1F
100
AcDbEntity
  8
2
  6
CONTINUOUS
370
25
 62
7
100
AcDbLine
 10
61.74083929937977
 20
-19.73869649689886
 30
0.0
 11
62.17277380041349
 21
-20.17063099793258
 31
0.0
  0
LINE
  5
BF9
330
1F
100
AcDbEntity
  8
2
  6
CONTINUOUS
370
25
 62
7
100
AcDbLine
 10
61.63477328220179
 20
-19.20836641100894
 30
0.0
 11
62.24348447853214
 21
-19.81707760733929
 31
0.0
  0
LINE
  5
BFA
330
1F
100
AcDbEntity
  8
2
  6
CONTINUOUS
370
25
 62
7
100
AcDbLine
 10
61.5287072650238
 20
-18.67803632511903
 30
0.0
 11
62.3141951566508
 21
-19.46352421674603
 31
0.0
  0
LINE
  5
BFB
330
1F
100
AcDbEntity
  8
2
  6
CONTINUOUS
370
25
 62
7
100
AcDbLine
 10
61.42264124784582
 20
-18.14770623922912
 30
0.0
 11
62.38490583476945
 21
-19.10997082615274
 31
0.0
  0
LINE
  5
BFC
330
1F
100
AcDbEntity
  8
2
  6
CONTINUOUS
370
25
 62
7
100
AcDbLine
 10
61.31657523066784
 20
-17.61737615333921
 30
0.0
 11
62.4556165128881
 21
-18.75641743555947
 31
0.0
  0
LINE
  5
BFD
330
1F
100
AcDbEntity
  8
2
  6
CONTINUOUS
370
25
 62
7
100
AcDbLine
 10
61.21050921348986
 20
-17.08704606744929
 30
0.0
 11
62.52632719100676
 21
-18.40286404496619
 31
0.0
  0
LINE
  5
BFE
330
1F
100
AcDbEntity
  8
2
  6
CONTINUOUS
370
25
 62
7
100
AcDbLine
 10
61.10444319631188
 20
-16.55671598155938
 30
0.0
 11
62.59703786912542
 21
-18.04931065437293
 31
0.0
  0
LINE
  5
BFF
330
1F
100
AcDbEntity
  8
2
  6
CONTINUOUS
370
25
 62
7
100
AcDbLine
 10
61.00649128346443
 20
-16.0345
 30
0.0
 11
62.66774854724407
 21
-17.69575726377965
 31
0.0
  0
LINE
  5
C00
330
1F
100
AcDbEntity
  8
2
  6
CONTINUOUS
370
25
 62
7
100
AcDbLine
 10
61.43075535217636
 20
-16.0345
 30
0.0
 11
62.73845922536272
 21
-17.34220387318639
 31
0.0
  0
LINE
  5
C01
330
1F
100
AcDbEntity
  8
2
  6
CONTINUOUS
370
25
 62
7
100
AcDbLine
 10
61.85501942088828
 20
-16.0345
 30
0.0
 11
62.80916990348138
 21
-16.9886504825931
 31
0.0
  0
LINE
  5
C02
330
1F
100
AcDbEntity
  8
2
  6
CONTINUOUS
370
25
 62
7
100
AcDbLine
 10
62.27928348960021
 20
-16.0345
 30
0.0
 11
62.87988058160003
 21
-16.63509709199983
 31
0.0
  0
LINE
  5
C03
330
1F
100
AcDbEntity
  8
2
  6
CONTINUOUS
370
25
 62
7
100
AcDbLine
 10
62.70354755831213
 20
-16.0345
 30
0.0
 11
62.95059125971868
 21
-16.28154370140656
 31
0.0
  0
LINE
  5
C04
330
1F
100
AcDbEntity
  8
2
  6
CONTINUOUS
370
25
 62
7
100
AcDbLine
 10
62.0
 20
21.0345
 30
0.0
 11
63.0
 21
16.0345
 31
0.0
  0
LINE
  5
C05
330
1F
100
AcDbEntity
  8
2
  6
CONTINUOUS
370
25
 62
7
100
AcDbLine
 10
63.0
 20
16.0345
 30
0.0
 11
61.0
 21
16.0345
 31
0.0
  0
LINE
  5
C06
330
1F
100
AcDbEntity
  8
2
  6
CONTINUOUS
370
25
 62
7
100
AcDbLine
 10
61.0
 20
16.0345
 30
0.0
 11
62.0
 21
21.0345
 31
0.0
  0
LINE
  5
C07
330
1F
100
AcDbEntity
  8
2
  6
CONTINUOUS
370
25
 62
7
100
AcDbLine
 10
62.97675062752836
 20
16.0345
 30
0.0
 11
62.99612510458806
 21
16.0538744770597
 31
0.0
  0
LINE
  5
C08
330
1F
100
AcDbEntity
  8
2
  6
CONTINUOUS
370
25
 62
7
100
AcDbLine
 10
62.55248655881644
 20
16.0345
 30
0.0
 11
62.92541442646941
 21
16.40742786765297
 31
0.0
  0
LINE
  5
C09
330
1F
100
AcDbEntity
  8
2
  6
CONTINUOUS
370
25
 62
7
100
AcDbLine
 10
62.1282224901045
 20
16.0345
 30
0.0
 11
62.85470374835075
 21
16.76098125824625
 31
0.0
  0
LINE
  5
C0A
330
1F
100
AcDbEntity
  8
2
  6
CONTINUOUS
370
25
 62
7
100
AcDbLine
 10
61.70395842139258
 20
16.0345
 30
0.0
 11
62.78399307023209
 21
17.11453464883952
 31
0.0
  0
LINE
  5
C0B
330
1F
100
AcDbEntity
  8
2
  6
CONTINUOUS
370
25
 62
7
100
AcDbLine
 10
61.27969435268064
 20
16.0345
 30
0.0
 11
62.71328239211343
 21
17.46808803943279
 31
0.0
  0
LINE
  5
C0C
330
1F
100
AcDbEntity
  8
2
  6
CONTINUOUS
370
25
 62
7
100
AcDbLine
 10
61.03614242900783
 20
16.21521214503912
 30
0.0
 11
62.64257171399478
 21
17.82164143002606
 31
0.0
  0
LINE
  5
C0D
330
1F
100
AcDbEntity
  8
2
  6
CONTINUOUS
370
25
 62
7
100
AcDbLine
 10
61.14220844618581
 20
16.74554223092903
 30
0.0
 11
62.57186103587613
 21
18.17519482061933
 31
0.0
  0
LINE
  5
C0E
330
1F
100
AcDbEntity
  8
2
  6
CONTINUOUS
370
25
 62
7
100
AcDbLine
 10
61.24827446336379
 20
17.27587231681893
 30
0.0
 11
62.50115035775747
 21
18.5287482112126
 31
0.0
  0
LINE
  5
C0F
330
1F
100
AcDbEntity
  8
2
  6
CONTINUOUS
370
25
 62
7
100
AcDbLine
 10
61.35434048054177
 20
17.80620240270884
 30
0.0
 11
62.43043967963882
 21
18.88230160180589
 31
0.0
  0
LINE
  5
C10
330
1F
100
AcDbEntity
  8
2
  6
CONTINUOUS
370
25
 62
7
100
AcDbLine
 10
61.46040649771975
 20
18.33653248859875
 30
0.0
 11
62.35972900152017
 21
19.23585499239915
 31
0.0
  0
LINE
  5
C11
330
1F
100
AcDbEntity
  8
2
  6
CONTINUOUS
370
25
 62
7
100
AcDbLine
 10
61.56647251489774
 20
18.86686257448866
 30
0.0
 11
62.28901832340151
 21
19.58940838299242
 31
0.0
  0
LINE
  5
C12
330
1F
100
AcDbEntity
  8
2
  6
CONTINUOUS
370
25
 62
7
100
AcDbLine
 10
61.67253853207572
 20
19.39719266037856
 30
0.0
 11
62.21830764528286
 21
19.9429617735857
 31
0.0
  0
LINE
  5
C13
330
1F
100
AcDbEntity
  8
2
  6
CONTINUOUS
370
25
 62
7
100
AcDbLine
 10
61.7786045492537
 20
19.92752274626847
 30
0.0
 11
62.1475969671642
 21
20.29651516417897
 31
0.0
  0
LINE
  5
C14
330
1F
100
AcDbEntity
  8
2
  6
CONTINUOUS
370
25
 62
7
100
AcDbLine
 10
61.88467056643168
 20
20.45785283215837
 30
0.0
 11
62.07688628904555
 21
20.65006855477225
 31
0.0
  0
LINE
  5
C15
330
1F
100
AcDbEntity
  8
2
  6
CONTINUOUS
370
25
 62
7
100
AcDbLine
 10
61.99073658360965
 20
20.98818291804826
 30
0.0
 11
62.0061756109269
 21
21.0036219453655
 31
0.0
  0
LINE
  5
C16
330
1F
100
AcDbEntity
  8
2
  6
CONTINUOUS
370
25
 62
7
100
AcDbLine
 10
61.03026008426183
 20
16.18580042130915
 30
0.0
 11
61.18156050557099
 21
16.0345
 31
0.0
  0
LINE
  5
C17
330
1F
100
AcDbEntity
  8
2
  6
CONTINUOUS
370
25
 62
7
100
AcDbLine
 10
61.10097076238049
 20
16.53935381190243
 30
0.0
 11
61.60582457428292
 21
16.0345
 31
0.0
  0
LINE
  5
C18
330
1F
100
AcDbEntity
  8
2
  6
CONTINUOUS
370
25
 62
7
100
AcDbLine
 10
61.17168144049914
 20
16.8929072024957
 30
0.0
 11
62.03008864299484
 21
16.0345
 31
0.0
  0
LINE
  5
C19
330
1F
100
AcDbEntity
  8
2
  6
CONTINUOUS
370
25
 62
7
100
AcDbLine
 10
61.2423921186178
 20
17.24646059308898
 30
0.0
 11
62.45435271170678
 21
16.0345
 31
0.0
  0
LINE
  5
C1A
330
1F
100
AcDbEntity
  8
2
  6
CONTINUOUS
370
25
 62
7
100
AcDbLine
 10
61.31310279673646
 20
17.60001398368225
 30
0.0
 11
62.8786167804187
 21
16.0345
 31
0.0
  0
LINE
  5
C1B
330
1F
100
AcDbEntity
  8
2
  6
CONTINUOUS
370
25
 62
7
100
AcDbLine
 10
61.38381347485511
 20
17.95356737427553
 30
0.0
 11
62.92427978771734
 21
16.41310106141329
 31
0.0
  0
LINE
  5
C1C
330
1F
100
AcDbEntity
  8
2
  6
CONTINUOUS
370
25
 62
7
100
AcDbLine
 10
61.45452415297376
 20
18.3071207648688
 30
0.0
 11
62.81821377053936
 21
16.94343114730319
 31
0.0
  0
LINE
  5
C1D
330
1F
100
AcDbEntity
  8
2
  6
CONTINUOUS
370
25
 62
7
100
AcDbLine
 10
61.52523483109242
 20
18.66067415546206
 30
0.0
 11
62.71214775336138
 21
17.47376123319309
 31
0.0
  0
LINE
  5
C1E
330
1F
100
AcDbEntity
  8
2
  6
CONTINUOUS
370
25
 62
7
100
AcDbLine
 10
61.59594550921107
 20
19.01422754605535
 30
0.0
 11
62.6060817361834
 21
18.00409131908302
 31
0.0
  0
LINE
  5
C1F
330
1F
100
AcDbEntity
  8
2
  6
CONTINUOUS
370
25
 62
7
100
AcDbLine
 10
61.66665618732972
 20
19.36778093664862
 30
0.0
 11
62.50001571900541
 21
18.53442140497292
 31
0.0
  0
LINE
  5
C20
330
1F
100
AcDbEntity
  8
2
  6
CONTINUOUS
370
25
 62
7
100
AcDbLine
 10
61.73736686544839
 20
19.72133432724189
 30
0.0
 11
62.39394970182742
 21
19.06475149086285
 31
0.0
  0
LINE
  5
C21
330
1F
100
AcDbEntity
  8
2
  6
CONTINUOUS
370
25
 62
7
100
AcDbLine
 10
61.80807754356704
 20
20.07488771783517
 30
0.0
 11
62.28788368464944
 21
19.59508157675277
 31
0.0
  0
LINE
  5
C22
330
1F
100
AcDbEntity
  8
2
  6
CONTINUOUS
370
25
 62
7
100
AcDbLine
 10
61.8787882216857
 20
20.42844110842844
 30
0.0
 11
62.18181766747146
 21
20.12541166264268
 31
0.0
  0
LINE
  5
C23
330
1F
100
AcDbEntity
  8
2
  6
CONTINUOUS
370
25
 62
7
100
AcDbLine
 10
61.94949889980435
 20
20.78199449902172
 30
0.0
 11
62.07575165029348
 21
20.65574174853259
 31
0.0
  0
TEXT
  5
C24
330
1F
100
AcDbEntity
  8
2
  6
CONTINUOUS
370
25
 62
7
100
AcDbText
 10
60.5
 20
-6.183333333333332
 30
0.0
 40
3.5
  1
42.069
 50
90.0
 72
     1
 11
60.5
 21
2.275
 31
0.0
100
AcDbText
  0
CIRCLE
  5
C25
330
1F
100
AcDbEntity
  8
2
  6
CONTINUOUS
370
25
 62
7
100
AcDbCircle
 10
58.75
 20
-8.925
 30
0.0
 40
1.4
  0
LINE
  5
C26
330
1F
100
AcDbEntity
  8
2
  6
CONTINUOUS
370
25
 62
7
100
AcDbLine
 10
60.15
 20
-10.325
 30
0.0
 11
57.35
 21
-7.525
 31
0.0
  0
LINE
  5
C27
330
1F
100
AcDbEntity
  8
2
  6
CONTINUOUS
370
25
 62
7
100
AcDbLine
 10
46.5
 20
-55.80847404
 30
0.0
 11
46.5
 21
-67.68647222999999
 31
0.0
  0
LINE
  5
C28
330
1F
100
AcDbEntity
  8
2
  6
CONTINUOUS
370
25
 62
7
100
AcDbLine
 10
50.0
 20
-67.68647222999999
 30
0.0
 11
50.0
 21
-50.8
 31
0.0
  0
LINE
  5
C29
330
1F
100
AcDbEntity
  8
2
  6
CONTINUOUS
370
25
 62
7
100
AcDbLine
 10
39.5
 20
-66.68647222999999
 30
0.0
 11
65.925
 21
-66.68647222999999
 31
0.0
  0
LINE
  5
C2A
330
1F
100
AcDbEntity
  8
2
  6
CONTINUOUS
370
25
 62
7
100
AcDbLine
 10
46.5
 20
-66.68647222999999
 30
0.0
 11
41.5
 21
-67.68647222999999
 31
0.0
  0
LINE
  5
C2B
330
1F
100
AcDbEntity
  8
2
  6
CONTINUOUS
370
25
 62
7
100
AcDbLine
 10
41.5
 20
-67.68647222999999
 30
0.0
 11
41.5
 21
-65.68647222999999
 31
0.0
  0
LINE
  5
C2C
330
1F
100
AcDbEntity
  8
2
  6
CONTINUOUS
370
25
 62
7
100
AcDbLine
 10
41.5
 20
-65.68647222999999
 30
0.0
 11
46.5
 21
-66.68647222999999
 31
0.0
  0
LINE
  5
C2D
330
1F
100
AcDbEntity
  8
2
  6
CONTINUOUS
370
25
 62
7
100
AcDbLine
 10
46.36400974363516
 20
-66.71367028127295
 30
0.0
 11
46.4093398290901
 21
-66.66834019581802
 31
0.0
  0
LINE
  5
C2E
330
1F
100
AcDbEntity
  8
2
  6
CONTINUOUS
370
25
 62
7
100
AcDbLine
 10
45.83367965774526
 20
-66.81973629845095
 30
0.0
 11
46.05578643849684
 21
-66.59762951769936
 31
0.0
  0
LINE
  5
C2F
330
1F
100
AcDbEntity
  8
2
  6
CONTINUOUS
370
25
 62
7
100
AcDbLine
 10
45.30334957185534
 20
-66.92580231562891
 30
0.0
 11
45.70223304790356
 21
-66.5269188395807
 31
0.0
  0
LINE
  5
C30
330
1F
100
AcDbEntity
  8
2
  6
CONTINUOUS
370
25
 62
7
100
AcDbLine
 10
44.77301948596543
 20
-67.03186833280691
 30
0.0
 11
45.34867965731028
 21
-66.45620816146206
 31
0.0
  0
LINE
  5
C31
330
1F
100
AcDbEntity
  8
2
  6
CONTINUOUS
370
25
 62
7
100
AcDbLine
 10
44.24268940007551
 20
-67.13793434998489
 30
0.0
 11
44.995126266717
 21
-66.3854974833434
 31
0.0
  0
LINE
  5
C32
330
1F
100
AcDbEntity
  8
2
  6
CONTINUOUS
370
25
 62
7
100
AcDbLine
 10
43.7123593141856
 20
-67.24400036716287
 30
0.0
 11
44.64157287612372
 21
-66.31478680522474
 31
0.0
  0
LINE
  5
C33
330
1F
100
AcDbEntity
  8
2
  6
CONTINUOUS
370
25
 62
7
100
AcDbLine
 10
43.18202922829569
 20
-67.35006638434086
 30
0.0
 11
44.28801948553046
 21
-66.24407612710608
 31
0.0
  0
LINE
  5
C34
330
1F
100
AcDbEntity
  8
2
  6
CONTINUOUS
370
25
 62
7
100
AcDbLine
 10
42.65169914240577
 20
-67.45613240151883
 30
0.0
 11
43.93446609493717
 21
-66.17336544898743
 31
0.0
  0
LINE
  5
C35
330
1F
100
AcDbEntity
  8
2
  6
CONTINUOUS
370
25
 62
7
100
AcDbLine
 10
42.12136905651587
 20
-67.56219841869682
 30
0.0
 11
43.5809127043439
 21
-66.10265477086878
 31
0.0
  0
LINE
  5
C36
330
1F
100
AcDbEntity
  8
2
  6
CONTINUOUS
370
25
 62
7
100
AcDbLine
 10
41.59103897062596
 20
-67.6682644358748
 30
0.0
 11
43.22735931375063
 21
-66.03194409275011
 31
0.0
  0
LINE
  5
C37
330
1F
100
AcDbEntity
  8
2
  6
CONTINUOUS
370
25
 62
7
100
AcDbLine
 10
41.5
 20
-67.33503933778883
 30
0.0
 11
42.87380592315736
 21
-65.96123341463147
 31
0.0
  0
LINE
  5
C38
330
1F
100
AcDbEntity
  8
2
  6
CONTINUOUS
370
25
 62
7
100
AcDbLine
 10
41.5
 20
-66.91077526907691
 30
0.0
 11
42.52025253256408
 21
-65.8905227365128
 31
0.0
  0
LINE
  5
C39
330
1F
100
AcDbEntity
  8
2
  6
CONTINUOUS
370
25
 62
7
100
AcDbLine
 10
41.5
 20
-66.48651120036496
 30
0.0
 11
42.1666991419708
 21
-65.81981205839415
 31
0.0
  0
LINE
  5
C3A
330
1F
100
AcDbEntity
  8
2
  6
CONTINUOUS
370
25
 62
7
100
AcDbLine
 10
41.5
 20
-66.06224713165304
 30
0.0
 11
41.81314575137753
 21
-65.7491013802755
 31
0.0
  0
LINE
  5
C3B
330
1F
100
AcDbEntity
  8
2
  6
CONTINUOUS
370
25
 62
7
100
AcDbLine
 10
41.5
 20
-67.67313445441266
 30
0.0
 11
41.51111481298943
 21
-67.6842492674021
 31
0.0
  0
LINE
  5
C3C
330
1F
100
AcDbEntity
  8
2
  6
CONTINUOUS
370
25
 62
7
100
AcDbLine
 10
41.5
 20
-67.24887038570074
 30
0.0
 11
41.86466820358271
 21
-67.61353858928345
 31
0.0
  0
LINE
  5
C3D
330
1F
100
AcDbEntity
  8
2
  6
CONTINUOUS
370
25
 62
7
100
AcDbLine
 10
41.5
 20
-66.8246063169888
 30
0.0
 11
42.21822159417599
 21
-67.54282791116479
 31
0.0
  0
LINE
  5
C3E
330
1F
100
AcDbEntity
  8
2
  6
CONTINUOUS
370
25
 62
7
100
AcDbLine
 10
41.5
 20
-66.40034224827687
 30
0.0
 11
42.57177498476926
 21
-67.47211723304613
 31
0.0
  0
LINE
  5
C3F
330
1F
100
AcDbEntity
  8
2
  6
CONTINUOUS
370
25
 62
7
100
AcDbLine
 10
41.5
 20
-65.97607817956495
 30
0.0
 11
42.92532837536253
 21
-67.40140655492749
 31
0.0
  0
LINE
  5
C40
330
1F
100
AcDbEntity
  8
2
  6
CONTINUOUS
370
25
 62
7
100
AcDbLine
 10
41.66832264893372
 20
-65.72013675978673
 30
0.0
 11
43.27888176595581
 21
-67.33069587680882
 31
0.0
  0
LINE
  5
C41
330
1F
100
AcDbEntity
  8
2
  6
CONTINUOUS
370
25
 62
7
100
AcDbLine
 10
42.19865273482365
 20
-65.82620277696472
 30
0.0
 11
43.63243515654909
 21
-67.25998519869017
 31
0.0
  0
LINE
  5
C42
330
1F
100
AcDbEntity
  8
2
  6
CONTINUOUS
370
25
 62
7
100
AcDbLine
 10
42.72898282071355
 20
-65.9322687941427
 30
0.0
 11
43.98598854714236
 21
-67.18927452057152
 31
0.0
  0
LINE
  5
C43
330
1F
100
AcDbEntity
  8
2
  6
CONTINUOUS
370
25
 62
7
100
AcDbLine
 10
43.25931290660347
 20
-66.03833481132068
 30
0.0
 11
44.33954193773564
 21
-67.11856384245286
 31
0.0
  0
LINE
  5
C44
330
1F
100
AcDbEntity
  8
2
  6
CONTINUOUS
370
25
 62
7
100
AcDbLine
 10
43.78964299249338
 20
-66.14440082849868
 30
0.0
 11
44.69309532832891
 21
-67.04785316433421
 31
0.0
  0
LINE
  5
C45
330
1F
100
AcDbEntity
  8
2
  6
CONTINUOUS
370
25
 62
7
100
AcDbLine
 10
44.31997307838329
 20
-66.25046684567666
 30
0.0
 11
45.04664871892219
 21
-66.97714248621554
 31
0.0
  0
LINE
  5
C46
330
1F
100
AcDbEntity
  8
2
  6
CONTINUOUS
370
25
 62
7
100
AcDbLine
 10
44.8503031642732
 20
-66.35653286285464
 30
0.0
 11
45.40020210951546
 21
-66.9064318080969
 31
0.0
  0
LINE
  5
C47
330
1F
100
AcDbEntity
  8
2
  6
CONTINUOUS
370
25
 62
7
100
AcDbLine
 10
45.38063325016311
 20
-66.46259888003262
 30
0.0
 11
45.75375550010874
 21
-66.83572112997824
 31
0.0
  0
LINE
  5
C48
330
1F
100
AcDbEntity
  8
2
  6
CONTINUOUS
370
25
 62
7
100
AcDbLine
 10
45.91096333605302
 20
-66.5686648972106
 30
0.0
 11
46.10730889070201
 21
-66.7650104518596
 31
0.0
  0
LINE
  5
C49
330
1F
100
AcDbEntity
  8
2
  6
CONTINUOUS
370
25
 62
7
100
AcDbLine
 10
46.44129342194293
 20
-66.67473091438858
 30
0.0
 11
46.46086228129528
 21
-66.69429977374094
 31
0.0
  0
LINE
  5
C4A
330
1F
100
AcDbEntity
  8
2
  6
CONTINUOUS
370
25
 62
7
100
AcDbLine
 10
50.0
 20
-66.68647222999999
 30
0.0
 11
55.0
 21
-65.68647222999999
 31
0.0
  0
LINE
  5
C4B
330
1F
100
AcDbEntity
  8
2
  6
CONTINUOUS
370
25
 62
7
100
AcDbLine
 10
55.0
 20
-65.68647222999999
 30
0.0
 11
55.0
 21
-67.68647222999999
 31
0.0
  0
LINE
  5
C4C
330
1F
100
AcDbEntity
  8
2
  6
CONTINUOUS
370
25
 62
7
100
AcDbLine
 10
55.0
 20
-67.68647222999999
 30
0.0
 11
50.0
 21
-66.68647222999999
 31
0.0
  0
LINE
  5
C4D
330
1F
100
AcDbEntity
  8
2
  6
CONTINUOUS
370
25
 62
7
100
AcDbLine
 10
54.79537879841121
 20
-67.64554798968223
 30
0.0
 11
55.0
 21
-67.44092678809344
 31
0.0
  0
LINE
  5
C4E
330
1F
100
AcDbEntity
  8
2
  6
CONTINUOUS
370
25
 62
7
100
AcDbLine
 10
54.44182540781793
 20
-67.57483731156358
 30
0.0
 11
55.0
 21
-67.01666271938151
 31
0.0
  0
LINE
  5
C4F
330
1F
100
AcDbEntity
  8
2
  6
CONTINUOUS
370
25
 62
7
100
AcDbLine
 10
54.08827201722465
 20
-67.50412663344491
 30
0.0
 11
55.0
 21
-66.59239865066957
 31
0.0
  0
LINE
  5
C50
330
1F
100
AcDbEntity
  8
2
  6
CONTINUOUS
370
25
 62
7
100
AcDbLine
 10
53.73471862663138
 20
-67.43341595532627
 30
0.0
 11
55.0
 21
-66.16813458195764
 31
0.0
  0
LINE
  5
C51
330
1F
100
AcDbEntity
  8
2
  6
CONTINUOUS
370
25
 62
7
100
AcDbLine
 10
53.38116523603811
 20
-67.36270527720761
 30
0.0
 11
55.0
 21
-65.74387051324571
 31
0.0
  0
LINE
  5
C52
330
1F
100
AcDbEntity
  8
2
  6
CONTINUOUS
370
25
 62
7
100
AcDbLine
 10
53.02761184544482
 20
-67.29199459908895
 30
0.0
 11
54.54141776816721
 21
-65.77818867636655
 31
0.0
  0
LINE
  5
C53
330
1F
100
AcDbEntity
  8
2
  6
CONTINUOUS
370
25
 62
7
100
AcDbLine
 10
52.67405845485155
 20
-67.22128392097031
 30
0.0
 11
54.01108768227731
 21
-65.88425469354453
 31
0.0
  0
LINE
  5
C54
330
1F
100
AcDbEntity
  8
2
  6
CONTINUOUS
370
25
 62
7
100
AcDbLine
 10
52.32050506425828
 20
-67.15057324285164
 30
0.0
 11
53.48075759638741
 21
-65.99032071072251
 31
0.0
  0
LINE
  5
C55
330
1F
100
AcDbEntity
  8
2
  6
CONTINUOUS
370
25
 62
7
100
AcDbLine
 10
51.966951673665
 20
-67.07986256473299
 30
0.0
 11
52.95042751049749
 21
-66.0963867279005
 31
0.0
  0
LINE
  5
C56
330
1F
100
AcDbEntity
  8
2
  6
CONTINUOUS
370
25
 62
7
100
AcDbLine
 10
51.61339828307173
 20
-67.00915188661435
 30
0.0
 11
52.42009742460758
 21
-66.20245274507849
 31
0.0
  0
LINE
  5
C57
330
1F
100
AcDbEntity
  8
2
  6
CONTINUOUS
370
25
 62
7
100
AcDbLine
 10
51.25984489247845
 20
-66.93844120849568
 30
0.0
 11
51.88976733871767
 21
-66.30851876225645
 31
0.0
  0
LINE
  5
C58
330
1F
100
AcDbEntity
  8
2
  6
CONTINUOUS
370
25
 62
7
100
AcDbLine
 10
50.90629150188517
 20
-66.86773053037703
 30
0.0
 11
51.35943725282775
 21
-66.41458477943445
 31
0.0
  0
LINE
  5
C59
330
1F
100
AcDbEntity
  8
2
  6
CONTINUOUS
370
25
 62
7
100
AcDbLine
 10
50.55273811129191
 20
-66.79701985225837
 30
0.0
 11
50.82910716693785
 21
-66.52065079661241
 31
0.0
  0
LINE
  5
C5A
330
1F
100
AcDbEntity
  8
2
  6
CONTINUOUS
370
25
 62
7
100
AcDbLine
 10
50.19918472069863
 20
-66.72630917413971
 30
0.0
 11
50.29877708104793
 21
-66.62671681379041
 31
0.0
  0
LINE
  5
C5B
330
1F
100
AcDbEntity
  8
2
  6
CONTINUOUS
370
25
 62
7
100
AcDbLine
 10
50.25070717290382
 20
-66.63633079541923
 30
0.0
 11
50.37606075935573
 21
-66.76168438187113
 31
0.0
  0
LINE
  5
C5C
330
1F
100
AcDbEntity
  8
2
  6
CONTINUOUS
370
25
 62
7
100
AcDbLine
 10
50.60426056349711
 20
-66.56562011730057
 30
0.0
 11
50.90639084524565
 21
-66.86775039904913
 31
0.0
  0
LINE
  5
C5D
330
1F
100
AcDbEntity
  8
2
  6
CONTINUOUS
370
25
 62
7
100
AcDbLine
 10
50.95781395409038
 20
-66.49490943918192
 30
0.0
 11
51.43672093113556
 21
-66.9738164162271
 31
0.0
  0
LINE
  5
C5E
330
1F
100
AcDbEntity
  8
2
  6
CONTINUOUS
370
25
 62
7
100
AcDbLine
 10
51.31136734468366
 20
-66.42419876106325
 30
0.0
 11
51.96705101702548
 21
-67.07988243340509
 31
0.0
  0
LINE
  5
C5F
330
1F
100
AcDbEntity
  8
2
  6
CONTINUOUS
370
25
 62
7
100
AcDbLine
 10
51.66492073527694
 20
-66.35348808294461
 30
0.0
 11
52.49738110291539
 21
-67.18594845058307
 31
0.0
  0
LINE
  5
C60
330
1F
100
AcDbEntity
  8
2
  6
CONTINUOUS
370
25
 62
7
100
AcDbLine
 10
52.01847412587021
 20
-66.28277740482595
 30
0.0
 11
53.0277111888053
 21
-67.29201446776105
 31
0.0
  0
LINE
  5
C61
330
1F
100
AcDbEntity
  8
2
  6
CONTINUOUS
370
25
 62
7
100
AcDbLine
 10
52.37202751646349
 20
-66.21206672670729
 30
0.0
 11
53.55804127469521
 21
-67.39808048493904
 31
0.0
  0
LINE
  5
C62
330
1F
100
AcDbEntity
  8
2
  6
CONTINUOUS
370
25
 62
7
100
AcDbLine
 10
52.72558090705676
 20
-66.14135604858865
 30
0.0
 11
54.08837136058511
 21
-67.50414650211701
 31
0.0
  0
LINE
  5
C63
330
1F
100
AcDbEntity
  8
2
  6
CONTINUOUS
370
25
 62
7
100
AcDbLine
 10
53.07913429765004
 20
-66.07064537046999
 30
0.0
 11
54.61870144647503
 21
-67.610212519295
 31
0.0
  0
LINE
  5
C64
330
1F
100
AcDbEntity
  8
2
  6
CONTINUOUS
370
25
 62
7
100
AcDbLine
 10
53.43268768824331
 20
-65.99993469235133
 30
0.0
 11
55.0
 21
-67.56724700410804
 31
0.0
  0
LINE
  5
C65
330
1F
100
AcDbEntity
  8
2
  6
CONTINUOUS
370
25
 62
7
100
AcDbLine
 10
53.78624107883658
 20
-65.92922401423267
 30
0.0
 11
55.0
 21
-67.1429829353961
 31
0.0
  0
LINE
  5
C66
330
1F
100
AcDbEntity
  8
2
  6
CONTINUOUS
370
25
 62
7
100
AcDbLine
 10
54.13979446942987
 20
-65.85851333611403
 30
0.0
 11
55.0
 21
-66.71871886668417
 31
0.0
  0
LINE
  5
C67
330
1F
100
AcDbEntity
  8
2
  6
CONTINUOUS
370
25
 62
7
100
AcDbLine
 10
54.49334786002314
 20
-65.78780265799537
 30
0.0
 11
55.0
 21
-66.29445479797224
 31
0.0
  0
LINE
  5
C68
330
1F
100
AcDbEntity
  8
2
  6
CONTINUOUS
370
25
 62
7
100
AcDbLine
 10
54.8469012506164
 20
-65.71709197987671
 30
0.0
 11
55.0
 21
-65.87019072926032
 31
0.0
  0
TEXT
  5
C69
330
1F
100
AcDbEntity
  8
2
  6
CONTINUOUS
370
25
 62
7
100
AcDbText
 10
56.9625
 20
-65.18647222999999
 30
0.0
 40
3.5
  1
3.5
 72
     1
 11
60.4625
 21
-65.18647222999999
 31
0.0
100
AcDbText
  0
LINE
  5
C6A
330
1F
100
AcDbEntity
  8
SK2
  6
CONTINUOUS
370
25
 62
7
100
AcDbLine
 10
-0.0000000000000033
 20
0.0
 30
0.0
 11
0.0000000000000014
 21
77.68647222999999
 31
0.0
  0
LINE
  5
C6B
330
1F
100
AcDbEntity
  8
SK2
  6
CONTINUOUS
370
25
 62
7
100
AcDbLine
 10
50.0
 20
77.68647222999999
 30
0.0
 11
50.0
 21
50.8
 31
0.0
  0
LINE
  5
C6C
330
1F
100
AcDbEntity
  8
SK2
  6
CONTINUOUS
370
25
 62
7
100
AcDbLine
 10
0.0
 20
76.68647222999999
 30
0.0
 11
50.0
 21
76.68647222999999
 31
0.0
  0
LINE
  5
C6D
330
1F
100
AcDbEntity
  8
SK2
  6
CONTINUOUS
370
25
 62
7
100
AcDbLine
 10
0.0
 20
76.68647222999999
 30
0.0
 11
5.0
 21
77.68647222999999
 31
0.0
  0
LINE
  5
C6E
330
1F
100
AcDbEntity
  8
SK2
  6
CONTINUOUS
370
25
 62
7
100
AcDbLine
 10
5.0
 20
77.68647222999999
 30
0.0
 11
5.0
 21
75.68647222999999
 31
0.0
  0
LINE
  5
C6F
330
1F
100
AcDbEntity
  8
SK2
  6
CONTINUOUS
370
25
 62
7
100
AcDbLine
 10
5.0
 20
75.68647222999999
 30
0.0
 11
0.0
 21
76.68647222999999
 31
0.0
  0
LINE
  5
C70
330
1F
100
AcDbEntity
  8
SK2
  6
CONTINUOUS
370
25
 62
7
100
AcDbLine
 10
4.861977295923055
 20
75.71407677081538
 30
0.0
 11
5.0
 21
75.85209947489233
 31
0.0
  0
LINE
  5
C71
330
1F
100
AcDbEntity
  8
SK2
  6
CONTINUOUS
370
25
 62
7
100
AcDbLine
 10
4.508423905329789
 20
75.78478744893404
 30
0.0
 11
5.0
 21
76.27636354360425
 31
0.0
  0
LINE
  5
C72
330
1F
100
AcDbEntity
  8
SK2
  6
CONTINUOUS
370
25
 62
7
100
AcDbLine
 10
4.154870514736509
 20
75.85549812705268
 30
0.0
 11
5.0
 21
76.70062761231618
 31
0.0
  0
LINE
  5
C73
330
1F
100
AcDbEntity
  8
SK2
  6
CONTINUOUS
370
25
 62
7
100
AcDbLine
 10
3.801317124143243
 20
75.92620880517134
 30
0.0
 11
5.0
 21
77.1248916810281
 31
0.0
  0
LINE
  5
C74
330
1F
100
AcDbEntity
  8
SK2
  6
CONTINUOUS
370
25
 62
7
100
AcDbLine
 10
3.447763733549976
 20
75.99691948329
 30
0.0
 11
5.0
 21
77.54915574974002
 31
0.0
  0
LINE
  5
C75
330
1F
100
AcDbEntity
  8
SK2
  6
CONTINUOUS
370
25
 62
7
100
AcDbLine
 10
3.094210342956696
 20
76.06763016140866
 30
0.0
 11
4.641315514435046
 21
77.61473533288701
 31
0.0
  0
LINE
  5
C76
330
1F
100
AcDbEntity
  8
SK2
  6
CONTINUOUS
370
25
 62
7
100
AcDbLine
 10
2.740656952363429
 20
76.1383408395273
 30
0.0
 11
4.110985428545145
 21
77.50866931570903
 31
0.0
  0
LINE
  5
C77
330
1F
100
AcDbEntity
  8
SK2
  6
CONTINUOUS
370
25
 62
7
100
AcDbLine
 10
2.387103561770162
 20
76.20905151764596
 30
0.0
 11
3.580655342655245
 21
77.40260329853105
 31
0.0
  0
LINE
  5
C78
330
1F
100
AcDbEntity
  8
SK2
  6
CONTINUOUS
370
25
 62
7
100
AcDbLine
 10
2.033550171176895
 20
76.27976219576462
 30
0.0
 11
3.050325256765344
 21
77.29653728135307
 31
0.0
  0
LINE
  5
C79
330
1F
100
AcDbEntity
  8
SK2
  6
CONTINUOUS
370
25
 62
7
100
AcDbLine
 10
1.679996780583616
 20
76.35047287388326
 30
0.0
 11
2.519995170875425
 21
77.19047126417507
 31
0.0
  0
LINE
  5
C7A
330
1F
100
AcDbEntity
  8
SK2
  6
CONTINUOUS
370
25
 62
7
100
AcDbLine
 10
1.326443389990348
 20
76.42118355200192
 30
0.0
 11
1.989665084985523
 21
77.0844052469971
 31
0.0
  0
LINE
  5
C7B
330
1F
100
AcDbEntity
  8
SK2
  6
CONTINUOUS
370
25
 62
7
100
AcDbLine
 10
0.972889999397081
 20
76.49189423012058
 30
0.0
 11
1.459334999095622
 21
76.97833922981911
 31
0.0
  0
LINE
  5
C7C
330
1F
100
AcDbEntity
  8
SK2
  6
CONTINUOUS
370
25
 62
7
100
AcDbLine
 10
0.6193366088038137
 20
76.56260490823922
 30
0.0
 11
0.9290049132057211
 21
76.87227321264113
 31
0.0
  0
LINE
  5
C7D
330
1F
100
AcDbEntity
  8
SK2
  6
CONTINUOUS
370
25
 62
7
100
AcDbLine
 10
0.2657832182105345
 20
76.63331558635788
 30
0.0
 11
0.398674827315802
 21
76.76620719546315
 31
0.0
  0
LINE
  5
C7E
330
1F
100
AcDbEntity
  8
SK2
  6
CONTINUOUS
370
25
 62
7
100
AcDbLine
 10
0.0877701723827566
 20
76.70402626447654
 30
0.0
 11
0.131655258574135
 21
76.66014117828516
 31
0.0
  0
LINE
  5
C7F
330
1F
100
AcDbEntity
  8
SK2
  6
CONTINUOUS
370
25
 62
7
100
AcDbLine
 10
0.4413235629760239
 20
76.7747369425952
 30
0.0
 11
0.6619853444640361
 21
76.55407516110718
 31
0.0
  0
LINE
  5
C80
330
1F
100
AcDbEntity
  8
SK2
  6
CONTINUOUS
370
25
 62
7
100
AcDbLine
 10
0.7948769535692912
 20
76.84544762071386
 30
0.0
 11
1.192315430353937
 21
76.4480091439292
 31
0.0
  0
LINE
  5
C81
330
1F
100
AcDbEntity
  8
SK2
  6
CONTINUOUS
370
25
 62
7
100
AcDbLine
 10
1.14843034416257
 20
76.91615829883251
 30
0.0
 11
1.722645516243856
 21
76.34194312675122
 31
0.0
  0
LINE
  5
C82
330
1F
100
AcDbEntity
  8
SK2
  6
CONTINUOUS
370
25
 62
7
100
AcDbLine
 10
1.501983734755837
 20
76.98686897695116
 30
0.0
 11
2.252975602133757
 21
76.23587710957324
 31
0.0
  0
LINE
  5
C83
330
1F
100
AcDbEntity
  8
SK2
  6
CONTINUOUS
370
25
 62
7
100
AcDbLine
 10
1.855537125349105
 20
77.05757965506982
 30
0.0
 11
2.783305688023658
 21
76.12981109239526
 31
0.0
  0
LINE
  5
C84
330
1F
100
AcDbEntity
  8
SK2
  6
CONTINUOUS
370
25
 62
7
100
AcDbLine
 10
2.209090515942372
 20
77.12829033318847
 30
0.0
 11
3.313635773913559
 21
76.02374507521728
 31
0.0
  0
LINE
  5
C85
330
1F
100
AcDbEntity
  8
SK2
  6
CONTINUOUS
370
25
 62
7
100
AcDbLine
 10
2.562643906535651
 20
77.19900101130712
 30
0.0
 11
3.843965859803477
 21
75.9176790580393
 31
0.0
  0
LINE
  5
C86
330
1F
100
AcDbEntity
  8
SK2
  6
CONTINUOUS
370
25
 62
7
100
AcDbLine
 10
2.916197297128918
 20
77.26971168942578
 30
0.0
 11
4.374295945693378
 21
75.81161304086132
 31
0.0
  0
LINE
  5
C87
330
1F
100
AcDbEntity
  8
SK2
  6
CONTINUOUS
370
25
 62
7
100
AcDbLine
 10
3.269750687722185
 20
77.34042236754443
 30
0.0
 11
4.904626031583279
 21
75.70554702368334
 31
0.0
  0
LINE
  5
C88
330
1F
100
AcDbEntity
  8
SK2
  6
CONTINUOUS
370
25
 62
7
100
AcDbLine
 10
3.623304078315452
 20
77.41113304566308
 30
0.0
 11
5.0
 21
76.03443712397853
 31
0.0
  0
LINE
  5
C89
330
1F
100
AcDbEntity
  8
SK2
  6
CONTINUOUS
370
25
 62
7
100
AcDbLine
 10
3.976857468908732
 20
77.48184372378174
 30
0.0
 11
5.0
 21
76.45870119269047
 31
0.0
  0
LINE
  5
C8A
330
1F
100
AcDbEntity
  8
SK2
  6
CONTINUOUS
370
25
 62
7
100
AcDbLine
 10
4.330410859501999
 20
77.5525544019004
 30
0.0
 11
5.0
 21
76.88296526140239
 31
0.0
  0
LINE
  5
C8B
330
1F
100
AcDbEntity
  8
SK2
  6
CONTINUOUS
370
25
 62
7
100
AcDbLine
 10
4.683964250095266
 20
77.62326508001905
 30
0.0
 11
5.0
 21
77.30722933011431
 31
0.0
  0
LINE
  5
C8C
330
1F
100
AcDbEntity
  8
SK2
  6
CONTINUOUS
370
25
 62
7
100
AcDbLine
 10
50.0
 20
76.68647222999999
 30
0.0
 11
45.0
 21
75.68647222999999
 31
0.0
  0
LINE
  5
C8D
330
1F
100
AcDbEntity
  8
SK2
  6
CONTINUOUS
370
25
 62
7
100
AcDbLine
 10
45.0
 20
75.68647222999999
 30
0.0
 11
45.0
 21
77.68647222999999
 31
0.0
  0
LINE
  5
C8E
330
1F
100
AcDbEntity
  8
SK2
  6
CONTINUOUS
370
25
 62
7
100
AcDbLine
 10
45.0
 20
77.68647222999999
 30
0.0
 11
50.0
 21
76.68647222999999
 31
0.0
  0
LINE
  5
C8F
330
1F
100
AcDbEntity
  8
SK2
  6
CONTINUOUS
370
25
 62
7
100
AcDbLine
 10
49.94729487643485
 20
76.67593120528696
 30
0.0
 11
49.96486325095657
 21
76.69349957980867
 31
0.0
  0
LINE
  5
C90
330
1F
100
AcDbEntity
  8
SK2
  6
CONTINUOUS
370
25
 62
7
100
AcDbLine
 10
49.41696479054494
 20
76.56986518810898
 30
0.0
 11
49.6113098603633
 21
76.76421025792735
 31
0.0
  0
LINE
  5
C91
330
1F
100
AcDbEntity
  8
SK2
  6
CONTINUOUS
370
25
 62
7
100
AcDbLine
 10
48.88663470465503
 20
76.463799170931
 30
0.0
 11
49.25775646977002
 21
76.83492093604599
 31
0.0
  0
LINE
  5
C92
330
1F
100
AcDbEntity
  8
SK2
  6
CONTINUOUS
370
25
 62
7
100
AcDbLine
 10
48.35630461876512
 20
76.35773315375302
 30
0.0
 11
48.90420307917675
 21
76.90563161416465
 31
0.0
  0
LINE
  5
C93
330
1F
100
AcDbEntity
  8
SK2
  6
CONTINUOUS
370
25
 62
7
100
AcDbLine
 10
47.82597453287521
 20
76.25166713657504
 30
0.0
 11
48.55064968858348
 21
76.9763422922833
 31
0.0
  0
LINE
  5
C94
330
1F
100
AcDbEntity
  8
SK2
  6
CONTINUOUS
370
25
 62
7
100
AcDbLine
 10
47.2956444469853
 20
76.14560111939704
 30
0.0
 11
48.19709629799021
 21
77.04705297040195
 31
0.0
  0
LINE
  5
C95
330
1F
100
AcDbEntity
  8
SK2
  6
CONTINUOUS
370
25
 62
7
100
AcDbLine
 10
46.76531436109539
 20
76.03953510221908
 30
0.0
 11
47.84354290739693
 21
77.11776364852061
 31
0.0
  0
LINE
  5
C96
330
1F
100
AcDbEntity
  8
SK2
  6
CONTINUOUS
370
25
 62
7
100
AcDbLine
 10
46.23498427520548
 20
75.93346908504108
 30
0.0
 11
47.48998951680366
 21
77.18847432663927
 31
0.0
  0
LINE
  5
C97
330
1F
100
AcDbEntity
  8
SK2
  6
CONTINUOUS
370
25
 62
7
100
AcDbLine
 10
45.70465418931557
 20
75.8274030678631
 30
0.0
 11
47.13643612621038
 21
77.25918500475791
 31
0.0
  0
LINE
  5
C98
330
1F
100
AcDbEntity
  8
SK2
  6
CONTINUOUS
370
25
 62
7
100
AcDbLine
 10
45.17432410342566
 20
75.72133705068512
 30
0.0
 11
46.78288273561711
 21
77.32989568287658
 31
0.0
  0
LINE
  5
C99
330
1F
100
AcDbEntity
  8
SK2
  6
CONTINUOUS
370
25
 62
7
100
AcDbLine
 10
45.0
 20
75.9712770159714
 30
0.0
 11
46.42932934502384
 21
77.40060636099523
 31
0.0
  0
LINE
  5
C9A
330
1F
100
AcDbEntity
  8
SK2
  6
CONTINUOUS
370
25
 62
7
100
AcDbLine
 10
45.0
 20
76.39554108468332
 30
0.0
 11
46.07577595443057
 21
77.47131703911388
 31
0.0
  0
LINE
  5
C9B
330
1F
100
AcDbEntity
  8
SK2
  6
CONTINUOUS
370
25
 62
7
100
AcDbLine
 10
45.0
 20
76.81980515339524
 30
0.0
 11
45.72222256383729
 21
77.54202771723254
 31
0.0
  0
LINE
  5
C9C
330
1F
100
AcDbEntity
  8
SK2
  6
CONTINUOUS
370
25
 62
7
100
AcDbLine
 10
45.0
 20
77.24406922210717
 30
0.0
 11
45.36866917324402
 21
77.61273839535119
 31
0.0
  0
LINE
  5
C9D
330
1F
100
AcDbEntity
  8
SK2
  6
CONTINUOUS
370
25
 62
7
100
AcDbLine
 10
45.0
 20
77.6683332908191
 30
0.0
 11
45.01511578265075
 21
77.68344907346984
 31
0.0
  0
LINE
  5
C9E
330
1F
100
AcDbEntity
  8
SK2
  6
CONTINUOUS
370
25
 62
7
100
AcDbLine
 10
45.0
 20
75.91525958289975
 30
0.0
 11
45.19065612741647
 21
75.72460345548328
 31
0.0
  0
LINE
  5
C9F
330
1F
100
AcDbEntity
  8
SK2
  6
CONTINUOUS
370
25
 62
7
100
AcDbLine
 10
45.0
 20
76.33952365161167
 30
0.0
 11
45.54420951800974
 21
75.79531413360193
 31
0.0
  0
LINE
  5
CA0
330
1F
100
AcDbEntity
  8
SK2
  6
CONTINUOUS
370
25
 62
7
100
AcDbLine
 10
45.0
 20
76.76378772032359
 30
0.0
 11
45.897762908603
 21
75.86602481172059
 31
0.0
  0
LINE
  5
CA1
330
1F
100
AcDbEntity
  8
SK2
  6
CONTINUOUS
370
25
 62
7
100
AcDbLine
 10
45.0
 20
77.18805178903553
 30
0.0
 11
46.25131629919628
 21
75.93673548983924
 31
0.0
  0
LINE
  5
CA2
330
1F
100
AcDbEntity
  8
SK2
  6
CONTINUOUS
370
25
 62
7
100
AcDbLine
 10
45.0
 20
77.61231585774746
 30
0.0
 11
46.60486968978956
 21
76.00744616795791
 31
0.0
  0
LINE
  5
CA3
330
1F
100
AcDbEntity
  8
SK2
  6
CONTINUOUS
370
25
 62
7
100
AcDbLine
 10
45.43763462057424
 20
77.59894530588514
 30
0.0
 11
46.95842308038283
 21
76.07815684607655
 31
0.0
  0
LINE
  5
CA4
330
1F
100
AcDbEntity
  8
SK2
  6
CONTINUOUS
370
25
 62
7
100
AcDbLine
 10
45.96796470646414
 20
77.49287928870717
 30
0.0
 11
47.31197647097609
 21
76.14886752419521
 31
0.0
  0
LINE
  5
CA5
330
1F
100
AcDbEntity
  8
SK2
  6
CONTINUOUS
370
25
 62
7
100
AcDbLine
 10
46.49829479235405
 20
77.38681327152918
 30
0.0
 11
47.66552986156938
 21
76.21957820231387
 31
0.0
  0
LINE
  5
CA6
330
1F
100
AcDbEntity
  8
SK2
  6
CONTINUOUS
370
25
 62
7
100
AcDbLine
 10
47.02862487824397
 20
77.2807472543512
 30
0.0
 11
48.01908325216265
 21
76.29028888043251
 31
0.0
  0
LINE
  5
CA7
330
1F
100
AcDbEntity
  8
SK2
  6
CONTINUOUS
370
25
 62
7
100
AcDbLine
 10
47.55895496413387
 20
77.17468123717322
 30
0.0
 11
48.37263664275592
 21
76.36099955855117
 31
0.0
  0
LINE
  5
CA8
330
1F
100
AcDbEntity
  8
SK2
  6
CONTINUOUS
370
25
 62
7
100
AcDbLine
 10
48.08928505002378
 20
77.06861521999524
 30
0.0
 11
48.72619003334918
 21
76.43171023666983
 31
0.0
  0
LINE
  5
CA9
330
1F
100
AcDbEntity
  8
SK2
  6
CONTINUOUS
370
25
 62
7
100
AcDbLine
 10
48.61961513591369
 20
76.96254920281726
 30
0.0
 11
49.07974342394247
 21
76.50242091478847
 31
0.0
  0
LINE
  5
CAA
330
1F
100
AcDbEntity
  8
SK2
  6
CONTINUOUS
370
25
 62
7
100
AcDbLine
 10
49.14994522180361
 20
76.85648318563926
 30
0.0
 11
49.43329681453574
 21
76.57313159290715
 31
0.0
  0
LINE
  5
CAB
330
1F
100
AcDbEntity
  8
SK2
  6
CONTINUOUS
370
25
 62
7
100
AcDbLine
 10
49.68027530769351
 20
76.7504171684613
 30
0.0
 11
49.78685020512901
 21
76.64384227102579
 31
0.0
  0
TEXT
  5
CAC
330
1F
100
AcDbEntity
  8
SK2
  6
CONTINUOUS
370
25
 62
7
100
AcDbText
 10
22.375
 20
78.18647222999999
 30
0.0
 40
3.5
  1
50
 72
     1
 11
25.0
 21
78.18647222999999
 31
0.0
100
AcDbText
  0
LINE
  5
CAD
330
1F
100
AcDbEntity
  8
2
  6
CONTINUOUS
370
25
 62
7
100
AcDbLine
 10
19.248
 20
-39.04684381
 30
0.0
 11
19.248
 21
-77.68647222999999
 31
0.0
  0
LINE
  5
CAE
330
1F
100
AcDbEntity
  8
2
  6
CONTINUOUS
370
25
 62
7
100
AcDbLine
 10
47.778
 20
-77.68647222999999
 30
0.0
 11
47.778
 21
-50.8
 31
0.0
  0
LINE
  5
CAF
330
1F
100
AcDbEntity
  8
2
  6
CONTINUOUS
370
25
 62
7
100
AcDbLine
 10
19.248
 20
-76.68647222999999
 30
0.0
 11
47.778
 21
-76.68647222999999
 31
0.0
  0
LINE
  5
CB0
330
1F
100
AcDbEntity
  8
2
  6
CONTINUOUS
370
25
 62
7
100
AcDbLine
 10
19.248
 20
-76.68647222999999
 30
0.0
 11
24.248
 21
-75.68647222999999
 31
0.0
  0
LINE
  5
CB1
330
1F
100
AcDbEntity
  8
2
  6
CONTINUOUS
370
25
 62
7
100
AcDbLine
 10
24.248
 20
-75.68647222999999
 30
0.0
 11
24.248
 21
-77.68647222999999
 31
0.0
  0
LINE
  5
CB2
330
1F
100
AcDbEntity
  8
2
  6
CONTINUOUS
370
25
 62
7
100
AcDbLine
 10
24.248
 20
-77.68647222999999
 30
0.0
 11
19.248
 21
-76.68647222999999
 31
0.0
  0
LINE
  5
CB3
330
1F
100
AcDbEntity
  8
2
  6
CONTINUOUS
370
25
 62
7
100
AcDbLine
 10
24.07416160414817
 20
-77.65170455082963
 30
0.0
 11
24.248
 21
-77.4778661549778
 31
0.0
  0
LINE
  5
CB4
330
1F
100
AcDbEntity
  8
2
  6
CONTINUOUS
370
25
 62
7
100
AcDbLine
 10
23.7206082135549
 20
-77.58099387271098
 30
0.0
 11
24.248
 21
-77.05360208626588
 31
0.0
  0
LINE
  5
CB5
330
1F
100
AcDbEntity
  8
2
  6
CONTINUOUS
370
25
 62
7
100
AcDbLine
 10
23.36705482296162
 20
-77.51028319459232
 30
0.0
 11
24.248
 21
-76.62933801755395
 31
0.0
  0
LINE
  5
CB6
330
1F
100
AcDbEntity
  8
2
  6
CONTINUOUS
370
25
 62
7
100
AcDbLine
 10
23.01350143236835
 20
-77.43957251647367
 30
0.0
 11
24.248
 21
-76.20507394884203
 31
0.0
  0
LINE
  5
CB7
330
1F
100
AcDbEntity
  8
2
  6
CONTINUOUS
370
25
 62
7
100
AcDbLine
 10
22.65994804177508
 20
-77.36886183835502
 30
0.0
 11
24.248
 21
-75.7808098801301
 31
0.0
  0
LINE
  5
CB8
330
1F
100
AcDbEntity
  8
2
  6
CONTINUOUS
370
25
 62
7
100
AcDbLine
 10
22.3063946511818
 20
-77.29815116023636
 30
0.0
 11
23.83559197677273
 21
-75.76895383464544
 31
0.0
  0
LINE
  5
CB9
330
1F
100
AcDbEntity
  8
2
  6
CONTINUOUS
370
25
 62
7
100
AcDbLine
 10
21.95284126058854
 20
-77.22744048211771
 30
0.0
 11
23.30526189088283
 21
-75.87501985182342
 31
0.0
  0
LINE
  5
CBA
330
1F
100
AcDbEntity
  8
2
  6
CONTINUOUS
370
25
 62
7
100
AcDbLine
 10
21.59928786999527
 20
-77.15672980399906
 30
0.0
 11
22.77493180499292
 21
-75.9810858690014
 31
0.0
  0
LINE
  5
CBB
330
1F
100
AcDbEntity
  8
2
  6
CONTINUOUS
370
25
 62
7
100
AcDbLine
 10
21.245734479402
 20
-77.0860191258804
 30
0.0
 11
22.24460171910302
 21
-76.08715188617938
 31
0.0
  0
LINE
  5
CBC
330
1F
100
AcDbEntity
  8
2
  6
CONTINUOUS
370
25
 62
7
100
AcDbLine
 10
20.89218108880874
 20
-77.01530844776175
 30
0.0
 11
21.71427163321312
 21
-76.19321790335736
 31
0.0
  0
LINE
  5
CBD
330
1F
100
AcDbEntity
  8
2
  6
CONTINUOUS
370
25
 62
7
100
AcDbLine
 10
20.53862769821546
 20
-76.94459776964308
 30
0.0
 11
21.1839415473232
 21
-76.29928392053534
 31
0.0
  0
LINE
  5
CBE
330
1F
100
AcDbEntity
  8
2
  6
CONTINUOUS
370
25
 62
7
100
AcDbLine
 10
20.18507430762219
 20
-76.87388709152444
 30
0.0
 11
20.6536114614333
 21
-76.40534993771332
 31
0.0
  0
LINE
  5
CBF
330
1F
100
AcDbEntity
  8
2
  6
CONTINUOUS
370
25
 62
7
100
AcDbLine
 10
19.83152091702892
 20
-76.80317641340578
 30
0.0
 11
20.1232813755434
 21
-76.5114159548913
 31
0.0
  0
LINE
  5
CC0
330
1F
100
AcDbEntity
  8
2
  6
CONTINUOUS
370
25
 62
7
100
AcDbLine
 10
19.47796752643564
 20
-76.73246573528712
 30
0.0
 11
19.59295128965348
 21
-76.61748197206929
 31
0.0
  0
LINE
  5
CC1
330
1F
100
AcDbEntity
  8
2
  6
CONTINUOUS
370
25
 62
7
100
AcDbLine
 10
19.47983266985775
 20
-76.64010569602844
 30
0.0
 11
19.59574900478664
 21
-76.75602203095733
 31
0.0
  0
LINE
  5
CC2
330
1F
100
AcDbEntity
  8
2
  6
CONTINUOUS
370
25
 62
7
100
AcDbLine
 10
19.83338606045103
 20
-76.56939501790978
 30
0.0
 11
20.12607909067655
 21
-76.8620880481353
 31
0.0
  0
LINE
  5
CC3
330
1F
100
AcDbEntity
  8
2
  6
CONTINUOUS
370
25
 62
7
100
AcDbLine
 10
20.18693945104429
 20
-76.49868433979113
 30
0.0
 11
20.65640917656645
 21
-76.96815406531329
 31
0.0
  0
LINE
  5
CC4
330
1F
100
AcDbEntity
  8
2
  6
CONTINUOUS
370
25
 62
7
100
AcDbLine
 10
20.54049284163756
 20
-76.42797366167248
 30
0.0
 11
21.18673926245635
 21
-77.07422008249127
 31
0.0
  0
LINE
  5
CC5
330
1F
100
AcDbEntity
  8
2
  6
CONTINUOUS
370
25
 62
7
100
AcDbLine
 10
20.89404623223083
 20
-76.35726298355382
 30
0.0
 11
21.71706934834626
 21
-77.18028609966925
 31
0.0
  0
LINE
  5
CC6
330
1F
100
AcDbEntity
  8
2
  6
CONTINUOUS
370
25
 62
7
100
AcDbLine
 10
21.24759962282411
 20
-76.28655230543517
 30
0.0
 11
22.24739943423617
 21
-77.28635211684723
 31
0.0
  0
LINE
  5
CC7
330
1F
100
AcDbEntity
  8
2
  6
CONTINUOUS
370
25
 62
7
100
AcDbLine
 10
21.60115301341738
 20
-76.21584162731651
 30
0.0
 11
22.77772952012608
 21
-77.3924181340252
 31
0.0
  0
LINE
  5
CC8
330
1F
100
AcDbEntity
  8
2
  6
CONTINUOUS
370
25
 62
7
100
AcDbLine
 10
21.95470640401064
 20
-76.14513094919786
 30
0.0
 11
23.30805960601598
 21
-77.4984841512032
 31
0.0
  0
LINE
  5
CC9
330
1F
100
AcDbEntity
  8
2
  6
CONTINUOUS
370
25
 62
7
100
AcDbLine
 10
22.30825979460391
 20
-76.0744202710792
 30
0.0
 11
23.83838969190588
 21
-77.60455016838117
 31
0.0
  0
LINE
  5
CCA
330
1F
100
AcDbEntity
  8
2
  6
CONTINUOUS
370
25
 62
7
100
AcDbLine
 10
22.66181318519718
 20
-76.00370959296055
 30
0.0
 11
24.248
 21
-77.58989640776336
 31
0.0
  0
LINE
  5
CCB
330
1F
100
AcDbEntity
  8
2
  6
CONTINUOUS
370
25
 62
7
100
AcDbLine
 10
23.01536657579046
 20
-75.9329989148419
 30
0.0
 11
24.248
 21
-77.16563233905143
 31
0.0
  0
LINE
  5
CCC
330
1F
100
AcDbEntity
  8
2
  6
CONTINUOUS
370
25
 62
7
100
AcDbLine
 10
23.36891996638373
 20
-75.86228823672324
 30
0.0
 11
24.248
 21
-76.7413682703395
 31
0.0
  0
LINE
  5
CCD
330
1F
100
AcDbEntity
  8
2
  6
CONTINUOUS
370
25
 62
7
100
AcDbLine
 10
23.72247335697699
 20
-75.79157755860459
 30
0.0
 11
24.248
 21
-76.31710420162759
 31
0.0
  0
LINE
  5
CCE
330
1F
100
AcDbEntity
  8
2
  6
CONTINUOUS
370
25
 62
7
100
AcDbLine
 10
24.07602674757027
 20
-75.72086688048594
 30
0.0
 11
24.248
 21
-75.89284013291567
 31
0.0
  0
LINE
  5
CCF
330
1F
100
AcDbEntity
  8
2
  6
CONTINUOUS
370
25
 62
7
100
AcDbLine
 10
47.778
 20
-76.68647222999999
 30
0.0
 11
42.778
 21
-77.68647222999999
 31
0.0
  0
LINE
  5
CD0
330
1F
100
AcDbEntity
  8
2
  6
CONTINUOUS
370
25
 62
7
100
AcDbLine
 10
42.778
 20
-77.68647222999999
 30
0.0
 11
42.778
 21
-75.68647222999999
 31
0.0
  0
LINE
  5
CD1
330
1F
100
AcDbEntity
  8
2
  6
CONTINUOUS
370
25
 62
7
100
AcDbLine
 10
42.778
 20
-75.68647222999999
 30
0.0
 11
47.778
 21
-76.68647222999999
 31
0.0
  0
LINE
  5
CD2
330
1F
100
AcDbEntity
  8
2
  6
CONTINUOUS
370
25
 62
7
100
AcDbLine
 10
47.4205974246075
 20
-76.75795274507848
 30
0.0
 11
47.539731616405
 21
-76.638818553281
 31
0.0
  0
LINE
  5
CD3
330
1F
100
AcDbEntity
  8
2
  6
CONTINUOUS
370
25
 62
7
100
AcDbLine
 10
46.8902673387176
 20
-76.86401876225648
 30
0.0
 11
47.18617822581173
 21
-76.56810787516234
 31
0.0
  0
LINE
  5
CD4
330
1F
100
AcDbEntity
  8
2
  6
CONTINUOUS
370
25
 62
7
100
AcDbLine
 10
46.3599372528277
 20
-76.97008477943444
 30
0.0
 11
46.83262483521847
 21
-76.49739719704368
 31
0.0
  0
LINE
  5
CD5
330
1F
100
AcDbEntity
  8
2
  6
CONTINUOUS
370
25
 62
7
100
AcDbLine
 10
45.82960716693778
 20
-77.07615079661244
 30
0.0
 11
46.47907144462518
 21
-76.42668651892504
 31
0.0
  0
LINE
  5
CD6
330
1F
100
AcDbEntity
  8
2
  6
CONTINUOUS
370
25
 62
7
100
AcDbLine
 10
45.29927708104786
 20
-77.18221681379042
 30
0.0
 11
46.12551805403191
 21
-76.35597584080637
 31
0.0
  0
LINE
  5
CD7
330
1F
100
AcDbEntity
  8
2
  6
CONTINUOUS
370
25
 62
7
100
AcDbLine
 10
44.76894699515796
 20
-77.2882828309684
 30
0.0
 11
45.77196466343864
 21
-76.28526516268772
 31
0.0
  0
LINE
  5
CD8
330
1F
100
AcDbEntity
  8
2
  6
CONTINUOUS
370
25
 62
7
100
AcDbLine
 10
44.23861690926806
 20
-77.39434884814638
 30
0.0
 11
45.41841127284538
 21
-76.21455448456906
 31
0.0
  0
LINE
  5
CD9
330
1F
100
AcDbEntity
  8
2
  6
CONTINUOUS
370
25
 62
7
100
AcDbLine
 10
43.70828682337814
 20
-77.50041486532436
 30
0.0
 11
45.06485788225209
 21
-76.1438438064504
 31
0.0
  0
LINE
  5
CDA
330
1F
100
AcDbEntity
  8
2
  6
CONTINUOUS
370
25
 62
7
100
AcDbLine
 10
43.17795673748822
 20
-77.60648088250235
 30
0.0
 11
44.71130449165882
 21
-76.07313312833176
 31
0.0
  0
LINE
  5
CDB
330
1F
100
AcDbEntity
  8
2
  6
CONTINUOUS
370
25
 62
7
100
AcDbLine
 10
42.778
 20
-77.58217355127866
 30
0.0
 11
44.35775110106555
 21
-76.0024224502131
 31
0.0
  0
LINE
  5
CDC
330
1F
100
AcDbEntity
  8
2
  6
CONTINUOUS
370
25
 62
7
100
AcDbLine
 10
42.778
 20
-77.15790948256674
 30
0.0
 11
44.00419771047228
 21
-75.93171177209445
 31
0.0
  0
LINE
  5
CDD
330
1F
100
AcDbEntity
  8
2
  6
CONTINUOUS
370
25
 62
7
100
AcDbLine
 10
42.778
 20
-76.73364541385479
 30
0.0
 11
43.650644319879
 21
-75.8610010939758
 31
0.0
  0
LINE
  5
CDE
330
1F
100
AcDbEntity
  8
2
  6
CONTINUOUS
370
25
 62
7
100
AcDbLine
 10
42.778
 20
-76.30938134514287
 30
0.0
 11
43.29709092928572
 21
-75.79029041585713
 31
0.0
  0
LINE
  5
CDF
330
1F
100
AcDbEntity
  8
2
  6
CONTINUOUS
370
25
 62
7
100
AcDbLine
 10
42.778
 20
-75.88511727643095
 30
0.0
 11
42.94353753869245
 21
-75.71957973773848
 31
0.0
  0
LINE
  5
CE0
330
1F
100
AcDbEntity
  8
2
  6
CONTINUOUS
370
25
 62
7
100
AcDbLine
 10
42.778
 20
-77.48558901146211
 30
0.0
 11
42.9454026821149
 21
-77.65299169357701
 31
0.0
  0
LINE
  5
CE1
330
1F
100
AcDbEntity
  8
2
  6
CONTINUOUS
370
25
 62
7
100
AcDbLine
 10
42.778
 20
-77.06132494275019
 30
0.0
 11
43.29895607270817
 21
-77.58228101545836
 31
0.0
  0
LINE
  5
CE2
330
1F
100
AcDbEntity
  8
2
  6
CONTINUOUS
370
25
 62
7
100
AcDbLine
 10
42.778
 20
-76.63706087403827
 30
0.0
 11
43.65250946330144
 21
-77.5115703373397
 31
0.0
  0
LINE
  5
CE3
330
1F
100
AcDbEntity
  8
2
  6
CONTINUOUS
370
25
 62
7
100
AcDbLine
 10
42.778
 20
-76.21279680532633
 30
0.0
 11
44.00606285389471
 21
-77.44085965922105
 31
0.0
  0
LINE
  5
CE4
330
1F
100
AcDbEntity
  8
2
  6
CONTINUOUS
370
25
 62
7
100
AcDbLine
 10
42.778
 20
-75.7885327366144
 30
0.0
 11
44.35961624448799
 21
-77.3701489811024
 31
0.0
  0
LINE
  5
CE5
330
1F
100
AcDbEntity
  8
2
  6
CONTINUOUS
370
25
 62
7
100
AcDbLine
 10
43.18075445262189
 20
-75.76702312052437
 30
0.0
 11
44.71316963508126
 21
-77.29943830298373
 31
0.0
  0
LINE
  5
CE6
330
1F
100
AcDbEntity
  8
2
  6
CONTINUOUS
370
25
 62
7
100
AcDbLine
 10
43.7110845385118
 20
-75.87308913770235
 30
0.0
 11
45.06672302567453
 21
-77.22872762486509
 31
0.0
  0
LINE
  5
CE7
330
1F
100
AcDbEntity
  8
2
  6
CONTINUOUS
370
25
 62
7
100
AcDbLine
 10
44.24141462440171
 20
-75.97915515488033
 30
0.0
 11
45.4202764162678
 21
-77.15801694674643
 31
0.0
  0
LINE
  5
CE8
330
1F
100
AcDbEntity
  8
2
  6
CONTINUOUS
370
25
 62
7
100
AcDbLine
 10
44.77174471029162
 20
-76.08522117205831
 30
0.0
 11
45.77382980686108
 21
-77.08730626862777
 31
0.0
  0
LINE
  5
CE9
330
1F
100
AcDbEntity
  8
2
  6
CONTINUOUS
370
25
 62
7
100
AcDbLine
 10
45.30207479618153
 20
-76.1912871892363
 30
0.0
 11
46.12738319745435
 21
-77.01659559050913
 31
0.0
  0
LINE
  5
CEA
330
1F
100
AcDbEntity
  8
2
  6
CONTINUOUS
370
25
 62
7
100
AcDbLine
 10
45.83240488207144
 20
-76.29735320641427
 30
0.0
 11
46.48093658804763
 21
-76.94588491239047
 31
0.0
  0
LINE
  5
CEB
330
1F
100
AcDbEntity
  8
2
  6
CONTINUOUS
370
25
 62
7
100
AcDbLine
 10
46.36273496796134
 20
-76.40341922359227
 30
0.0
 11
46.8344899786409
 21
-76.87517423427181
 31
0.0
  0
LINE
  5
CEC
330
1F
100
AcDbEntity
  8
2
  6
CONTINUOUS
370
25
 62
7
100
AcDbLine
 10
46.89306505385126
 20
-76.50948524077025
 30
0.0
 11
47.18804336923417
 21
-76.80446355615317
 31
0.0
  0
LINE
  5
CED
330
1F
100
AcDbEntity
  8
2
  6
CONTINUOUS
370
25
 62
7
100
AcDbLine
 10
47.42339513974117
 20
-76.61555125794823
 30
0.0
 11
47.54159675982744
 21
-76.7337528780345
 31
0.0
  0
TEXT
  5
CEE
330
1F
100
AcDbEntity
  8
2
  6
CONTINUOUS
370
25
 62
7
100
AcDbText
 10
26.513
 20
-75.18647222999999
 30
0.0
 40
3.5
  1
28.53
 72
     1
 11
33.513
 21
-75.18647222999999
 31
0.0
100
AcDbText
  0
LINE
  5
CEF
330
1F
100
AcDbEntity
  8
2
  6
CONTINUOUS
370
25
 62
7
100
AcDbLine
 10
50.0
 20
50.8
 30
0.0
 11
68.64084068090963
 21
73.01528885045036
 31
0.0
  0
LINE
  5
CF0
330
1F
100
AcDbEntity
  8
2
  6
CONTINUOUS
370
25
 62
7
100
AcDbLine
 10
68.64084068090963
 20
73.01528885045036
 30
0.0
 11
82.06584068090963
 21
73.01528885045036
 31
0.0
  0
LINE
  5
CF1
330
1F
100
AcDbEntity
  8
2
  6
CONTINUOUS
370
25
 62
7
100
AcDbLine
 10
50.0
 20
50.8
 30
0.0
 11
49.48576991225077
 21
50.18716444550481
 31
0.0
  0
LINE
  5
CF2
330
1F
100
AcDbEntity
  8
2
  6
CONTINUOUS
370
25
 62
7
100
AcDbLine
 10
50.0
 20
50.8
 30
0.0
 11
52.44789360531372
 21
55.27300982528142
 31
0.0
  0
LINE
  5
CF3
330
1F
100
AcDbEntity
  8
2
  6
CONTINUOUS
370
25
 62
7
100
AcDbLine
 10
52.44789360531372
 20
55.27300982528142
 30
0.0
 11
53.97998249155167
 21
53.98743460590835
 31
0.0
  0
LINE
  5
CF4
330
1F
100
AcDbEntity
  8
2
  6
CONTINUOUS
370
25
 62
7
100
AcDbLine
 10
53.97998249155167
 20
53.98743460590835
 30
0.0
 11
50.0
 21
50.8
 31
0.0
  0
LINE
  5
CF5
330
1F
100
AcDbEntity
  8
2
  6
CONTINUOUS
370
25
 62
7
100
AcDbLine
 10
51.9299506752585
 20
52.34563282202199
 30
0.0
 11
53.75800972537506
 21
54.17369187213855
 31
0.0
  0
LINE
  5
CF6
330
1F
100
AcDbEntity
  8
2
  6
CONTINUOUS
370
25
 62
7
100
AcDbLine
 10
50.04828566600506
 20
50.88823188148048
 30
0.0
 11
53.52731854284225
 21
54.36726475831767
 31
0.0
  0
LINE
  5
CF7
330
1F
100
AcDbEntity
  8
2
  6
CONTINUOUS
370
25
 62
7
100
AcDbLine
 10
50.56112206054092
 20
51.82533234472827
 30
0.0
 11
53.29662736030944
 21
54.5608376444968
 31
0.0
  0
LINE
  5
CF8
330
1F
100
AcDbEntity
  8
2
  6
CONTINUOUS
370
25
 62
7
100
AcDbLine
 10
51.07395845507677
 20
52.76243280797606
 30
0.0
 11
53.06593617777663
 21
54.75441053067593
 31
0.0
  0
LINE
  5
CF9
330
1F
100
AcDbEntity
  8
2
  6
CONTINUOUS
370
25
 62
7
100
AcDbLine
 10
51.58679484961263
 20
53.69953327122386
 30
0.0
 11
52.83524499524383
 21
54.94798341685506
 31
0.0
  0
LINE
  5
CFA
330
1F
100
AcDbEntity
  8
2
  6
CONTINUOUS
370
25
 62
7
100
AcDbLine
 10
52.09963124414849
 20
54.63663373447165
 30
0.0
 11
52.60455381271102
 21
55.14155630303419
 31
0.0
  0
LINE
  5
CFB
330
1F
100
AcDbEntity
  8
2
  6
CONTINUOUS
370
25
 62
7
100
AcDbLine
 10
50.06184310626136
 20
50.91300524717763
 30
0.0
 11
50.09709123606194
 21
50.87775711737704
 31
0.0
  0
LINE
  5
CFC
330
1F
100
AcDbEntity
  8
2
  6
CONTINUOUS
370
25
 62
7
100
AcDbLine
 10
50.21190347210511
 20
51.18720895004582
 30
0.0
 11
50.33268008798831
 21
51.06643233416263
 31
0.0
  0
LINE
  5
CFD
330
1F
100
AcDbEntity
  8
2
  6
CONTINUOUS
370
25
 62
7
100
AcDbLine
 10
50.36196383794886
 20
51.461412652914
 30
0.0
 11
50.56826893991466
 21
51.2551075509482
 31
0.0
  0
LINE
  5
CFE
330
1F
100
AcDbEntity
  8
2
  6
CONTINUOUS
370
25
 62
7
100
AcDbLine
 10
50.51202420379259
 20
51.73561635578221
 30
0.0
 11
50.80385779184103
 21
51.44378276773377
 31
0.0
  0
LINE
  5
CFF
330
1F
100
AcDbEntity
  8
2
  6
CONTINUOUS
370
25
 62
7
100
AcDbLine
 10
50.66208456963633
 20
52.00982005865039
 30
0.0
 11
51.03944664376738
 21
51.63245798451934
 31
0.0
  0
LINE
  5
D00
330
1F
100
AcDbEntity
  8
2
  6
CONTINUOUS
370
25
 62
7
100
AcDbLine
 10
50.81214493548009
 20
52.28402376151858
 30
0.0
 11
51.27503549569375
 21
51.82113320130492
 31
0.0
  0
LINE
  5
D01
330
1F
100
AcDbEntity
  8
2
  6
CONTINUOUS
370
25
 62
7
100
AcDbLine
 10
50.96220530132383
 20
52.55822746438677
 30
0.0
 11
51.51062434762011
 21
52.00980841809049
 31
0.0
  0
LINE
  5
D02
330
1F
100
AcDbEntity
  8
2
  6
CONTINUOUS
370
25
 62
7
100
AcDbLine
 10
51.11226566716757
 20
52.83243116725497
 30
0.0
 11
51.74621319954647
 21
52.19848363487608
 31
0.0
  0
LINE
  5
D03
330
1F
100
AcDbEntity
  8
2
  6
CONTINUOUS
370
25
 62
7
100
AcDbLine
 10
51.26232603301131
 20
53.10663487012316
 30
0.0
 11
51.98180205147283
 21
52.38715885166165
 31
0.0
  0
LINE
  5
D04
330
1F
100
AcDbEntity
  8
2
  6
CONTINUOUS
370
25
 62
7
100
AcDbLine
 10
51.41238639885506
 20
53.38083857299134
 30
0.0
 11
52.21739090339918
 21
52.57583406844722
 31
0.0
  0
LINE
  5
D05
330
1F
100
AcDbEntity
  8
2
  6
CONTINUOUS
370
25
 62
7
100
AcDbLine
 10
51.56244676469881
 20
53.65504227585953
 30
0.0
 11
52.45297975532555
 21
52.76450928523279
 31
0.0
  0
LINE
  5
D06
330
1F
100
AcDbEntity
  8
2
  6
CONTINUOUS
370
25
 62
7
100
AcDbLine
 10
51.71250713054254
 20
53.92924597872774
 30
0.0
 11
52.6885686072519
 21
52.95318450201837
 31
0.0
  0
LINE
  5
D07
330
1F
100
AcDbEntity
  8
2
  6
CONTINUOUS
370
25
 62
7
100
AcDbLine
 10
51.86256749638628
 20
54.20344968159593
 30
0.0
 11
52.92415745917828
 21
53.14185971880394
 31
0.0
  0
LINE
  5
D08
330
1F
100
AcDbEntity
  8
2
  6
CONTINUOUS
370
25
 62
7
100
AcDbLine
 10
52.01262786223003
 20
54.47765338446412
 30
0.0
 11
53.15974631110463
 21
53.33053493558952
 31
0.0
  0
LINE
  5
D09
330
1F
100
AcDbEntity
  8
2
  6
CONTINUOUS
370
25
 62
7
100
AcDbLine
 10
52.16268822807378
 20
54.7518570873323
 30
0.0
 11
53.39533516303099
 21
53.51921015237509
 31
0.0
  0
LINE
  5
D0A
330
1F
100
AcDbEntity
  8
2
  6
CONTINUOUS
370
25
 62
7
100
AcDbLine
 10
52.31274859391751
 20
55.0260607902005
 30
0.0
 11
53.63092401495735
 21
53.70788536916066
 31
0.0
  0
LINE
  5
D0B
330
1F
100
AcDbEntity
  8
2
  6
CONTINUOUS
370
25
 62
7
100
AcDbLine
 10
52.70998139630739
 20
55.05309205652256
 30
0.0
 11
53.86651286688372
 21
53.89656058594623
 31
0.0
  0
TEXT
  5
D0C
330
1F
100
AcDbEntity
  8
2
  6
CONTINUOUS
370
25
 62
7
100
AcDbText
 10
70.39500734757631
 20
74.51528885045036
 30
0.0
 40
3.5
  1
R0.8
 72
     1
 11
75.35334068090964
 21
74.51528885045036
 31
0.0
100
AcDbText
  0
LINE
  5
D0D
330
1F
100
AcDbEntity
  8
SK1
  6
CONTINUOUS
370
50
 62
4
100
AcDbLine
 10
0.0
 20
0.0
 30
0.0
 11
2.5
 21
0.0
 31
0.0
  0
LINE
  5
D0E
330
1F
100
AcDbEntity
  8
SK1
  6
CONTINUOUS
370
50
 62
4
100
AcDbLine
 10
0.0
 20
0.0
 30
0.0
 11
0.0
 21
2.5
 31
0.0
  0
ARC
  5
D0F
330
1F
100
AcDbEntity
  8
SK1
  6
CONTINUOUS
370
50
 62
4
100
AcDbCircle
 10
0.0
 20
0.0
 30
0.0
 40
2.5
100
AcDbArc
 50
0.0
 51
90.0
  0
LINE
  5
D10
330
1F
100
AcDbEntity
  8
SK1
  6
CONTINUOUS
370
50
 62
4
100
AcDbLine
 10
0.0
 20
0.0
 30
0.0
 11
-2.5
 21
0.0
 31
0.0
  0
ARC
  5
D11
330
1F
100
AcDbEntity
  8
SK1
  6
CONTINUOUS
370
50
 62
4
100
AcDbCircle
 10
0.0
 20
0.0
 30
0.0
 40
2.5
100
AcDbArc
 50
180.0
 51
270.0
  0
LINE
  5
D12
330
1F
100
AcDbEntity
  8
SK1
  6
CONTINUOUS
370
50
 62
4
100
AcDbLine
 10
0.0
 20
-2.5
 30
0.0
 11
0.0
 21
0.0
 31
0.0
  0
ARC
  5
D13
330
1F
100
AcDbEntity
  8
SK1
  6
CONTINUOUS
370
50
 62
4
100
AcDbCircle
 10
0.0
 20
0.0
 30
0.0
 40
2.5
100
AcDbArc
 50
270.0
 51
0.0
  0
ARC
  5
D14
330
1F
100
AcDbEntity
  8
SK1
  6
CONTINUOUS
370
50
 62
4
100
AcDbCircle
 10
0.0
 20
0.0
 30
0.0
 40
2.5
100
AcDbArc
 50
90.0
 51
180.0
  0
LINE
  5
D15
330
1F
100
AcDbEntity
  8
SK1
  6
CONTINUOUS
370
50
 62
4
100
AcDbLine
 10
-0.31832627443191
 20
-2.479495909600069
 30
0.0
 11
0.0
 21
-2.161169635168159
 31
0.0
  0
LINE
  5
D16
330
1F
100
AcDbEntity
  8
SK1
  6
CONTINUOUS
370
50
 62
4
100
AcDbLine
 10
2.16116963516816
 20
0.0
 30
0.0
 11
2.479495909600069
 21
0.3183262744319091
 31
0.0
  0
LINE
  5
D17
330
1F
100
AcDbEntity
  8
SK1
  6
CONTINUOUS
370
50
 62
4
100
AcDbLine
 10
-0.615281817185723
 20
-2.422898061760609
 30
0.0
 11
0.0
 21
-1.807616244574886
 31
0.0
  0
LINE
  5
D18
330
1F
100
AcDbEntity
  8
SK1
  6
CONTINUOUS
370
50
 62
4
100
AcDbLine
 10
1.807616244574887
 20
0.0
 30
0.0
 11
2.422898061760609
 21
0.6152818171857222
 31
0.0
  0
LINE
  5
D19
330
1F
100
AcDbEntity
  8
SK1
  6
CONTINUOUS
370
50
 62
4
100
AcDbLine
 10
-0.8835965231639721
 20
-2.337659377145585
 30
0.0
 11
0.0
 21
-1.454062853981614
 31
0.0
  0
LINE
  5
D1A
330
1F
100
AcDbEntity
  8
SK1
  6
CONTINUOUS
370
50
 62
4
100
AcDbLine
 10
1.454062853981615
 20
0.0
 30
0.0
 11
2.337659377145586
 21
0.8835965231639715
 31
0.0
  0
LINE
  5
D1B
330
1F
100
AcDbEntity
  8
SK1
  6
CONTINUOUS
370
50
 62
4
100
AcDbLine
 10
-1.128779664263143
 20
-2.229289127651483
 30
0.0
 11
0.0
 21
-1.100509463388341
 31
0.0
  0
LINE
  5
D1C
330
1F
100
AcDbEntity
  8
SK1
  6
CONTINUOUS
370
50
 62
4
100
AcDbLine
 10
1.100509463388341
 20
0.0
 30
0.0
 11
2.229289127651484
 21
1.128779664263142
 31
0.0
  0
LINE
  5
D1D
330
1F
100
AcDbEntity
  8
SK1
  6
CONTINUOUS
370
50
 62
4
100
AcDbLine
 10
-1.354032791010379
 20
-2.100988863805446
 30
0.0
 11
0.0
 21
-0.7469560727950677
 31
0.0
  0
LINE
  5
D1E
330
1F
100
AcDbEntity
  8
SK1
  6
CONTINUOUS
370
50
 62
4
100
AcDbLine
 10
0.746956072795068
 20
0.0
 30
0.0
 11
2.100988863805446
 21
1.354032791010378
 31
0.0
  0
LINE
  5
D1F
330
1F
100
AcDbEntity
  8
SK1
  6
CONTINUOUS
370
50
 62
4
100
AcDbLine
 10
-1.559387394659872
 20
-1.952790076861666
 30
0.0
 11
0.0
 21
-0.3934026822017946
 31
0.0
  0
LINE
  5
D20
330
1F
100
AcDbEntity
  8
SK1
  6
CONTINUOUS
370
50
 62
4
100
AcDbLine
 10
0.3934026822017948
 20
0.0
 30
0.0
 11
1.952790076861667
 21
1.559387394659871
 31
0.0
  0
LINE
  5
D21
330
1F
100
AcDbEntity
  8
SK1
  6
CONTINUOUS
370
50
 62
4
100
AcDbLine
 10
-1.746970020883365
 20
-1.786819312491886
 30
0.0
 11
0.0
 21
-0.0398492916085216
 31
0.0
  0
LINE
  5
D22
330
1F
100
AcDbEntity
  8
SK1
  6
CONTINUOUS
370
50
 62
4
100
AcDbLine
 10
0.0398492916085216
 20
0.0
 30
0.0
 11
1.786819312491887
 21
1.746970020883364
 31
0.0
  0
LINE
  5
D23
330
1F
100
AcDbEntity
  8
SK1
  6
CONTINUOUS
370
50
 62
4
100
AcDbLine
 10
-1.917371878232655
 20
-1.603667779247902
 30
0.0
 11
-0.3137040989847517
 21
0.0
 31
0.0
  0
LINE
  5
D24
330
1F
100
AcDbEntity
  8
SK1
  6
CONTINUOUS
370
50
 62
4
100
AcDbLine
 10
0.0
 20
0.3137040989847515
 30
0.0
 11
1.603667779247903
 21
1.917371878232654
 31
0.0
  0
LINE
  5
D25
330
1F
100
AcDbEntity
  8
SK1
  6
CONTINUOUS
370
50
 62
4
100
AcDbLine
 10
-2.068741231122433
 20
-1.401483741544407
 30
0.0
 11
-0.6672574895780249
 21
0.0
 31
0.0
  0
LINE
  5
D26
330
1F
100
AcDbEntity
  8
SK1
  6
CONTINUOUS
370
50
 62
4
100
AcDbLine
 10
0.0
 20
0.6672574895780246
 30
0.0
 11
1.401483741544409
 21
2.068741231122432
 31
0.0
  0
LINE
  5
D27
330
1F
100
AcDbEntity
  8
SK1
  6
CONTINUOUS
370
50
 62
4
100
AcDbLine
 10
-2.2023876557675
 20
-1.181576775596201
 30
0.0
 11
-1.020810880171298
 21
0.0
 31
0.0
  0
LINE
  5
D28
330
1F
100
AcDbEntity
  8
SK1
  6
CONTINUOUS
370
50
 62
4
100
AcDbLine
 10
0.0
 20
1.020810880171298
 30
0.0
 11
1.181576775596202
 21
2.202387655767499
 31
0.0
  0
LINE
  5
D29
330
1F
100
AcDbEntity
  8
SK1
  6
CONTINUOUS
370
50
 62
4
100
AcDbLine
 10
-2.315450943493525
 20
-0.9410866727289533
 30
0.0
 11
-1.374364270764571
 21
0.0
 31
0.0
  0
LINE
  5
D2A
330
1F
100
AcDbEntity
  8
SK1
  6
CONTINUOUS
370
50
 62
4
100
AcDbLine
 10
0.0
 20
1.374364270764571
 30
0.0
 11
0.9410866727289543
 21
2.315450943493524
 31
0.0
  0
LINE
  5
D2B
330
1F
100
AcDbEntity
  8
SK1
  6
CONTINUOUS
370
50
 62
4
100
AcDbLine
 10
-2.405290600131854
 20
-0.6773729387740097
 30
0.0
 11
-1.727917661357844
 21
0.0
 31
0.0
  0
LINE
  5
D2C
330
1F
100
AcDbEntity
  8
SK1
  6
CONTINUOUS
370
50
 62
4
100
AcDbLine
 10
0.0
 20
1.727917661357844
 30
0.0
 11
0.6773729387740106
 21
2.405290600131854
 31
0.0
  0
LINE
  5
D2D
330
1F
100
AcDbEntity
  8
SK1
  6
CONTINUOUS
370
50
 62
4
100
AcDbLine
 10
-2.468598823056026
 20
-0.3871277711049084
 30
0.0
 11
-2.081471051951118
 21
0.0
 31
0.0
  0
LINE
  5
D2E
330
1F
100
AcDbEntity
  8
SK1
  6
CONTINUOUS
370
50
 62
4
100
AcDbLine
 10
0.0
 20
2.081471051951117
 30
0.0
 11
0.3871277711049085
 21
2.468598823056025
 31
0.0
  0
LINE
  5
D2F
330
1F
100
AcDbEntity
  8
SK1
  6
CONTINUOUS
370
50
 62
4
100
AcDbLine
 10
-2.498020276172772
 20
-0.0629958336283822
 30
0.0
 11
-2.43502444254439
 21
0.0
 31
0.0
  0
LINE
  5
D30
330
1F
100
AcDbEntity
  8
SK1
  6
CONTINUOUS
370
50
 62
4
100
AcDbLine
 10
0.0
 20
2.435024442544389
 30
0.0
 11
0.0629958336283828
 21
2.498020276172772
 31
0.0
  0
LINE
  5
D31
330
1F
100
AcDbEntity
  8
SK1
  6
CONTINUOUS
370
50
 62
4
100
AcDbLine
 10
-2.337336523620827
 20
-0.8844932833271533
 30
0.0
 11
-0.8844932833271509
 21
-2.337336523620827
 31
0.0
  0
LINE
  5
D32
330
1F
100
AcDbEntity
  8
SK1
  6
CONTINUOUS
370
50
 62
4
100
AcDbLine
 10
-2.466237059966593
 20
-0.4020393563881135
 30
0.0
 11
-0.4020393563881111
 21
-2.466237059966594
 31
0.0
  0
LINE
  5
D33
330
1F
100
AcDbEntity
  8
SK1
  6
CONTINUOUS
370
50
 62
4
100
AcDbLine
 10
-2.499522297881596
 20
-0.0152007278798383
 30
0.0
 11
-0.0152007278798351
 21
-2.499522297881596
 31
0.0
  0
LINE
  5
D34
330
1F
100
AcDbEntity
  8
SK1
  6
CONTINUOUS
370
50
 62
4
100
AcDbLine
 10
-2.16116963516816
 20
0.0
 30
0.0
 11
0.0
 21
-2.161169635168158
 31
0.0
  0
LINE
  5
D35
330
1F
100
AcDbEntity
  8
SK1
  6
CONTINUOUS
370
50
 62
4
100
AcDbLine
 10
-1.807616244574888
 20
0.0
 30
0.0
 11
0.0
 21
-1.807616244574886
 31
0.0
  0
LINE
  5
D36
330
1F
100
AcDbEntity
  8
SK1
  6
CONTINUOUS
370
50
 62
4
100
AcDbLine
 10
-1.454062853981615
 20
0.0
 30
0.0
 11
0.0
 21
-1.454062853981613
 31
0.0
  0
LINE
  5
D37
330
1F
100
AcDbEntity
  8
SK1
  6
CONTINUOUS
370
50
 62
4
100
AcDbLine
 10
-1.100509463388341
 20
0.0
 30
0.0
 11
0.0
 21
-1.10050946338834
 31
0.0
  0
LINE
  5
D38
330
1F
100
AcDbEntity
  8
SK1
  6
CONTINUOUS
370
50
 62
4
100
AcDbLine
 10
-0.7469560727950676
 20
0.0
 30
0.0
 11
0.0
 21
-0.7469560727950668
 31
0.0
  0
LINE
  5
D39
330
1F
100
AcDbEntity
  8
SK1
  6
CONTINUOUS
370
50
 62
4
100
AcDbLine
 10
-0.3934026822017942
 20
0.0
 30
0.0
 11
0.0
 21
-0.3934026822017938
 31
0.0
  0
LINE
  5
D3A
330
1F
100
AcDbEntity
  8
SK1
  6
CONTINUOUS
370
50
 62
4
100
AcDbLine
 10
-0.0398492916085216
 20
0.0
 30
0.0
 11
0.0
 21
-0.0398492916085216
 31
0.0
  0
LINE
  5
D3B
330
1F
100
AcDbEntity
  8
SK1
  6
CONTINUOUS
370
50
 62
4
100
AcDbLine
 10
0.0
 20
0.3137040989847515
 30
0.0
 11
0.3137040989847518
 21
0.0
 31
0.0
  0
LINE
  5
D3C
330
1F
100
AcDbEntity
  8
SK1
  6
CONTINUOUS
370
50
 62
4
100
AcDbLine
 10
0.0
 20
0.6672574895780246
 30
0.0
 11
0.6672574895780253
 21
0.0
 31
0.0
  0
LINE
  5
D3D
330
1F
100
AcDbEntity
  8
SK1
  6
CONTINUOUS
370
50
 62
4
100
AcDbLine
 10
0.0
 20
1.020810880171298
 30
0.0
 11
1.020810880171299
 21
0.0
 31
0.0
  0
LINE
  5
D3E
330
1F
100
AcDbEntity
  8
SK1
  6
CONTINUOUS
370
50
 62
4
100
AcDbLine
 10
0.0
 20
1.37436427076457
 30
0.0
 11
1.374364270764571
 21
0.0
 31
0.0
  0
LINE
  5
D3F
330
1F
100
AcDbEntity
  8
SK1
  6
CONTINUOUS
370
50
 62
4
100
AcDbLine
 10
0.0
 20
1.727917661357843
 30
0.0
 11
1.727917661357845
 21
0.0
 31
0.0
  0
LINE
  5
D40
330
1F
100
AcDbEntity
  8
SK1
  6
CONTINUOUS
370
50
 62
4
100
AcDbLine
 10
0.0
 20
2.081471051951116
 30
0.0
 11
2.081471051951118
 21
0.0
 31
0.0
  0
LINE
  5
D41
330
1F
100
AcDbEntity
  8
SK1
  6
CONTINUOUS
370
50
 62
4
100
AcDbLine
 10
0.0
 20
2.435024442544389
 30
0.0
 11
2.435024442544392
 21
0.0
 31
0.0
  0
LINE
  5
D42
330
1F
100
AcDbEntity
  8
SK1
  6
CONTINUOUS
370
50
 62
4
100
AcDbLine
 10
0.3077647139123103
 20
2.480813119225352
 30
0.0
 11
2.480813119225352
 21
0.307764713912313
 31
0.0
  0
LINE
  5
D43
330
1F
100
AcDbEntity
  8
SK1
  6
CONTINUOUS
370
50
 62
4
100
AcDbLine
 10
0.7611924397506667
 20
2.380938783980268
 30
0.0
 11
2.380938783980268
 21
0.7611924397506691
 31
0.0
  0
LINE
  5
D44
330
1F
100
AcDbEntity
  8
SK1
  6
CONTINUOUS
370
50
 62
4
100
AcDbLine
 10
1.48586376213526
 20
2.009820852188948
 30
0.0
 11
2.009820852188946
 21
1.485863762135263
 31
0.0
  0
LINE
  5
D45
330
1F
100
AcDbEntity
  8
2
  6
CONTINUOUS
370
25
 62
7
100
AcDbLine
 10
50.0
 20
50.8
 30
0.0
 11
36.5649711574556
 21
64.23502884254441
 31
0.0
  0
LINE
  5
D46
330
1F
100
AcDbEntity
  8
2
  6
CONTINUOUS
370
25
 62
7
100
AcDbLine
 10
50.0
 20
50.8
 30
0.0
 11
50.0
 21
69.8
 31
0.0
  0
ARC
  5
D47
330
1F
100
AcDbEntity
  8
2
  6
CONTINUOUS
370
25
 62
7
100
AcDbCircle
 10
49.99999999999998
 20
50.8000000000001
 30
0.0
 40
17.99999999999991
100
AcDbArc
 50
67.57545716470042
 51
157.4245428352997
  0
LINE
  5
D48
330
1F
100
AcDbEntity
  8
2
  6
CONTINUOUS
370
25
 62
7
100
AcDbLine
 10
37.27207793864214
 20
63.52792206135786
 30
0.0
 11
35.06031966386303
 21
58.93356407204682
 31
0.0
  0
LINE
  5
D49
330
1F
100
AcDbEntity
  8
2
  6
CONTINUOUS
370
25
 62
7
100
AcDbLine
 10
35.06031966386303
 20
58.93356407204682
 30
0.0
 11
33.46339415064948
 21
60.13765248460118
 31
0.0
  0
LINE
  5
D4A
330
1F
100
AcDbEntity
  8
2
  6
CONTINUOUS
370
25
 62
7
100
AcDbLine
 10
33.46339415064948
 20
60.13765248460118
 30
0.0
 11
37.27207793864214
 21
63.52792206135786
 31
0.0
  0
LINE
  5
D4B
330
1F
100
AcDbEntity
  8
2
  6
CONTINUOUS
370
25
 62
7
100
AcDbLine
 10
34.88369094031704
 20
59.06674285689699
 30
0.0
 11
35.3479127984146
 21
59.53096471499455
 31
0.0
  0
LINE
  5
D4C
330
1F
100
AcDbEntity
  8
2
  6
CONTINUOUS
370
25
 62
7
100
AcDbLine
 10
34.64180777457015
 20
59.24912375986203
 30
0.0
 11
35.74175552362847
 21
60.34907150892035
 31
0.0
  0
LINE
  5
D4D
330
1F
100
AcDbEntity
  8
2
  6
CONTINUOUS
370
25
 62
7
100
AcDbLine
 10
34.39992460882325
 20
59.43150466282707
 30
0.0
 11
36.13559824884235
 21
61.16717830284615
 31
0.0
  0
LINE
  5
D4E
330
1F
100
AcDbEntity
  8
2
  6
CONTINUOUS
370
25
 62
7
100
AcDbLine
 10
34.15804144307636
 20
59.6138855657921
 30
0.0
 11
36.52944097405623
 21
61.98528509677196
 31
0.0
  0
LINE
  5
D4F
330
1F
100
AcDbEntity
  8
2
  6
CONTINUOUS
370
25
 62
7
100
AcDbLine
 10
33.91615827732947
 20
59.79626646875715
 30
0.0
 11
36.92328369927011
 21
62.80339189069777
 31
0.0
  0
LINE
  5
D50
330
1F
100
AcDbEntity
  8
2
  6
CONTINUOUS
370
25
 62
7
100
AcDbLine
 10
33.67427511158258
 20
59.97864737172219
 30
0.0
 11
36.83034263112997
 21
63.13471489126955
 31
0.0
  0
LINE
  5
D51
330
1F
100
AcDbEntity
  8
2
  6
CONTINUOUS
370
25
 62
7
100
AcDbLine
 10
33.54873829210747
 20
60.21362089322874
 30
0.0
 11
34.11914720045278
 21
59.64321198488343
 31
0.0
  0
LINE
  5
D52
330
1F
100
AcDbEntity
  8
2
  6
CONTINUOUS
370
25
 62
7
100
AcDbLine
 10
33.77319976566601
 20
60.41342348838212
 30
0.0
 11
35.12295350783194
 21
59.0636697462162
 31
0.0
  0
LINE
  5
D53
330
1F
100
AcDbEntity
  8
2
  6
CONTINUOUS
370
25
 62
7
100
AcDbLine
 10
33.99766123922456
 20
60.61322608353549
 30
0.0
 11
35.26082502342976
 21
59.3500622993303
 31
0.0
  0
LINE
  5
D54
330
1F
100
AcDbEntity
  8
2
  6
CONTINUOUS
370
25
 62
7
100
AcDbLine
 10
34.22212271278312
 20
60.81302867868887
 30
0.0
 11
35.39869653902758
 21
59.63645485244443
 31
0.0
  0
LINE
  5
D55
330
1F
100
AcDbEntity
  8
2
  6
CONTINUOUS
370
25
 62
7
100
AcDbLine
 10
34.44658418634167
 20
61.01283127384225
 30
0.0
 11
35.53656805462539
 21
59.92284740555854
 31
0.0
  0
LINE
  5
D56
330
1F
100
AcDbEntity
  8
2
  6
CONTINUOUS
370
25
 62
7
100
AcDbLine
 10
34.67104565990022
 20
61.21263386899562
 30
0.0
 11
35.67443957022321
 21
60.20923995867265
 31
0.0
  0
LINE
  5
D57
330
1F
100
AcDbEntity
  8
2
  6
CONTINUOUS
370
25
 62
7
100
AcDbLine
 10
34.89550713345877
 20
61.412436464149
 30
0.0
 11
35.81231108582103
 21
60.49563251178676
 31
0.0
  0
LINE
  5
D58
330
1F
100
AcDbEntity
  8
2
  6
CONTINUOUS
370
25
 62
7
100
AcDbLine
 10
35.11996860701732
 20
61.61223905930238
 30
0.0
 11
35.95018260141885
 21
60.78202506490087
 31
0.0
  0
LINE
  5
D59
330
1F
100
AcDbEntity
  8
2
  6
CONTINUOUS
370
25
 62
7
100
AcDbLine
 10
35.34443008057588
 20
61.81204165445576
 30
0.0
 11
36.08805411701666
 21
61.06841761801499
 31
0.0
  0
LINE
  5
D5A
330
1F
100
AcDbEntity
  8
2
  6
CONTINUOUS
370
25
 62
7
100
AcDbLine
 10
35.56889155413442
 20
62.01184424960915
 30
0.0
 11
36.22592563261448
 21
61.3548101711291
 31
0.0
  0
LINE
  5
D5B
330
1F
100
AcDbEntity
  8
2
  6
CONTINUOUS
370
25
 62
7
100
AcDbLine
 10
35.79335302769298
 20
62.21164684476251
 30
0.0
 11
36.3637971482123
 21
61.6412027242432
 31
0.0
  0
LINE
  5
D5C
330
1F
100
AcDbEntity
  8
2
  6
CONTINUOUS
370
25
 62
7
100
AcDbLine
 10
36.01781450125153
 20
62.4114494399159
 30
0.0
 11
36.50166866381011
 21
61.92759527735732
 31
0.0
  0
LINE
  5
D5D
330
1F
100
AcDbEntity
  8
2
  6
CONTINUOUS
370
25
 62
7
100
AcDbLine
 10
36.24227597481008
 20
62.61125203506927
 30
0.0
 11
36.63954017940793
 21
62.21398783047142
 31
0.0
  0
LINE
  5
D5E
330
1F
100
AcDbEntity
  8
2
  6
CONTINUOUS
370
25
 62
7
100
AcDbLine
 10
36.46673744836863
 20
62.81105463022265
 30
0.0
 11
36.77741169500575
 21
62.50038038358554
 31
0.0
  0
LINE
  5
D5F
330
1F
100
AcDbEntity
  8
2
  6
CONTINUOUS
370
25
 62
7
100
AcDbLine
 10
36.69119892192718
 20
63.01085722537603
 30
0.0
 11
36.91528321060356
 21
62.78677293669966
 31
0.0
  0
LINE
  5
D60
330
1F
100
AcDbEntity
  8
2
  6
CONTINUOUS
370
25
 62
7
100
AcDbLine
 10
36.91566039548574
 20
63.2106598205294
 30
0.0
 11
37.05315472620138
 21
63.07316548981376
 31
0.0
  0
LINE
  5
D61
330
1F
100
AcDbEntity
  8
2
  6
CONTINUOUS
370
25
 62
7
100
AcDbLine
 10
37.14012186904429
 20
63.41046241568279
 30
0.0
 11
37.1910262417992
 21
63.35955804292787
 31
0.0
  0
LINE
  5
D62
330
1F
100
AcDbEntity
  8
2
  6
CONTINUOUS
370
25
 62
7
100
AcDbLine
 10
50.0
 20
68.8
 30
0.0
 11
55.09042874165996
 21
69.09586352610977
 31
0.0
  0
LINE
  5
D63
330
1F
100
AcDbEntity
  8
2
  6
CONTINUOUS
370
25
 62
7
100
AcDbLine
 10
55.09042874165996
 20
69.09586352610977
 30
0.0
 11
54.81265096388219
 21
67.11524758500134
 31
0.0
  0
LINE
  5
D64
330
1F
100
AcDbEntity
  8
2
  6
CONTINUOUS
370
25
 62
7
100
AcDbLine
 10
54.81265096388219
 20
67.11524758500134
 30
0.0
 11
50.0
 21
68.8
 31
0.0
  0
LINE
  5
D65
330
1F
100
AcDbEntity
  8
2
  6
CONTINUOUS
370
25
 62
7
100
AcDbLine
 10
54.81186480202545
 20
67.11552279467199
 30
0.0
 11
54.81282410154766
 21
67.1164820941942
 31
0.0
  0
LINE
  5
D66
330
1F
100
AcDbEntity
  8
2
  6
CONTINUOUS
370
25
 62
7
100
AcDbLine
 10
54.49761082083293
 20
67.2255328821914
 30
0.0
 11
54.88203275139801
 21
67.60995481275648
 31
0.0
  0
LINE
  5
D67
330
1F
100
AcDbEntity
  8
2
  6
CONTINUOUS
370
25
 62
7
100
AcDbLine
 10
54.1833568396404
 20
67.3355429697108
 30
0.0
 11
54.95124140124835
 21
68.10342753131874
 31
0.0
  0
LINE
  5
D68
330
1F
100
AcDbEntity
  8
2
  6
CONTINUOUS
370
25
 62
7
100
AcDbLine
 10
53.86910285844788
 20
67.44555305723023
 30
0.0
 11
55.0204500510987
 21
68.59690024988103
 31
0.0
  0
LINE
  5
D69
330
1F
100
AcDbEntity
  8
2
  6
CONTINUOUS
370
25
 62
7
100
AcDbLine
 10
53.55484887725535
 20
67.55556314474961
 30
0.0
 11
55.08965870094903
 21
69.09037296844329
 31
0.0
  0
LINE
  5
D6A
330
1F
100
AcDbEntity
  8
2
  6
CONTINUOUS
370
25
 62
7
100
AcDbLine
 10
53.24059489606282
 20
67.66557323226903
 30
0.0
 11
54.64499595302832
 21
69.06997428923451
 31
0.0
  0
LINE
  5
D6B
330
1F
100
AcDbEntity
  8
2
  6
CONTINUOUS
370
25
 62
7
100
AcDbLine
 10
52.92634091487032
 20
67.77558331978844
 30
0.0
 11
54.19455135329271
 21
69.04379375821082
 31
0.0
  0
LINE
  5
D6C
330
1F
100
AcDbEntity
  8
2
  6
CONTINUOUS
370
25
 62
7
100
AcDbLine
 10
52.61208693367778
 20
67.88559340730784
 30
0.0
 11
53.74410675355709
 21
69.01761322718714
 31
0.0
  0
LINE
  5
D6D
330
1F
100
AcDbEntity
  8
2
  6
CONTINUOUS
370
25
 62
7
100
AcDbLine
 10
52.29783295248526
 20
67.99560349482725
 30
0.0
 11
53.29366215382147
 21
68.99143269616346
 31
0.0
  0
LINE
  5
D6E
330
1F
100
AcDbEntity
  8
2
  6
CONTINUOUS
370
25
 62
7
100
AcDbLine
 10
51.98357897129274
 20
68.10561358234668
 30
0.0
 11
52.84321755408585
 21
68.96525216513977
 31
0.0
  0
LINE
  5
D6F
330
1F
100
AcDbEntity
  8
2
  6
CONTINUOUS
370
25
 62
7
100
AcDbLine
 10
51.66932499010021
 20
68.21562366986606
 30
0.0
 11
52.39277295435024
 21
68.93907163411609
 31
0.0
  0
LINE
  5
D70
330
1F
100
AcDbEntity
  8
2
  6
CONTINUOUS
370
25
 62
7
100
AcDbLine
 10
51.3550710089077
 20
68.32563375738549
 30
0.0
 11
51.94232835461462
 21
68.9128911030924
 31
0.0
  0
LINE
  5
D71
330
1F
100
AcDbEntity
  8
2
  6
CONTINUOUS
370
25
 62
7
100
AcDbLine
 10
51.04081702771519
 20
68.43564384490489
 30
0.0
 11
51.49188375487901
 21
68.88671057206872
 31
0.0
  0
LINE
  5
D72
330
1F
100
AcDbEntity
  8
2
  6
CONTINUOUS
370
25
 62
7
100
AcDbLine
 10
50.72656304652266
 20
68.5456539324243
 30
0.0
 11
51.04143915514339
 21
68.86053004104502
 31
0.0
  0
LINE
  5
D73
330
1F
100
AcDbEntity
  8
2
  6
CONTINUOUS
370
25
 62
7
100
AcDbLine
 10
50.41230906533013
 20
68.6556640199437
 30
0.0
 11
50.59099455540778
 21
68.83434951002135
 31
0.0
  0
LINE
  5
D74
330
1F
100
AcDbEntity
  8
2
  6
CONTINUOUS
370
25
 62
7
100
AcDbLine
 10
50.09805508413761
 20
68.76567410746311
 30
0.0
 11
50.14054995567217
 21
68.80816897899767
 31
0.0
  0
LINE
  5
D75
330
1F
100
AcDbEntity
  8
2
  6
CONTINUOUS
370
25
 62
7
100
AcDbLine
 10
50.395231828006
 20
68.82297148004601
 30
0.0
 11
50.64345646834155
 21
68.57474683971046
 31
0.0
  0
LINE
  5
D76
330
1F
100
AcDbEntity
  8
2
  6
CONTINUOUS
370
25
 62
7
100
AcDbLine
 10
50.79619150528676
 20
68.84627587147719
 30
0.0
 11
51.29623815141624
 21
68.34622922534771
 31
0.0
  0
LINE
  5
D77
330
1F
100
AcDbEntity
  8
2
  6
CONTINUOUS
370
25
 62
7
100
AcDbLine
 10
51.19715118256752
 20
68.86958026290836
 30
0.0
 11
51.94901983449093
 21
68.11771161098494
 31
0.0
  0
LINE
  5
D78
330
1F
100
AcDbEntity
  8
2
  6
CONTINUOUS
370
25
 62
7
100
AcDbLine
 10
51.59811085984829
 20
68.89288465433951
 30
0.0
 11
52.60180151756562
 21
67.8891939966222
 31
0.0
  0
LINE
  5
D79
330
1F
100
AcDbEntity
  8
2
  6
CONTINUOUS
370
25
 62
7
100
AcDbLine
 10
51.99907053712905
 20
68.9161890457707
 30
0.0
 11
53.25458320064032
 21
67.66067638225942
 31
0.0
  0
LINE
  5
D7A
330
1F
100
AcDbEntity
  8
2
  6
CONTINUOUS
370
25
 62
7
100
AcDbLine
 10
52.40003021440982
 20
68.93949343720186
 30
0.0
 11
53.90736488371501
 21
67.43215876789668
 31
0.0
  0
LINE
  5
D7B
330
1F
100
AcDbEntity
  8
2
  6
CONTINUOUS
370
25
 62
7
100
AcDbLine
 10
52.80098989169058
 20
68.96279782863303
 30
0.0
 11
54.56014656678971
 21
67.20364115353392
 31
0.0
  0
LINE
  5
D7C
330
1F
100
AcDbEntity
  8
2
  6
CONTINUOUS
370
25
 62
7
100
AcDbLine
 10
53.20194956897134
 20
68.9861022200642
 30
0.0
 11
54.84464927681
 21
67.34340251222557
 31
0.0
  0
LINE
  5
D7D
330
1F
100
AcDbEntity
  8
2
  6
CONTINUOUS
370
25
 62
7
100
AcDbLine
 10
53.60290924625209
 20
69.00940661149536
 30
0.0
 11
54.89683288377462
 21
67.71548297397285
 31
0.0
  0
LINE
  5
D7E
330
1F
100
AcDbEntity
  8
2
  6
CONTINUOUS
370
25
 62
7
100
AcDbLine
 10
54.00386892353285
 20
69.03271100292653
 30
0.0
 11
54.94901649073926
 21
68.08756343572014
 31
0.0
  0
LINE
  5
D7F
330
1F
100
AcDbEntity
  8
2
  6
CONTINUOUS
370
25
 62
7
100
AcDbLine
 10
54.40482860081362
 20
69.05601539435771
 30
0.0
 11
55.00120009770389
 21
68.45964389746744
 31
0.0
  0
LINE
  5
D80
330
1F
100
AcDbEntity
  8
2
  6
CONTINUOUS
370
25
 62
7
100
AcDbLine
 10
54.80578827809438
 20
69.07931978578888
 30
0.0
 11
55.05338370466853
 21
68.83172435921475
 31
0.0
  0
TEXT
  5
D81
330
1F
100
AcDbEntity
  8
2
  6
CONTINUOUS
370
25
 62
7
100
AcDbText
 10
38.76516497779299
 20
67.25302686847931
 30
0.0
 40
3.500000000000003
  1
45°
 50
22.49999999999999
 72
     1
 11
42.53767306888075
 21
68.8156508839701
 31
0.0
100
AcDbText
  0
LINE
  5
D82
330
1F
100
AcDbEntity
  8
4
  6
LONGDASH_DASH
370
25
 62
2
100
AcDbLine
 10
0.0
 20
0.0
 30
0.0
 11
50.0
 21
0.0
 31
0.0
  0
LINE
  5
D83
330
1F
100
AcDbEntity
  8
SK4
  6
LONGDASH_DASH
370
25
 62
2
100
AcDbLine
 10
-6.0
 20
0.0
 30
0.0
 11
56.0
 21
0.0
 31
0.0
  0
ENDSEC
  0
SECTION
  2
OBJECTS
  0
DICTIONARY
  5
C
330
0
100
AcDbDictionary
281
     1
  3
ACAD_GROUP
350
D
  3
ACAD_LAYOUT
350
1A
  3
ACAD_MATERIAL
350
3B
  3
ACAD_MLEADERSTYLE
350
D86
  3
ACAD_MLINESTYLE
350
17
  3
ACAD_PLOTSETTINGS
350
19
  3
ACAD_PLOTSTYLENAME
350
E
  3
ACAD_SCALELIST
350
442
  3
ACAD_VISUALSTYLE
350
2A
  3
AcDbVariableDictionary
350
D84
  0
DICTIONARY
  5
D
102
{ACAD_REACTORS
330
C
102
}
330
C
100
AcDbDictionary
281
     1
  0
DICTIONARY
  5
1A
102
{ACAD_REACTORS
330
C
102
}
330
C
100
AcDbDictionary
281
     1
  3
Layout1
350
1E
  3
Layout2
350
26
  3
Model
350
22
  0
DICTIONARY
  5
3B
102
{ACAD_REACTORS
330
C
102
}
330
C
100
AcDbDictionary
281
     1
  3
ByBlock
350
3D
  3
ByLayer
350
3C
  3
Global
350
3E
  0
DICTIONARY
  5
D86
102
{ACAD_REACTORS
330
C
102
}
330
C
100
AcDbDictionary
281
     1
  0
DICTIONARY
  5
17
102
{ACAD_REACTORS
330
C
102
}
330
C
100
AcDbDictionary
281
     1
  3
Standard
350
18
  0
DICTIONARY
  5
19
102
{ACAD_REACTORS
330
C
102
}
330
C
100
AcDbDictionary
281
     1
  0
ACDBDICTIONARYWDFLT
  5
E
102
{ACAD_REACTORS
330
C
102
}
330
C
100
AcDbDictionary
281
     1
  3
Normal
350
F
100
AcDbDictionaryWithDefault
340
F
  0
DICTIONARY
  5
442
102
{ACAD_REACTORS
330
C
102
}
330
C
100
AcDbDictionary
281
     1
  3
A0
350
443
  3
A1
350
444
  3
A2
350
445
  3
A3
350
446
  3
A4
350
447
  3
A5
350
448
  3
A6
350
449
  3
A7
350
44A
  3
A8
350
44B
  3
A9
350
44C
  3
B0
350
44D
  3
B1
350
44E
  3
B2
350
44F
  3
B3
350
450
  3
B4
350
451
  3
B5
350
452
  3
B6
350
453
  3
B7
350
454
  3
B8
350
455
  3
B9
350
456
  3
C0
350
457
  3
C1
350
458
  3
C2
350
459
  3
C3
350
45A
  3
C4
350
45B
  3
C5
350
45C
  3
C6
350
45D
  3
C7
350
45E
  3
C8
350
45F
  3
C9
350
460
  3
D0
350
461
  3
D1
350
462
  3
D2
350
463
  0
DICTIONARY
  5
2A
102
{ACAD_REACTORS
330
C
102
}
330
C
100
AcDbDictionary
281
     1
  3
2dWireframe
350
2F
  3
3D Hidden
350
31
  3
3dWireframe
350
30
  3
Basic
350
32
  3
Brighten
350
36
  3
ColorChange
350
3A
  3
Conceptual
350
34
  3
Dim
350
35
  3
Facepattern
350
39
  3
Flat
350
2B
  3
FlatWithEdges
350
2C
  3
Gouraud
350
2D
  3
GouraudWithEdges
350
2E
  3
Linepattern
350
38
  3
Realistic
350
33
  3
Thicken
350
37
  0
DICTIONARY
  5
D84
102
{ACAD_REACTORS
330
C
102
}
330
C
100
AcDbDictionary
281
     1
  3
CANNOSCALE
350
D89
  3
DIMASSOC
350
D8A
  3
HIDETEXT
350
D8B
  3
PSOLHEIGHT
350
D88
  3
PSOLWIDTH
350
D87
  0
LAYOUT
  5
1E
102
{ACAD_REACTORS
330
1A
102
}
330
1A
100
AcDbPlotSettings
  1

  2
none_device
  4

  6

 40
0.0
 41
0.0
 42
0.0
 43
0.0
 44
0.0
 45
0.0
 46
0.0
 47
0.0
 48
0.0
 49
0.0
140
0.0
141
0.0
142
1.0
143
1.0
 70
   688
 72
     0
 73
     0
 74
     5
  7

 75
    16
147
1.0
148
0.0
149
0.0
100
AcDbLayout
  1
Layout1
 70
     1
 71
     1
 10
0.0
 20
0.0
 11
420.0
 21
297.0
 12
0.0
 22
0.0
 32
0.0
 14
1.000000000000000E+20
 24
1.000000000000000E+20
 34
1.000000000000000E+20
 15
-1.000000000000000E+20
 25
-1.000000000000000E+20
 35
-1.000000000000000E+20
146
0.0
 13
0.0
 23
0.0
 33
0.0
 16
1.0
 26
0.0
 36
0.0
 17
0.0
 27
1.0
 37
0.0
 76
     0
330
1B
  0
LAYOUT
  5
26
102
{ACAD_REACTORS
330
1A
102
}
330
1A
100
AcDbPlotSettings
  1

  2
none_device
  4

  6

 40
0.0
 41
0.0
 42
0.0
 43
0.0
 44
0.0
 45
0.0
 46
0.0
 47
0.0
 48
0.0
 49
0.0
140
0.0
141
0.0
142
1.0
143
1.0
 70
   688
 72
     0
 73
     0
 74
     5
  7

 75
    16
147
1.0
148
0.0
149
0.0
100
AcDbLayout
  1
Layout2
 70
     1
 71
     2
 10
0.0
 20
0.0
 11
0.0
 21
0.0
 12
0.0
 22
0.0
 32
0.0
 14
0.0
 24
0.0
 34
0.0
 15
0.0
 25
0.0
 35
0.0
146
0.0
 13
0.0
 23
0.0
 33
0.0
 16
1.0
 26
0.0
 36
0.0
 17
0.0
 27
1.0
 37
0.0
 76
     0
330
23
  0
LAYOUT
  5
22
102
{ACAD_REACTORS
330
1A
102
}
330
1A
100
AcDbPlotSettings
  1

  2
none_device
  4

  6

 40
0.0
 41
0.0
 42
0.0
 43
0.0
 44
0.0
 45
0.0
 46
0.0
 47
0.0
 48
0.0
 49
0.0
140
0.0
141
0.0
142
1.0
143
1.0
 70
  1712
 72
     0
 73
     0
 74
     0
  7

 75
     0
147
1.0
148
0.0
149
0.0
100
AcDbLayout
  1
Model
 70
     1
 71
     0
 10
0.0
 20
0.0
 11
420.0
 21
297.0
 12
0.0
 22
0.0
 32
0.0
 14
0.0
 24
0.0
 34
0.0
 15
25.0
 25
35.0
 35
0.0
146
0.0
 13
0.0
 23
0.0
 33
0.0
 16
1.0
 26
0.0
 36
0.0
 17
0.0
 27
1.0
 37
0.0
 76
     0
330
1F
331
29
  0
MATERIAL
  5
3D
102
{ACAD_REACTORS
330
3B
102
}
102
{ACAD_XDICTIONARY
360
DAE
102
}
330
3B
100
AcDbMaterial
  1
ByBlock
  0
MATERIAL
  5
3C
102
{ACAD_REACTORS
330
3B
102
}
102
{ACAD_XDICTIONARY
360
DAC
102
}
330
3B
100
AcDbMaterial
  1
ByLayer
  0
MATERIAL
  5
3E
102
{ACAD_REACTORS
330
3B
102
}
102
{ACAD_XDICTIONARY
360
DB0
102
}
330
3B
100
AcDbMaterial
  1
Global
  0
MLINESTYLE
  5
18
102
{ACAD_REACTORS
330
17
102
}
330
17
100
AcDbMlineStyle
  2
Standard
 70
     0
  3

 62
   256
 51
90.0
 52
90.0
 71
     2
 49
0.5
 62
   256
  6
BYLAYER
 49
-0.5
 62
   256
  6
BYLAYER
  0
ACDBPLACEHOLDER
  5
F
102
{ACAD_REACTORS
330
E
102
}
330
E
  0
SCALE
  5
443
102
{ACAD_REACTORS
330
442
102
}
330
442
100
AcDbScale
 70
     0
300
1:1
140
1.0
141
1.0
290
     1
  0
SCALE
  5
444
102
{ACAD_REACTORS
330
442
102
}
330
442
100
AcDbScale
 70
     0
300
1:2
140
1.0
141
2.0
290
     0
  0
SCALE
  5
445
102
{ACAD_REACTORS
330
442
102
}
330
442
100
AcDbScale
 70
     0
300
1:4
140
1.0
141
4.0
290
     0
  0
SCALE
  5
446
102
{ACAD_REACTORS
330
442
102
}
330
442
100
AcDbScale
 70
     0
300
1:5
140
1.0
141
5.0
290
     0
  0
SCALE
  5
447
102
{ACAD_REACTORS
330
442
102
}
330
442
100
AcDbScale
 70
     0
300
1:8
140
1.0
141
8.0
290
     0
  0
SCALE
  5
448
102
{ACAD_REACTORS
330
442
102
}
330
442
100
AcDbScale
 70
     0
300
1:10
140
1.0
141
10.0
290
     0
  0
SCALE
  5
449
102
{ACAD_REACTORS
330
442
102
}
330
442
100
AcDbScale
 70
     0
300
1:16
140
1.0
141
16.0
290
     0
  0
SCALE
  5
44A
102
{ACAD_REACTORS
330
442
102
}
330
442
100
AcDbScale
 70
     0
300
1:20
140
1.0
141
20.0
290
     0
  0
SCALE
  5
44B
102
{ACAD_REACTORS
330
442
102
}
330
442
100
AcDbScale
 70
     0
300
1:30
140
1.0
141
30.0
290
     0
  0
SCALE
  5
44C
102
{ACAD_REACTORS
330
442
102
}
330
442
100
AcDbScale
 70
     0
300
1:40
140
1.0
141
40.0
290
     0
  0
SCALE
  5
44D
102
{ACAD_REACTORS
330
442
102
}
330
442
100
AcDbScale
 70
     0
300
1:50
140
1.0
141
50.0
290
     0
  0
SCALE
  5
44E
102
{ACAD_REACTORS
330
442
102
}
330
442
100
AcDbScale
 70
     0
300
1:100
140
1.0
141
100.0
290
     0
  0
SCALE
  5
44F
102
{ACAD_REACTORS
330
442
102
}
330
442
100
AcDbScale
 70
     0
300
2:1
140
2.0
141
1.0
290
     0
  0
SCALE
  5
450
102
{ACAD_REACTORS
330
442
102
}
330
442
100
AcDbScale
 70
     0
300
4:1
140
4.0
141
1.0
290
     0
  0
SCALE
  5
451
102
{ACAD_REACTORS
330
442
102
}
330
442
100
AcDbScale
 70
     0
300
8:1
140
8.0
141
1.0
290
     0
  0
SCALE
  5
452
102
{ACAD_REACTORS
330
442
102
}
330
442
100
AcDbScale
 70
     0
300
10:1
140
10.0
141
1.0
290
     0
  0
SCALE
  5
453
102
{ACAD_REACTORS
330
442
102
}
330
442
100
AcDbScale
 70
     0
300
100:1
140
100.0
141
1.0
290
     0
  0
SCALE
  5
454
102
{ACAD_REACTORS
330
442
102
}
330
442
100
AcDbScale
 70
     0
300
1/128" = 1'-0"
140
0.0078125
141
12.0
290
     0
  0
SCALE
  5
455
102
{ACAD_REACTORS
330
442
102
}
330
442
100
AcDbScale
 70
     0
300
1/64" = 1'-0"
140
0.015625
141
12.0
290
     0
  0
SCALE
  5
456
102
{ACAD_REACTORS
330
442
102
}
330
442
100
AcDbScale
 70
     0
300
1/32" = 1'-0"
140
0.03125
141
12.0
290
     0
  0
SCALE
  5
457
102
{ACAD_REACTORS
330
442
102
}
330
442
100
AcDbScale
 70
     0
300
1/16" = 1'-0"
140
0.0625
141
12.0
290
     0
  0
SCALE
  5
458
102
{ACAD_REACTORS
330
442
102
}
330
442
100
AcDbScale
 70
     0
300
3/32" = 1'-0"
140
0.09375
141
12.0
290
     0
  0
SCALE
  5
459
102
{ACAD_REACTORS
330
442
102
}
330
442
100
AcDbScale
 70
     0
300
1/8" = 1'-0"
140
0.125
141
12.0
290
     0
  0
SCALE
  5
45A
102
{ACAD_REACTORS
330
442
102
}
330
442
100
AcDbScale
 70
     0
300
3/16" = 1'-0"
140
0.1875
141
12.0
290
     0
  0
SCALE
  5
45B
102
{ACAD_REACTORS
330
442
102
}
330
442
100
AcDbScale
 70
     0
300
1/4" = 1'-0"
140
0.25
141
12.0
290
     0
  0
SCALE
  5
45C
102
{ACAD_REACTORS
330
442
102
}
330
442
100
AcDbScale
 70
     0
300
3/8" = 1'-0"
140
0.375
141
12.0
290
     0
  0
SCALE
  5
45D
102
{ACAD_REACTORS
330
442
102
}
330
442
100
AcDbScale
 70
     0
300
1/2" = 1'-0"
140
0.5
141
12.0
290
     0
  0
SCALE
  5
45E
102
{ACAD_REACTORS
330
442
102
}
330
442
100
AcDbScale
 70
     0
300
3/4" = 1'-0"
140
0.75
141
12.0
290
     0
  0
SCALE
  5
45F
102
{ACAD_REACTORS
330
442
102
}
330
442
100
AcDbScale
 70
     0
300
1" = 1'-0"
140
1.0
141
12.0
290
     0
  0
SCALE
  5
460
102
{ACAD_REACTORS
330
442
102
}
330
442
100
AcDbScale
 70
     0
300
1-1/2" = 1'-0"
140
1.5
141
12.0
290
     0
  0
SCALE
  5
461
102
{ACAD_REACTORS
330
442
102
}
330
442
100
AcDbScale
 70
     0
300
3" = 1'-0"
140
3.0
141
12.0
290
     0
  0
SCALE
  5
462
102
{ACAD_REACTORS
330
442
102
}
330
442
100
AcDbScale
 70
     0
300
6" = 1'-0"
140
6.0
141
12.0
290
     0
  0
SCALE
  5
463
102
{ACAD_REACTORS
330
442
102
}
330
442
100
AcDbScale
 70
     0
300
1'-0" = 1'-0"
140
12.0
141
12.0
290
     0
  0
VISUALSTYLE
  5
2F
102
{ACAD_REACTORS
330
2A
102
}
102
{ACAD_XDICTIONARY
360
D94
102
}
330
2A
100
AcDbVisualStyle
  2
2dWireframe
 70
     4
 71
     0
 72
     2
 73
     0
 90
        0
 40
-0.6
 41
-30.0
 62
     5
 63
     7
 74
     1
 91
        4
 64
     7
 65
   257
 75
     1
175
     1
 42
1.0
 92
        0
 66
   257
 43
1.0
 76
     1
 77
     6
 78
     2
 67
     7
 79
     5
170
     0
171
     0
290
     0
174
     0
 93
        1
 44
0.0
173
     0
291
     0
 45
0.0
1001
ACAD
1000
AcDbSavedByObjectVersion
1070
     0
  0
VISUALSTYLE
  5
31
102
{ACAD_REACTORS
330
2A
102
}
102
{ACAD_XDICTIONARY
360
D98
102
}
330
2A
100
AcDbVisualStyle
  2
3D Hidden
 70
     6
 71
     1
 72
     2
 73
     2
 90
        0
 40
-0.6
 41
-30.0
 62
     5
 63
     7
 74
     2
 91
        2
 64
     7
 65
   257
 75
     2
175
     1
 42
40.0
 92
        0
 66
   257
 43
1.0
 76
     1
 77
     6
 78
     2
 67
     7
 79
     3
170
     0
171
     0
290
     0
174
     0
 93
        1
 44
0.0
173
     0
291
     0
 45
0.0
1001
ACAD
1000
AcDbSavedByObjectVersion
1070
     0
  0
VISUALSTYLE
  5
30
102
{ACAD_REACTORS
330
2A
102
}
102
{ACAD_XDICTIONARY
360
D96
102
}
330
2A
100
AcDbVisualStyle
  2
3dWireframe
 70
     5
 71
     0
 72
     2
 73
     0
 90
        0
 40
-0.6
 41
-30.0
 62
     5
 63
     7
 74
     1
 91
        4
 64
     7
 65
   257
 75
     1
175
     1
 42
1.0
 92
        0
 66
   257
 43
1.0
 76
     1
 77
     6
 78
     2
 67
     7
 79
     5
170
     0
171
     0
290
     0
174
     0
 93
        1
 44
0.0
173
     0
291
     0
 45
0.0
1001
ACAD
1000
AcDbSavedByObjectVersion
1070
     0
  0
VISUALSTYLE
  5
32
102
{ACAD_REACTORS
330
2A
102
}
102
{ACAD_XDICTIONARY
360
D9A
102
}
330
2A
100
AcDbVisualStyle
  2
Basic
 70
     7
 71
     1
 72
     0
 73
     1
 90
        0
 40
-0.6
 41
-30.0
 62
     5
 63
     7
 74
     0
 91
        4
 64
     7
 65
   257
 75
     1
175
     1
 42
1.0
 92
        8
 66
     7
 43
1.0
 76
     1
 77
     6
 78
     2
 67
     7
 79
     5
170
     0
171
     0
290
     0
174
     0
 93
        1
 44
0.0
173
     0
291
     1
 45
0.0
1001
ACAD
1000
AcDbSavedByObjectVersion
1070
     0
  0
VISUALSTYLE
  5
36
102
{ACAD_REACTORS
330
2A
102
}
102
{ACAD_XDICTIONARY
360
DA2
102
}
330
2A
100
AcDbVisualStyle
  2
Brighten
 70
    12
 71
     2
 72
     2
 73
     0
 90
        0
 40
-0.6
 41
-30.0
 62
     5
 63
     7
 74
     1
 91
        4
 64
     7
 65
   257
 75
     1
175
     1
 42
1.0
 92
        8
 66
     7
 43
1.0
 76
     1
 77
     6
 78
     2
 67
     7
 79
     5
170
     0
171
     0
290
     0
174
     0
 93
        1
 44
50.0
173
     0
291
     1
 45
0.0
1001
ACAD
1000
AcDbSavedByObjectVersion
1070
     0
  0
VISUALSTYLE
  5
3A
102
{ACAD_REACTORS
330
2A
102
}
102
{ACAD_XDICTIONARY
360
DAA
102
}
330
2A
100
AcDbVisualStyle
  2
ColorChange
 70
    16
 71
     2
 72
     2
 73
     3
 90
        0
 40
-0.6
 41
-30.0
 62
     5
 63
     8
 74
     1
 91
        4
 64
     7
 65
   257
 75
     1
175
     1
 42
1.0
 92
        8
 66
     8
 43
1.0
 76
     1
 77
     6
 78
     2
 67
     7
 79
     5
170
     0
171
     0
290
     0
174
     0
 93
        1
 44
0.0
173
     0
291
     1
 45
0.0
1001
ACAD
1000
AcDbSavedByObjectVersion
1070
     0
  0
VISUALSTYLE
  5
34
102
{ACAD_REACTORS
330
2A
102
}
102
{ACAD_XDICTIONARY
360
D9E
102
}
330
2A
100
AcDbVisualStyle
  2
Conceptual
 70
     9
 71
     3
 72
     2
 73
     0
 90
        0
 40
-0.6
 41
-30.0
 62
     5
 63
     7
 74
     2
 91
        2
 64
     7
 65
   257
 75
     1
175
     1
 42
40.0
 92
        8
 66
     7
 43
1.0
 76
     1
 77
     6
 78
     2
 67
     7
 79
     3
170
     0
171
     0
290
     0
174
     0
 93
        1
 44
0.0
173
     0
291
     0
 45
0.0
1001
ACAD
1000
AcDbSavedByObjectVersion
1070
     0
  0
VISUALSTYLE
  5
35
102
{ACAD_REACTORS
330
2A
102
}
102
{ACAD_XDICTIONARY
360
DA0
102
}
330
2A
100
AcDbVisualStyle
  2
Dim
 70
    11
 71
     2
 72
     2
 73
     0
 90
        0
 40
-0.6
 41
-30.0
 62
     5
 63
     7
 74
     1
 91
        4
 64
     7
 65
   257
 75
     1
175
     1
 42
1.0
 92
        8
 66
     7
 43
1.0
 76
     1
 77
     6
 78
     2
 67
     7
 79
     5
170
     0
171
     0
290
     0
174
     0
 93
        1
 44
-50.0
173
     0
291
     1
 45
0.0
1001
ACAD
1000
AcDbSavedByObjectVersion
1070
     0
  0
VISUALSTYLE
  5
39
102
{ACAD_REACTORS
330
2A
102
}
102
{ACAD_XDICTIONARY
360
DA8
102
}
330
2A
100
AcDbVisualStyle
  2
Facepattern
 70
    15
 71
     2
 72
     2
 73
     0
 90
        0
 40
-0.6
 41
-30.0
 62
     5
 63
     7
 74
     1
 91
        4
 64
     7
 65
   257
 75
     1
175
     1
 42
1.0
 92
        8
 66
     7
 43
1.0
 76
     1
 77
     6
 78
     2
 67
     7
 79
     5
170
     0
171
     0
290
     0
174
     0
 93
        1
 44
0.0
173
     0
291
     1
 45
0.0
1001
ACAD
1000
AcDbSavedByObjectVersion
1070
     0
  0
VISUALSTYLE
  5
2B
102
{ACAD_REACTORS
330
2A
102
}
102
{ACAD_XDICTIONARY
360
D8C
102
}
330
2A
100
AcDbVisualStyle
  2
Flat
 70
     0
 71
     2
 72
     1
 73
     1
 90
        2
 40
-0.6
 41
30.0
 62
     5
 63
     7
 74
     0
 91
        4
 64
     7
 65
   257
 75
     1
175
     1
 42
1.0
 92
        8
 66
     7
 43
1.0
 76
     1
 77
     6
 78
     2
 67
     7
 79
     5
170
     0
171
     0
290
     0
174
     0
 93
       13
 44
0.0
173
     0
291
     1
 45
0.0
1001
ACAD
1000
AcDbSavedByObjectVersion
1070
     0
  0
VISUALSTYLE
  5
2C
102
{ACAD_REACTORS
330
2A
102
}
102
{ACAD_XDICTIONARY
360
D8E
102
}
330
2A
100
AcDbVisualStyle
  2
FlatWithEdges
 70
     1
 71
     2
 72
     1
 73
     1
 90
        2
 40
-0.6
 41
30.0
 62
     5
 63
     7
 74
     1
 91
        4
 64
     7
 65
   257
 75
     1
175
     1
 42
1.0
 92
        0
 66
   257
 43
1.0
 76
     1
 77
     6
 78
     2
 67
     7
 79
     5
170
     0
171
     0
290
     0
174
     0
 93
       13
 44
0.0
173
     0
291
     1
 45
0.0
1001
ACAD
1000
AcDbSavedByObjectVersion
1070
     0
  0
VISUALSTYLE
  5
2D
102
{ACAD_REACTORS
330
2A
102
}
102
{ACAD_XDICTIONARY
360
D90
102
}
330
2A
100
AcDbVisualStyle
  2
Gouraud
 70
     2
 71
     2
 72
     2
 73
     1
 90
        2
 40
-0.6
 41
30.0
 62
     5
 63
     7
 74
     0
 91
        4
 64
     7
 65
   257
 75
     1
175
     1
 42
1.0
 92
        0
 66
     7
 43
1.0
 76
     1
 77
     6
 78
     2
 67
     7
 79
     5
170
     0
171
     0
290
     0
174
     0
 93
       13
 44
0.0
173
     0
291
     1
 45
0.0
1001
ACAD
1000
AcDbSavedByObjectVersion
1070
     0
  0
VISUALSTYLE
  5
2E
102
{ACAD_REACTORS
330
2A
102
}
102
{ACAD_XDICTIONARY
360
D92
102
}
330
2A
100
AcDbVisualStyle
  2
GouraudWithEdges
 70
     3
 71
     2
 72
     2
 73
     1
 90
        2
 40
-0.6
 41
30.0
 62
     5
 63
     7
 74
     1
 91
        4
 64
     7
 65
   257
 75
     1
175
     1
 42
1.0
 92
        0
 66
   257
 43
1.0
 76
     1
 77
     6
 78
     2
 67
     7
 79
     5
170
     0
171
     0
290
     0
174
     0
 93
       13
 44
0.0
173
     0
291
     1
 45
0.0
1001
ACAD
1000
AcDbSavedByObjectVersion
1070
     0
  0
VISUALSTYLE
  5
38
102
{ACAD_REACTORS
330
2A
102
}
102
{ACAD_XDICTIONARY
360
DA6
102
}
330
2A
100
AcDbVisualStyle
  2
Linepattern
 70
    14
 71
     2
 72
     2
 73
     0
 90
        0
 40
-0.6
 41
-30.0
 62
     5
 63
     7
 74
     1
 91
        4
 64
     7
 65
   257
 75
     7
175
     7
 42
1.0
 92
        8
 66
     7
 43
1.0
 76
     1
 77
     6
 78
     2
 67
     7
 79
     5
170
     0
171
     0
290
     0
174
     0
 93
        1
 44
0.0
173
     0
291
     1
 45
0.0
1001
ACAD
1000
AcDbSavedByObjectVersion
1070
     0
  0
VISUALSTYLE
  5
33
102
{ACAD_REACTORS
330
2A
102
}
102
{ACAD_XDICTIONARY
360
D9C
102
}
330
2A
100
AcDbVisualStyle
  2
Realistic
 70
     8
 71
     2
 72
     2
 73
     0
 90
        0
 40
-0.6
 41
-30.0
 62
     5
 63
     7
 74
     1
 91
        0
 64
     7
 65
   257
 75
     1
175
     1
 42
1.0
 92
        8
 66
     8
 43
1.0
 76
     1
 77
     6
 78
     2
 67
     7
 79
     5
170
     0
171
     0
290
     0
174
     0
 93
       13
 44
0.0
173
     0
291
     0
 45
0.0
1001
ACAD
1000
AcDbSavedByObjectVersion
1070
     0
  0
VISUALSTYLE
  5
37
102
{ACAD_REACTORS
330
2A
102
}
102
{ACAD_XDICTIONARY
360
DA4
102
}
330
2A
100
AcDbVisualStyle
  2
Thicken
 70
    13
 71
     2
 72
     2
 73
     0
 90
        0
 40
-0.6
 41
-30.0
 62
     5
 63
     7
 74
     1
 91
        4
 64
     7
 65
   257
 75
     1
175
     1
 42
1.0
 92
       12
 66
     7
 43
1.0
 76
     1
 77
     6
 78
     2
 67
     7
 79
     5
170
     0
171
     0
290
     0
174
     0
 93
        1
 44
0.0
173
     0
291
     1
 45
0.0
1001
ACAD
1000
AcDbSavedByObjectVersion
1070
     0
  0
DICTIONARYVAR
  5
D89
102
{ACAD_REACTORS
330
D84
102
}
330
D84
100
DictionaryVariables
280
     0
  1
1:1
  0
DICTIONARYVAR
  5
D8A
102
{ACAD_REACTORS
330
D84
102
}
330
D84
100
DictionaryVariables
280
     0
  1
2
  0
DICTIONARYVAR
  5
D8B
102
{ACAD_REACTORS
330
D84
102
}
330
D84
100
DictionaryVariables
280
     0
  1
1
  0
DICTIONARYVAR
  5
D88
102
{ACAD_REACTORS
330
D84
102
}
330
D84
100
DictionaryVariables
280
     0
  1
80.000000
  0
DICTIONARYVAR
  5
D87
102
{ACAD_REACTORS
330
D84
102
}
330
D84
100
DictionaryVariables
280
     0
  1
5.000000
  0
DICTIONARY
  5
DAE
330
3D
100
AcDbDictionary
280
     1
281
     1
  3
ACAD_XREC_ROUNDTRIP
360
DAF
  0
DICTIONARY
  5
DAC
330
3C
100
AcDbDictionary
280
     1
281
     1
  3
ACAD_XREC_ROUNDTRIP
360
DAD
  0
DICTIONARY
  5
DB0
330
3E
100
AcDbDictionary
280
     1
281
     1
  3
ACAD_XREC_ROUNDTRIP
360
DB1
  0
DICTIONARY
  5
D94
330
2F
100
AcDbDictionary
280
     1
281
     1
  3
ACAD_XREC_ROUNDTRIP
360
D95
  0
DICTIONARY
  5
D98
330
31
100
AcDbDictionary
280
     1
281
     1
  3
ACAD_XREC_ROUNDTRIP
360
D99
  0
DICTIONARY
  5
D96
330
30
100
AcDbDictionary
280
     1
281
     1
  3
ACAD_XREC_ROUNDTRIP
360
D97
  0
DICTIONARY
  5
D9A
330
32
100
AcDbDictionary
280
     1
281
     1
  3
ACAD_XREC_ROUNDTRIP
360
D9B
  0
DICTIONARY
  5
DA2
330
36
100
AcDbDictionary
280
     1
281
     1
  3
ACAD_XREC_ROUNDTRIP
360
DA3
  0
DICTIONARY
  5
DAA
330
3A
100
AcDbDictionary
280
     1
281
     1
  3
ACAD_XREC_ROUNDTRIP
360
DAB
  0
DICTIONARY
  5
D9E
330
34
100
AcDbDictionary
280
     1
281
     1
  3
ACAD_XREC_ROUNDTRIP
360
D9F
  0
DICTIONARY
  5
DA0
330
35
100
AcDbDictionary
280
     1
281
     1
  3
ACAD_XREC_ROUNDTRIP
360
DA1
  0
DICTIONARY
  5
DA8
330
39
100
AcDbDictionary
280
     1
281
     1
  3
ACAD_XREC_ROUNDTRIP
360
DA9
  0
DICTIONARY
  5
D8C
330
2B
100
AcDbDictionary
280
     1
281
     1
  3
ACAD_XREC_ROUNDTRIP
360
D8D
  0
DICTIONARY
  5
D8E
330
2C
100
AcDbDictionary
280
     1
281
     1
  3
ACAD_XREC_ROUNDTRIP
360
D8F
  0
DICTIONARY
  5
D90
330
2D
100
AcDbDictionary
280
     1
281
     1
  3
ACAD_XREC_ROUNDTRIP
360
D91
  0
DICTIONARY
  5
D92
330
2E
100
AcDbDictionary
280
     1
281
     1
  3
ACAD_XREC_ROUNDTRIP
360
D93
  0
DICTIONARY
  5
DA6
330
38
100
AcDbDictionary
280
     1
281
     1
  3
ACAD_XREC_ROUNDTRIP
360
DA7
  0
DICTIONARY
  5
D9C
330
33
100
AcDbDictionary
280
     1
281
     1
  3
ACAD_XREC_ROUNDTRIP
360
D9D
  0
DICTIONARY
  5
DA4
330
37
100
AcDbDictionary
280
     1
281
     1
  3
ACAD_XREC_ROUNDTRIP
360
DA5
  0
XRECORD
  5
DAF
102
{ACAD_REACTORS
330
DAE
102
}
330
DAE
100
AcDbXrecord
280
     1
102
MATERIAL
148
0.0
149
0.0
149
0.0
 93
        0
 94
      127
282
     0
 72
     1
 77
     1
171
     1
175
     1
179
     1
273
     0
  0
XRECORD
  5
DAD
102
{ACAD_REACTORS
330
DAC
102
}
330
DAC
100
AcDbXrecord
280
     1
102
MATERIAL
148
0.0
149
0.0
149
0.0
 93
        0
 94
      127
282
     0
 72
     1
 77
     1
171
     1
175
     1
179
     1
273
     0
  0
XRECORD
  5
DB1
102
{ACAD_REACTORS
330
DB0
102
}
330
DB0
100
AcDbXrecord
280
     1
102
MATERIAL
148
0.0
149
0.0
149
0.0
 93
        0
 94
      127
282
     0
 72
     1
 77
     1
171
     1
175
     1
179
     1
273
     0
  0
XRECORD
  5
D95
102
{ACAD_REACTORS
330
D94
102
}
330
D94
100
AcDbXrecord
280
     1
102
RTVSPropertyOp0
 70
     1
102
RTVSPropertyOp1
 70
     1
102
RTVSPropertyOp2
 70
     1
102
RTVSPropertyOp3
 70
     1
102
RTVSPropertyOp4
 70
     1
102
RTVSPropertyOp5
 70
     1
102
RTVSPropertyOp6
 70
     1
102
RTVSPropertyOp7
 70
     1
102
RTVSPropertyOp8
 70
     1
102
RTVSPropertyOp9
 70
     1
102
RTVSPropertyOp10
 70
     1
102
RTVSPropertyOp11
 70
     1
102
RTVSPropertyOp12
 70
     1
102
RTVSPropertyOp13
 70
     1
102
RTVSPropertyOp14
 70
     1
102
RTVSPropertyOp15
 70
     1
102
RTVSPropertyOp16
 70
     1
102
RTVSPropertyOp17
 70
     1
102
RTVSPropertyOp18
 70
     1
102
RTVSPropertyOp19
 70
     1
102
RTVSPropertyOp20
 70
     1
102
RTVSPropertyOp21
 70
     1
102
RTVSPropertyOp22
 70
     1
102
RTVSPropertyOp23
 70
     1
102
RTVSPropertyOp24
 70
     1
102
RTVSPropertyOp25
 70
     1
102
RTVSPropertyOp26
 70
     1
102
RTVSPropertyOp27
 70
     1
  0
XRECORD
  5
D99
102
{ACAD_REACTORS
330
D98
102
}
330
D98
100
AcDbXrecord
280
     1
102
RTVSPropertyOp0
 70
     1
102
RTVSPropertyOp1
 70
     1
102
RTVSPropertyOp2
 70
     1
102
RTVSPropertyOp3
 70
     1
102
RTVSPropertyOp4
 70
     1
102
RTVSPropertyOp5
 70
     1
102
RTVSPropertyOp6
 70
     1
102
RTVSPropertyOp7
 70
     1
102
RTVSPropertyOp8
 70
     1
102
RTVSPropertyOp9
 70
     1
102
RTVSPropertyOp10
 70
     1
102
RTVSPropertyOp11
 70
     1
102
RTVSPropertyOp12
 70
     1
102
RTVSPropertyOp13
 70
     1
102
RTVSPropertyOp14
 70
     1
102
RTVSPropertyOp15
 70
     1
102
RTVSPropertyOp16
 70
     1
102
RTVSPropertyOp17
 70
     1
102
RTVSPropertyOp18
 70
     1
102
RTVSPropertyOp19
 70
     1
102
RTVSPropertyOp20
 70
     1
102
RTVSPropertyOp21
 70
     1
102
RTVSPropertyOp22
 70
     1
102
RTVSPropertyOp23
 70
     1
102
RTVSPropertyOp24
 70
     1
102
RTVSPropertyOp25
 70
     1
102
RTVSPropertyOp26
 70
     1
102
RTVSPropertyOp27
 70
     1
  0
XRECORD
  5
D97
102
{ACAD_REACTORS
330
D96
102
}
330
D96
100
AcDbXrecord
280
     1
102
RTVSPropertyOp0
 70
     1
102
RTVSPropertyOp1
 70
     1
102
RTVSPropertyOp2
 70
     1
102
RTVSPropertyOp3
 70
     1
102
RTVSPropertyOp4
 70
     1
102
RTVSPropertyOp5
 70
     1
102
RTVSPropertyOp6
 70
     1
102
RTVSPropertyOp7
 70
     1
102
RTVSPropertyOp8
 70
     1
102
RTVSPropertyOp9
 70
     1
102
RTVSPropertyOp10
 70
     1
102
RTVSPropertyOp11
 70
     1
102
RTVSPropertyOp12
 70
     1
102
RTVSPropertyOp13
 70
     1
102
RTVSPropertyOp14
 70
     1
102
RTVSPropertyOp15
 70
     1
102
RTVSPropertyOp16
 70
     1
102
RTVSPropertyOp17
 70
     1
102
RTVSPropertyOp18
 70
     1
102
RTVSPropertyOp19
 70
     1
102
RTVSPropertyOp20
 70
     1
102
RTVSPropertyOp21
 70
     1
102
RTVSPropertyOp22
 70
     1
102
RTVSPropertyOp23
 70
     1
102
RTVSPropertyOp24
 70
     1
102
RTVSPropertyOp25
 70
     1
102
RTVSPropertyOp26
 70
     1
102
RTVSPropertyOp27
 70
     1
  0
XRECORD
  5
D9B
102
{ACAD_REACTORS
330
D9A
102
}
330
D9A
100
AcDbXrecord
280
     1
102
RTVSPropertyOp0
 70
     1
102
RTVSPropertyOp1
 70
     1
102
RTVSPropertyOp2
 70
     1
102
RTVSPropertyOp3
 70
     1
102
RTVSPropertyOp4
 70
     1
102
RTVSPropertyOp5
 70
     1
102
RTVSPropertyOp6
 70
     1
102
RTVSPropertyOp7
 70
     1
102
RTVSPropertyOp8
 70
     1
102
RTVSPropertyOp9
 70
     1
102
RTVSPropertyOp10
 70
     1
102
RTVSPropertyOp11
 70
     1
102
RTVSPropertyOp12
 70
     1
102
RTVSPropertyOp13
 70
     1
102
RTVSPropertyOp14
 70
     1
102
RTVSPropertyOp15
 70
     1
102
RTVSPropertyOp16
 70
     1
102
RTVSPropertyOp17
 70
     1
102
RTVSPropertyOp18
 70
     1
102
RTVSPropertyOp19
 70
     1
102
RTVSPropertyOp20
 70
     1
102
RTVSPropertyOp21
 70
     1
102
RTVSPropertyOp22
 70
     1
102
RTVSPropertyOp23
 70
     1
102
RTVSPropertyOp24
 70
     1
102
RTVSPropertyOp25
 70
     1
102
RTVSPropertyOp26
 70
     1
102
RTVSPropertyOp27
 70
     1
  0
XRECORD
  5
DA3
102
{ACAD_REACTORS
330
DA2
102
}
330
DA2
100
AcDbXrecord
280
     1
102
RTVSPropertyOp0
 70
     1
102
RTVSPropertyOp1
 70
     1
102
RTVSPropertyOp2
 70
     1
102
RTVSPropertyOp3
 70
     1
102
RTVSPropertyOp4
 70
     1
102
RTVSPropertyOp5
 70
     1
102
RTVSPropertyOp6
 70
     1
102
RTVSPropertyOp7
 70
     1
102
RTVSPropertyOp8
 70
     1
102
RTVSPropertyOp9
 70
     1
102
RTVSPropertyOp10
 70
     1
102
RTVSPropertyOp11
 70
     1
102
RTVSPropertyOp12
 70
     1
102
RTVSPropertyOp13
 70
     1
102
RTVSPropertyOp14
 70
     1
102
RTVSPropertyOp15
 70
     1
102
RTVSPropertyOp16
 70
     1
102
RTVSPropertyOp17
 70
     1
102
RTVSPropertyOp18
 70
     1
102
RTVSPropertyOp19
 70
     1
102
RTVSPropertyOp20
 70
     1
102
RTVSPropertyOp21
 70
     1
102
RTVSPropertyOp22
 70
     1
102
RTVSPropertyOp23
 70
     1
102
RTVSPropertyOp24
 70
     1
102
RTVSPropertyOp25
 70
     1
102
RTVSPropertyOp26
 70
     1
102
RTVSPropertyOp27
 70
     1
  0
XRECORD
  5
DAB
102
{ACAD_REACTORS
330
DAA
102
}
330
DAA
100
AcDbXrecord
280
     1
102
RTVSPropertyOp0
 70
     1
102
RTVSPropertyOp1
 70
     1
102
RTVSPropertyOp2
 70
     1
102
RTVSPropertyOp3
 70
     1
102
RTVSPropertyOp4
 70
     1
102
RTVSPropertyOp5
 70
     1
102
RTVSPropertyOp6
 70
     1
102
RTVSPropertyOp7
 70
     1
102
RTVSPropertyOp8
 70
     1
102
RTVSPropertyOp9
 70
     1
102
RTVSPropertyOp10
 70
     1
102
RTVSPropertyOp11
 70
     1
102
RTVSPropertyOp12
 70
     1
102
RTVSPropertyOp13
 70
     1
102
RTVSPropertyOp14
 70
     1
102
RTVSPropertyOp15
 70
     1
102
RTVSPropertyOp16
 70
     1
102
RTVSPropertyOp17
 70
     1
102
RTVSPropertyOp18
 70
     1
102
RTVSPropertyOp19
 70
     1
102
RTVSPropertyOp20
 70
     1
102
RTVSPropertyOp21
 70
     1
102
RTVSPropertyOp22
 70
     1
102
RTVSPropertyOp23
 70
     1
102
RTVSPropertyOp24
 70
     1
102
RTVSPropertyOp25
 70
     1
102
RTVSPropertyOp26
 70
     1
102
RTVSPropertyOp27
 70
     1
  0
XRECORD
  5
D9F
102
{ACAD_REACTORS
330
D9E
102
}
330
D9E
100
AcDbXrecord
280
     1
102
RTVSPropertyOp0
 70
     1
102
RTVSPropertyOp1
 70
     1
102
RTVSPropertyOp2
 70
     1
102
RTVSPropertyOp3
 70
     1
102
RTVSPropertyOp4
 70
     1
102
RTVSPropertyOp5
 70
     1
102
RTVSPropertyOp6
 70
     1
102
RTVSPropertyOp7
 70
     1
102
RTVSPropertyOp8
 70
     1
102
RTVSPropertyOp9
 70
     1
102
RTVSPropertyOp10
 70
     1
102
RTVSPropertyOp11
 70
     1
102
RTVSPropertyOp12
 70
     1
102
RTVSPropertyOp13
 70
     1
102
RTVSPropertyOp14
 70
     1
102
RTVSPropertyOp15
 70
     1
102
RTVSPropertyOp16
 70
     1
102
RTVSPropertyOp17
 70
     1
102
RTVSPropertyOp18
 70
     1
102
RTVSPropertyOp19
 70
     1
102
RTVSPropertyOp20
 70
     1
102
RTVSPropertyOp21
 70
     1
102
RTVSPropertyOp22
 70
     1
102
RTVSPropertyOp23
 70
     1
102
RTVSPropertyOp24
 70
     1
102
RTVSPropertyOp25
 70
     1
102
RTVSPropertyOp26
 70
     1
102
RTVSPropertyOp27
 70
     1
  0
XRECORD
  5
DA1
102
{ACAD_REACTORS
330
DA0
102
}
330
DA0
100
AcDbXrecord
280
     1
102
RTVSPropertyOp0
 70
     1
102
RTVSPropertyOp1
 70
     1
102
RTVSPropertyOp2
 70
     1
102
RTVSPropertyOp3
 70
     1
102
RTVSPropertyOp4
 70
     1
102
RTVSPropertyOp5
 70
     1
102
RTVSPropertyOp6
 70
     1
102
RTVSPropertyOp7
 70
     1
102
RTVSPropertyOp8
 70
     1
102
RTVSPropertyOp9
 70
     1
102
RTVSPropertyOp10
 70
     1
102
RTVSPropertyOp11
 70
     1
102
RTVSPropertyOp12
 70
     1
102
RTVSPropertyOp13
 70
     1
102
RTVSPropertyOp14
 70
     1
102
RTVSPropertyOp15
 70
     1
102
RTVSPropertyOp16
 70
     1
102
RTVSPropertyOp17
 70
     1
102
RTVSPropertyOp18
 70
     1
102
RTVSPropertyOp19
 70
     1
102
RTVSPropertyOp20
 70
     1
102
RTVSPropertyOp21
 70
     1
102
RTVSPropertyOp22
 70
     1
102
RTVSPropertyOp23
 70
     1
102
RTVSPropertyOp24
 70
     1
102
RTVSPropertyOp25
 70
     1
102
RTVSPropertyOp26
 70
     1
102
RTVSPropertyOp27
 70
     1
  0
XRECORD
  5
DA9
102
{ACAD_REACTORS
330
DA8
102
}
330
DA8
100
AcDbXrecord
280
     1
102
RTVSPropertyOp0
 70
     1
102
RTVSPropertyOp1
 70
     1
102
RTVSPropertyOp2
 70
     1
102
RTVSPropertyOp3
 70
     1
102
RTVSPropertyOp4
 70
     1
102
RTVSPropertyOp5
 70
     1
102
RTVSPropertyOp6
 70
     1
102
RTVSPropertyOp7
 70
     1
102
RTVSPropertyOp8
 70
     1
102
RTVSPropertyOp9
 70
     1
102
RTVSPropertyOp10
 70
     1
102
RTVSPropertyOp11
 70
     1
102
RTVSPropertyOp12
 70
     1
102
RTVSPropertyOp13
 70
     1
102
RTVSPropertyOp14
 70
     1
102
RTVSPropertyOp15
 70
     1
102
RTVSPropertyOp16
 70
     1
102
RTVSPropertyOp17
 70
     1
102
RTVSPropertyOp18
 70
     1
102
RTVSPropertyOp19
 70
     1
102
RTVSPropertyOp20
 70
     1
102
RTVSPropertyOp21
 70
     1
102
RTVSPropertyOp22
 70
     1
102
RTVSPropertyOp23
 70
     1
102
RTVSPropertyOp24
 70
     1
102
RTVSPropertyOp25
 70
     1
102
RTVSPropertyOp26
 70
     1
102
RTVSPropertyOp27
 70
     1
  0
XRECORD
  5
D8D
102
{ACAD_REACTORS
330
D8C
102
}
330
D8C
100
AcDbXrecord
280
     1
102
RTVSPropertyOp0
 70
     1
102
RTVSPropertyOp1
 70
     1
102
RTVSPropertyOp2
 70
     1
102
RTVSPropertyOp3
 70
     1
102
RTVSPropertyOp4
 70
     1
102
RTVSPropertyOp5
 70
     1
102
RTVSPropertyOp6
 70
     1
102
RTVSPropertyOp7
 70
     1
102
RTVSPropertyOp8
 70
     1
102
RTVSPropertyOp9
 70
     1
102
RTVSPropertyOp10
 70
     1
102
RTVSPropertyOp11
 70
     1
102
RTVSPropertyOp12
 70
     1
102
RTVSPropertyOp13
 70
     1
102
RTVSPropertyOp14
 70
     1
102
RTVSPropertyOp15
 70
     1
102
RTVSPropertyOp16
 70
     1
102
RTVSPropertyOp17
 70
     1
102
RTVSPropertyOp18
 70
     1
102
RTVSPropertyOp19
 70
     1
102
RTVSPropertyOp20
 70
     1
102
RTVSPropertyOp21
 70
     1
102
RTVSPropertyOp22
 70
     1
102
RTVSPropertyOp23
 70
     1
102
RTVSPropertyOp24
 70
     1
102
RTVSPropertyOp25
 70
     1
102
RTVSPropertyOp26
 70
     1
102
RTVSPropertyOp27
 70
     1
  0
XRECORD
  5
D8F
102
{ACAD_REACTORS
330
D8E
102
}
330
D8E
100
AcDbXrecord
280
     1
102
RTVSPropertyOp0
 70
     1
102
RTVSPropertyOp1
 70
     1
102
RTVSPropertyOp2
 70
     1
102
RTVSPropertyOp3
 70
     1
102
RTVSPropertyOp4
 70
     1
102
RTVSPropertyOp5
 70
     1
102
RTVSPropertyOp6
 70
     1
102
RTVSPropertyOp7
 70
     1
102
RTVSPropertyOp8
 70
     1
102
RTVSPropertyOp9
 70
     1
102
RTVSPropertyOp10
 70
     1
102
RTVSPropertyOp11
 70
     1
102
RTVSPropertyOp12
 70
     1
102
RTVSPropertyOp13
 70
     1
102
RTVSPropertyOp14
 70
     1
102
RTVSPropertyOp15
 70
     1
102
RTVSPropertyOp16
 70
     1
102
RTVSPropertyOp17
 70
     1
102
RTVSPropertyOp18
 70
     1
102
RTVSPropertyOp19
 70
     1
102
RTVSPropertyOp20
 70
     1
102
RTVSPropertyOp21
 70
     1
102
RTVSPropertyOp22
 70
     1
102
RTVSPropertyOp23
 70
     1
102
RTVSPropertyOp24
 70
     1
102
RTVSPropertyOp25
 70
     1
102
RTVSPropertyOp26
 70
     1
102
RTVSPropertyOp27
 70
     1
  0
XRECORD
  5
D91
102
{ACAD_REACTORS
330
D90
102
}
330
D90
100
AcDbXrecord
280
     1
102
RTVSPropertyOp0
 70
     1
102
RTVSPropertyOp1
 70
     1
102
RTVSPropertyOp2
 70
     1
102
RTVSPropertyOp3
 70
     1
102
RTVSPropertyOp4
 70
     1
102
RTVSPropertyOp5
 70
     1
102
RTVSPropertyOp6
 70
     1
102
RTVSPropertyOp7
 70
     1
102
RTVSPropertyOp8
 70
     1
102
RTVSPropertyOp9
 70
     1
102
RTVSPropertyOp10
 70
     1
102
RTVSPropertyOp11
 70
     1
102
RTVSPropertyOp12
 70
     1
102
RTVSPropertyOp13
 70
     1
102
RTVSPropertyOp14
 70
     1
102
RTVSPropertyOp15
 70
     1
102
RTVSPropertyOp16
 70
     1
102
RTVSPropertyOp17
 70
     1
102
RTVSPropertyOp18
 70
     1
102
RTVSPropertyOp19
 70
     1
102
RTVSPropertyOp20
 70
     1
102
RTVSPropertyOp21
 70
     1
102
RTVSPropertyOp22
 70
     1
102
RTVSPropertyOp23
 70
     1
102
RTVSPropertyOp24
 70
     1
102
RTVSPropertyOp25
 70
     1
102
RTVSPropertyOp26
 70
     1
102
RTVSPropertyOp27
 70
     1
  0
XRECORD
  5
D93
102
{ACAD_REACTORS
330
D92
102
}
330
D92
100
AcDbXrecord
280
     1
102
RTVSPropertyOp0
 70
     1
102
RTVSPropertyOp1
 70
     1
102
RTVSPropertyOp2
 70
     1
102
RTVSPropertyOp3
 70
     1
102
RTVSPropertyOp4
 70
     1
102
RTVSPropertyOp5
 70
     1
102
RTVSPropertyOp6
 70
     1
102
RTVSPropertyOp7
 70
     1
102
RTVSPropertyOp8
 70
     1
102
RTVSPropertyOp9
 70
     1
102
RTVSPropertyOp10
 70
     1
102
RTVSPropertyOp11
 70
     1
102
RTVSPropertyOp12
 70
     1
102
RTVSPropertyOp13
 70
     1
102
RTVSPropertyOp14
 70
     1
102
RTVSPropertyOp15
 70
     1
102
RTVSPropertyOp16
 70
     1
102
RTVSPropertyOp17
 70
     1
102
RTVSPropertyOp18
 70
     1
102
RTVSPropertyOp19
 70
     1
102
RTVSPropertyOp20
 70
     1
102
RTVSPropertyOp21
 70
     1
102
RTVSPropertyOp22
 70
     1
102
RTVSPropertyOp23
 70
     1
102
RTVSPropertyOp24
 70
     1
102
RTVSPropertyOp25
 70
     1
102
RTVSPropertyOp26
 70
     1
102
RTVSPropertyOp27
 70
     1
  0
XRECORD
  5
DA7
102
{ACAD_REACTORS
330
DA6
102
}
330
DA6
100
AcDbXrecord
280
     1
102
RTVSPropertyOp0
 70
     1
102
RTVSPropertyOp1
 70
     1
102
RTVSPropertyOp2
 70
     1
102
RTVSPropertyOp3
 70
     1
102
RTVSPropertyOp4
 70
     1
102
RTVSPropertyOp5
 70
     1
102
RTVSPropertyOp6
 70
     1
102
RTVSPropertyOp7
 70
     1
102
RTVSPropertyOp8
 70
     1
102
RTVSPropertyOp9
 70
     1
102
RTVSPropertyOp10
 70
     1
102
RTVSPropertyOp11
 70
     1
102
RTVSPropertyOp12
 70
     1
102
RTVSPropertyOp13
 70
     1
102
RTVSPropertyOp14
 70
     1
102
RTVSPropertyOp15
 70
     1
102
RTVSPropertyOp16
 70
     1
102
RTVSPropertyOp17
 70
     1
102
RTVSPropertyOp18
 70
     1
102
RTVSPropertyOp19
 70
     1
102
RTVSPropertyOp20
 70
     1
102
RTVSPropertyOp21
 70
     1
102
RTVSPropertyOp22
 70
     1
102
RTVSPropertyOp23
 70
     1
102
RTVSPropertyOp24
 70
     1
102
RTVSPropertyOp25
 70
     1
102
RTVSPropertyOp26
 70
     1
102
RTVSPropertyOp27
 70
     1
  0
XRECORD
  5
D9D
102
{ACAD_REACTORS
330
D9C
102
}
330
D9C
100
AcDbXrecord
280
     1
102
RTVSPropertyOp0
 70
     1
102
RTVSPropertyOp1
 70
     1
102
RTVSPropertyOp2
 70
     1
102
RTVSPropertyOp3
 70
     1
102
RTVSPropertyOp4
 70
     1
102
RTVSPropertyOp5
 70
     1
102
RTVSPropertyOp6
 70
     1
102
RTVSPropertyOp7
 70
     1
102
RTVSPropertyOp8
 70
     1
102
RTVSPropertyOp9
 70
     1
102
RTVSPropertyOp10
 70
     1
102
RTVSPropertyOp11
 70
     1
102
RTVSPropertyOp12
 70
     1
102
RTVSPropertyOp13
 70
     1
102
RTVSPropertyOp14
 70
     1
102
RTVSPropertyOp15
 70
     1
102
RTVSPropertyOp16
 70
     1
102
RTVSPropertyOp17
 70
     1
102
RTVSPropertyOp18
 70
     1
102
RTVSPropertyOp19
 70
     1
102
RTVSPropertyOp20
 70
     1
102
RTVSPropertyOp21
 70
     1
102
RTVSPropertyOp22
 70
     1
102
RTVSPropertyOp23
 70
     1
102
RTVSPropertyOp24
 70
     1
102
RTVSPropertyOp25
 70
     1
102
RTVSPropertyOp26
 70
     1
102
RTVSPropertyOp27
 70
     1
  0
XRECORD
  5
DA5
102
{ACAD_REACTORS
330
DA4
102
}
330
DA4
100
AcDbXrecord
280
     1
102
RTVSPropertyOp0
 70
     1
102
RTVSPropertyOp1
 70
     1
102
RTVSPropertyOp2
 70
     1
102
RTVSPropertyOp3
 70
     1
102
RTVSPropertyOp4
 70
     1
102
RTVSPropertyOp5
 70
     1
102
RTVSPropertyOp6
 70
     1
102
RTVSPropertyOp7
 70
     1
102
RTVSPropertyOp8
 70
     1
102
RTVSPropertyOp9
 70
     1
102
RTVSPropertyOp10
 70
     1
102
RTVSPropertyOp11
 70
     1
102
RTVSPropertyOp12
 70
     1
102
RTVSPropertyOp13
 70
     1
102
RTVSPropertyOp14
 70
     1
102
RTVSPropertyOp15
 70
     1
102
RTVSPropertyOp16
 70
     1
102
RTVSPropertyOp17
 70
     1
102
RTVSPropertyOp18
 70
     1
102
RTVSPropertyOp19
 70
     1
102
RTVSPropertyOp20
 70
     1
102
RTVSPropertyOp21
 70
     1
102
RTVSPropertyOp22
 70
     1
102
RTVSPropertyOp23
 70
     1
102
RTVSPropertyOp24
 70
     1
102
RTVSPropertyOp25
 70
     1
102
RTVSPropertyOp26
 70
     1
102
RTVSPropertyOp27
 70
     1
  0
ENDSEC
  0
EOF
