  0
SECTION
  2
HEADER
  9
$ACADVER
  1
AC1015
  9
$ACADMAINTVER
 70
     6
  9
$DWGCODEPAGE
  3
ANSI_1252
  9
$INSBASE
 10
0.0
 20
0.0
 30
0.0
  9
$EXTMIN
 10
0.0
 20
0.0
 30
0.0
  9
$EXTMAX
 10
25.0
 20
35.0
 30
0.0
  9
$LIMMIN
 10
0.0
 20
0.0
  9
$LIMMAX
 10
420.0
 20
297.0
  9
$ORTHOMODE
 70
     0
  9
$REGENMODE
 70
     1
  9
$FILLMODE
 70
     1
  9
$QTEXTMODE
 70
     0
  9
$MIRRTEXT
 70
     1
  9
$LTSCALE
 40
6.1
  9
$ATTMODE
 70
     1
  9
$TEXTSIZE
 40
2.5
  9
$TRACEWID
 40
1.0
  9
$TEXTSTYLE
  7
Standard
  9
$CLAYER
  8
0
  9
$CELTYPE
  6
ByLayer
  9
$CECOLOR
 62
   256
  9
$CELTSCALE
 40
1.0
  9
$DISPSILH
 70
     0
  9
$DIMSCALE
 40
1.0
  9
$DIMASZ
 40
2.5
  9
$DIMEXO
 40
0.625
  9
$DIMDLI
 40
3.75
  9
$DIMRND
 40
0.0
  9
$DIMDLE
 40
0.0
  9
$DIMEXE
 40
1.25
  9
$DIMTP
 40
0.0
  9
$DIMTM
 40
0.0
  9
$DIMTXT
 40
2.5
  9
$DIMCEN
 40
2.5
  9
$DIMTSZ
 40
0.0
  9
$DIMTOL
 70
     0
  9
$DIMLIM
 70
     0
  9
$DIMTIH
 70
     0
  9
$DIMTOH
 70
     0
  9
$DIMSE1
 70
     0
  9
$DIMSE2
 70
     0
  9
$DIMTAD
 70
     1
  9
$DIMZIN
 70
     8
  9
$DIMBLK
  1

  9
$DIMASO
 70
     1
  9
$DIMSHO
 70
     1
  9
$DIMPOST
  1

  9
$DIMAPOST
  1

  9
$DIMALT
 70
     0
  9
$DIMALTD
 70
     3
  9
$DIMALTF
 40
0.03937007874016
  9
$DIMLFAC
 40
1.0
  9
$DIMTOFL
 70
     1
  9
$DIMTVP
 40
0.0
  9
$DIMTIX
 70
     0
  9
$DIMSOXD
 70
     0
  9
$DIMSAH
 70
     0
  9
$DIMBLK1
  1

  9
$DIMBLK2
  1

  9
$DIMSTYLE
  2
ISO-25
  9
$DIMCLRD
 70
     0
  9
$DIMCLRE
 70
     0
  9
$DIMCLRT
 70
     0
  9
$DIMTFAC
 40
1.0
  9
$DIMGAP
 40
0.625
  9
$DIMJUST
 70
     0
  9
$DIMSD1
 70
     0
  9
$DIMSD2
 70
     0
  9
$DIMTOLJ
 70
     0
  9
$DIMTZIN
 70
     8
  9
$DIMALTZ
 70
     0
  9
$DIMALTTZ
 70
     0
  9
$DIMUPT
 70
     0
  9
$DIMDEC
 70
     2
  9
$DIMTDEC
 70
     2
  9
$DIMALTU
 70
     2
  9
$DIMALTTD
 70
     3
  9
$DIMTXSTY
  7
Standard
  9
$DIMAUNIT
 70
     0
  9
$DIMADEC
 70
     0
  9
$DIMALTRND
 40
0.0
  9
$DIMAZIN
 70
     0
  9
$DIMDSEP
 70
    44
  9
$DIMATFIT
 70
     3
  9
$DIMFRAC
 70
     0
  9
$DIMLDRBLK
  1

  9
$DIMLUNIT
 70
     2
  9
$DIMLWD
 70
    -2
  9
$DIMLWE
 70
    -2
  9
$DIMTMOVE
 70
     0
  9
$LUNITS
 70
     2
  9
$LUPREC
 70
     4
  9
$SKETCHINC
 40
1.0
  9
$FILLETRAD
 40
10.0
  9
$AUNITS
 70
     0
  9
$AUPREC
 70
     0
  9
$MENU
  1
.
  9
$ELEVATION
 40
0.0
  9
$PELEVATION
 40
0.0
  9
$THICKNESS
 40
0.0
  9
$LIMCHECK
 70
     0
  9
$CHAMFERA
 40
10.0
  9
$CHAMFERB
 40
10.0
  9
$CHAMFERC
 40
20.0
  9
$CHAMFERD
 40
0.0
  9
$SKPOLY
 70
     0
  9
$TDCREATE
 40
2458766.675694444
  9
$TDUCREATE
 40
2458766.592361111
  9
$TDUPDATE
 40
2458766.679166667
  9
$TDUUPDATE
 40
2458766.595833333
  9
$TDINDWG
 40
0.0000000116
  9
$TDUSRTIMER
 40
0.0000000116
  9
$USRTIMER
 70
     1
  9
$ANGBASE
 50
0.0
  9
$ANGDIR
 70
     0
  9
$PDMODE
 70
     0
  9
$PDSIZE
 40
0.0
  9
$PLINEWID
 40
0.0
  9
$SPLFRAME
 70
     0
  9
$SPLINETYPE
 70
     6
  9
$SPLINESEGS
 70
     8
  9
$HANDSEED
  5
401
  9
$SURFTAB1
 70
     6
  9
$SURFTAB2
 70
     6
  9
$SURFTYPE
 70
     6
  9
$SURFU
 70
     6
  9
$SURFV
 70
     6
  9
$UCSBASE
  2

  9
$UCSNAME
  2

  9
$UCSORG
 10
0.0
 20
0.0
 30
0.0
  9
$UCSXDIR
 10
1.0
 20
0.0
 30
0.0
  9
$UCSYDIR
 10
0.0
 20
1.0
 30
0.0
  9
$UCSORTHOREF
  2

  9
$UCSORTHOVIEW
 70
     0
  9
$UCSORGTOP
 10
0.0
 20
0.0
 30
0.0
  9
$UCSORGBOTTOM
 10
0.0
 20
0.0
 30
0.0
  9
$UCSORGLEFT
 10
0.0
 20
0.0
 30
0.0
  9
$UCSORGRIGHT
 10
0.0
 20
0.0
 30
0.0
  9
$UCSORGFRONT
 10
0.0
 20
0.0
 30
0.0
  9
$UCSORGBACK
 10
0.0
 20
0.0
 30
0.0
  9
$PUCSBASE
  2

  9
$PUCSNAME
  2

  9
$PUCSORG
 10
0.0
 20
0.0
 30
0.0
  9
$PUCSXDIR
 10
1.0
 20
0.0
 30
0.0
  9
$PUCSYDIR
 10
0.0
 20
1.0
 30
0.0
  9
$PUCSORTHOREF
  2

  9
$PUCSORTHOVIEW
 70
     0
  9
$PUCSORGTOP
 10
0.0
 20
0.0
 30
0.0
  9
$PUCSORGBOTTOM
 10
0.0
 20
0.0
 30
0.0
  9
$PUCSORGLEFT
 10
0.0
 20
0.0
 30
0.0
  9
$PUCSORGRIGHT
 10
0.0
 20
0.0
 30
0.0
  9
$PUCSORGFRONT
 10
0.0
 20
0.0
 30
0.0
  9
$PUCSORGBACK
 10
0.0
 20
0.0
 30
0.0
  9
$USERI1
 70
     0
  9
$USERI2
 70
     0
  9
$USERI3
 70
     0
  9
$USERI4
 70
     0
  9
$USERI5
 70
     0
  9
$USERR1
 40
0.0
  9
$USERR2
 40
0.0
  9
$USERR3
 40
0.0
  9
$USERR4
 40
0.0
  9
$USERR5
 40
0.0
  9
$WORLDVIEW
 70
     1
  9
$SHADEDGE
 70
     3
  9
$SHADEDIF
 70
    70
  9
$TILEMODE
 70
     1
  9
$MAXACTVP
 70
    64
  9
$PINSBASE
 10
0.0
 20
0.0
 30
0.0
  9
$PLIMCHECK
 70
     0
  9
$PEXTMIN
 10
1.000000000000000E+20
 20
1.000000000000000E+20
 30
1.000000000000000E+20
  9
$PEXTMAX
 10
-1.000000000000000E+20
 20
-1.000000000000000E+20
 30
-1.000000000000000E+20
  9
$PLIMMIN
 10
0.0
 20
0.0
  9
$PLIMMAX
 10
420.0
 20
297.0
  9
$UNITMODE
 70
     0
  9
$VISRETAIN
 70
     1
  9
$PLINEGEN
 70
     0
  9
$PSLTSCALE
 70
     1
  9
$TREEDEPTH
 70
  3020
  9
$CMLSTYLE
  2
Standard
  9
$CMLJUST
 70
     0
  9
$CMLSCALE
 40
20.0
  9
$PROXYGRAPHICS
 70
     1
  9
$MEASUREMENT
 70
     1
  9
$CELWEIGHT
370
    -1
  9
$ENDCAPS
280
     0
  9
$JOINSTYLE
280
     0
  9
$LWDISPLAY
290
     0
  9
$INSUNITS
 70
     4
  9
$HYPERLINKBASE
  1

  9
$STYLESHEET
  1

  9
$XEDIT
290
     1
  9
$CEPSNTYPE
380
     0
  9
$PSTYLEMODE
290
     1
  9
$FINGERPRINTGUID
  2
{E40D40D4-A77D-495E-8137-5933CD96E5FD}
  9
$VERSIONGUID
  2
{FAEB1C32-E019-11D5-929B-00C0DF256EC4}
  9
$EXTNAMES
290
     1
  9
$PSVPSCALE
 40
0.0
  9
$OLESTARTUP
290
     0
  0
ENDSEC
  0
SECTION
  2
CLASSES
  0
CLASS
  1
ACDBDICTIONARYWDFLT
  2
AcDbDictionaryWithDefault
  3
ObjectDBX Classes
 90
        0
280
     0
281
     0
  0
CLASS
  1
VISUALSTYLE
  2
AcDbVisualStyle
  3
ObjectDBX Classes
 90
     4095
280
     0
281
     0
  0
CLASS
  1
MATERIAL
  2
AcDbMaterial
  3
ObjectDBX Classes
 90
     1153
280
     0
281
     0
  0
CLASS
  1
SCALE
  2
AcDbScale
  3
ObjectDBX Classes
 90
     1153
280
     0
281
     0
  0
CLASS
  1
DICTIONARYVAR
  2
AcDbDictionaryVar
  3
ObjectDBX Classes
 90
        0
280
     0
281
     0
  0
CLASS
  1
ACDBPLACEHOLDER
  2
AcDbPlaceHolder
  3
ObjectDBX Classes
 90
        0
280
     0
281
     0
  0
CLASS
  1
LAYOUT
  2
AcDbLayout
  3
ObjectDBX Classes
 90
        0
280
     0
281
     0
  0
ENDSEC
  0
SECTION
  2
TABLES
  0
TABLE
  2
VPORT
  5
8
330
0
100
AcDbSymbolTable
 70
     1
  0
VPORT
  5
29
330
8
100
AcDbSymbolTableRecord
100
AcDbViewportTableRecord
  2
*Active
 70
     0
 10
0.0
 20
0.0
 11
1.0
 21
1.0
 12
11.26
 22
4.5
 13
0.0
 23
0.0
 14
10.0
 24
10.0
 15
10.0
 25
10.0
 16
0.0
 26
0.0
 36
1.0
 17
0.0
 27
0.0
 37
0.0
 40
9.0
 41
2.503333333333333
 42
50.0
 43
0.0
 44
0.0
 50
0.0
 51
0.0
 71
     0
 72
   100
 73
     1
 74
     3
 75
     0
 76
     0
 77
     0
 78
     0
281
     0
 65
     1
110
0.0
120
0.0
130
0.0
111
1.0
121
0.0
131
0.0
112
0.0
122
1.0
132
0.0
 79
     0
146
0.0
  0
ENDTAB
  0
TABLE
  2
LTYPE
  5
5
330
0
100
AcDbSymbolTable
 70
    10
  0
LTYPE
  5
14
330
5
100
AcDbSymbolTableRecord
100
AcDbLinetypeTableRecord
  2
ByBlock
 70
     0
  3

 72
    65
 73
     0
 40
0.0
  0
LTYPE
  5
15
330
5
100
AcDbSymbolTableRecord
100
AcDbLinetypeTableRecord
  2
ByLayer
 70
     0
  3

 72
    65
 73
     0
 40
0.0
  0
LTYPE
  5
16
330
5
100
AcDbSymbolTableRecord
100
AcDbLinetypeTableRecord
  2
Continuous
 70
     0
  3
Solid line
 72
    65
 73
     0
 40
0.0
  0
LTYPE
  5
45
330
5
100
AcDbSymbolTableRecord
100
AcDbLinetypeTableRecord
  2
phl_thick
 70
     0
  3
THICK
 72
    65
 73
     0
 40
0.0
  0
LTYPE
  5
4B
330
5
100
AcDbSymbolTableRecord
100
AcDbLinetypeTableRecord
  2
SK1
 70
     0
  3
THICK
 72
    65
 73
     0
 40
0.0
  0
LTYPE
  5
58
330
5
100
AcDbSymbolTableRecord
100
AcDbLinetypeTableRecord
  2
NOCUT
 70
     0
  3
THICK
 72
    65
 73
     0
 40
0.0
  0
LTYPE
  5
5D
330
5
100
AcDbSymbolTableRecord
100
AcDbLinetypeTableRecord
  2
ls_SK2
 70
     0
  3
THIN
 72
    65
 73
     0
 40
0.0
  0
LTYPE
  5
109
330
5
100
AcDbSymbolTableRecord
100
AcDbLinetypeTableRecord
  2
ls_2
 70
     0
  3
THIN
 72
    65
 73
     0
 40
0.0
  0
LTYPE
  5
192
330
5
100
AcDbSymbolTableRecord
100
AcDbLinetypeTableRecord
  2
ls_SK1
 70
     0
  3
THICK
 72
    65
 73
     0
 40
0.0
  0
LTYPE
  5
204
330
5
100
AcDbSymbolTableRecord
100
AcDbLinetypeTableRecord
  2
LONGDASH_DASH
 70
     0
  3
THIN_DASHDOT
 72
    65
 73
     4
 40
0.85
 49
0.4
 74
     0
 49
-0.2
 74
     0
 49
0.05
 74
     0
 49
-0.2
 74
     0
  0
LTYPE
  5
209
330
5
100
AcDbSymbolTableRecord
100
AcDbLinetypeTableRecord
  2
CUT
 70
     0
  3
THICK
 72
    65
 73
     0
 40
0.0
  0
LTYPE
  5
21B
330
5
100
AcDbSymbolTableRecord
100
AcDbLinetypeTableRecord
  2
ls1
 70
     0
  3
THICK
 72
    65
 73
     0
 40
0.0
  0
ENDTAB
  0
TABLE
  2
LAYER
  5
2
330
0
100
AcDbSymbolTable
 70
    10
  0
LAYER
  5
10
330
2
100
AcDbSymbolTableRecord
100
AcDbLayerTableRecord
  2
0
 70
     0
 62
     7
  6
Continuous
370
    -3
390
F
  0
LAYER
  5
44
330
2
100
AcDbSymbolTableRecord
100
AcDbLayerTableRecord
  2
1
 70
     0
 62
4
  6
CONTINUOUS
370
50
370
    -3
390
F
  0
LAYER
  5
4A
330
2
100
AcDbSymbolTableRecord
100
AcDbLayerTableRecord
  2
SK1
 70
     0
 62
4
  6
CONTINUOUS
370
50
370
    -3
390
F
  0
LAYER
  5
57
330
2
100
AcDbSymbolTableRecord
100
AcDbLayerTableRecord
  2
NOCUT
 70
     0
 62
7
  6
CONTINUOUS
370
25
370
    -3
390
F
  0
LAYER
  5
5C
330
2
100
AcDbSymbolTableRecord
100
AcDbLayerTableRecord
  2
SK2
 70
     0
 62
7
  6
CONTINUOUS
370
25
370
    -3
390
F
  0
LAYER
  5
108
330
2
100
AcDbSymbolTableRecord
100
AcDbLayerTableRecord
  2
2
 70
     0
 62
7
  6
CONTINUOUS
370
25
370
    -3
390
F
  0
LAYER
  5
203
330
2
100
AcDbSymbolTableRecord
100
AcDbLayerTableRecord
  2
4
 70
     0
 62
2
  6
LONGDASH_DASH
370
25
370
    -3
390
F
  0
LAYER
  5
206
330
2
100
AcDbSymbolTableRecord
100
AcDbLayerTableRecord
  2
SK4
 70
     0
 62
2
  6
LONGDASH_DASH
370
25
370
    -3
390
F
  0
LAYER
  5
208
330
2
100
AcDbSymbolTableRecord
100
AcDbLayerTableRecord
  2
CUT
 70
     0
 62
1
  6
CONTINUOUS
370
25
370
    -3
390
F
  0
LAYER
  5
21A
330
2
100
AcDbSymbolTableRecord
100
AcDbLayerTableRecord
  2
SK6
 70
     0
 62
5
  6
CONTINUOUS
370
25
370
    -3
390
F
  0
ENDTAB
  0
TABLE
  2
STYLE
  5
3
330
0
100
AcDbSymbolTable
 70
     1
  0
STYLE
  5
11
330
3
100
AcDbSymbolTableRecord
100
AcDbTextStyleTableRecord
  2
Standard
 70
     0
 40
0.0
 41
1.0
 50
0.0
 71
     0
 42
2.5
  3
Monospac821 BT
  4

  0
ENDTAB
  0
TABLE
  2
VIEW
  5
6
330
0
100
AcDbSymbolTable
 70
     0
  0
ENDTAB
  0
TABLE
  2
UCS
  5
7
330
0
100
AcDbSymbolTable
 70
     0
  0
ENDTAB
  0
TABLE
  2
APPID
  5
9
330
0
100
AcDbSymbolTable
 70
     2
  0
APPID
  5
12
330
9
100
AcDbSymbolTableRecord
100
AcDbRegAppTableRecord
  2
ACAD
 70
     0
  0
APPID
  5
3F
330
9
100
AcDbSymbolTableRecord
100
AcDbRegAppTableRecord
  2
ccLab
 70
     0
  0
ENDTAB
  0
TABLE
  2
DIMSTYLE
  5
A
330
0
100
AcDbSymbolTable
 70
     1
100
AcDbDimStyleTable
  0
DIMSTYLE
105
27
330
A
100
AcDbSymbolTableRecord
100
AcDbDimStyleTableRecord
  2
ISO-25
 70
     0
 41
2.5
 42
0.625
 43
3.75
 44
1.25
 73
     0
 74
     0
 77
     1
 78
     8
140
2.5
141
2.5
143
0.03937007874016
147
0.625
171
     3
172
     1
271
     2
272
     2
274
     3
278
    44
283
     0
284
     8
340
11
  0
ENDTAB
  0
TABLE
  2
BLOCK_RECORD
  5
1
330
0
100
AcDbSymbolTable
 70
     2
  0
BLOCK_RECORD
  5
1F
330
1
100
AcDbSymbolTableRecord
100
AcDbBlockTableRecord
  2
*Model_Space
340
22
  0
BLOCK_RECORD
  5
1B
330
1
100
AcDbSymbolTableRecord
100
AcDbBlockTableRecord
  2
*Paper_Space
340
1E
  0
BLOCK_RECORD
  5
23
330
1
100
AcDbSymbolTableRecord
100
AcDbBlockTableRecord
  2
*Paper_Space0
340
26
  0
ENDTAB
  0
ENDSEC
  0
SECTION
  2
BLOCKS
  0
BLOCK
  5
20
330
1F
100
AcDbEntity
  8
0
100
AcDbBlockBegin
  2
*Model_Space
 70
     0
 10
0.0
 20
0.0
 30
0.0
  3
*Model_Space
  1

  0
ENDBLK
  5
21
330
1F
100
AcDbEntity
  8
0
100
AcDbBlockEnd
  0
BLOCK
  5
1C
330
1B
100
AcDbEntity
 67
     1
  8
0
100
AcDbBlockBegin
  2
*Paper_Space
 70
     0
 10
0.0
 20
0.0
 30
0.0
  3
*Paper_Space
  1

  0
ENDBLK
  5
1D
330
1B
100
AcDbEntity
 67
     1
  8
0
100
AcDbBlockEnd
  0
BLOCK
  5
24
330
23
100
AcDbEntity
  8
0
100
AcDbBlockBegin
  2
*Paper_Space0
 70
     0
 10
0.0
 20
0.0
 30
0.0
  3
*Paper_Space0
  1

  0
ENDBLK
  5
25
330
23
100
AcDbEntity
  8
0
100
AcDbBlockEnd
  0
ENDSEC
  0
SECTION
  2
ENTITIES
  0
LINE
  5
225
330
1F
100
AcDbEntity
  8
1
  6
CONTINUOUS
370
50
 62
4
100
AcDbLine
 10
68.0
 20
-29.0
 30
0.0
 11
73.0
 21
-29.0
 31
0.0
  0
LINE
  5
226
330
1F
100
AcDbEntity
  8
1
  6
CONTINUOUS
370
50
 62
4
100
AcDbLine
 10
68.0
 20
29.0
 30
0.0
 11
73.0
 21
29.0
 31
0.0
  0
LINE
  5
227
330
1F
100
AcDbEntity
  8
1
  6
CONTINUOUS
370
50
 62
4
100
AcDbLine
 10
68.0
 20
-29.0
 30
0.0
 11
68.0
 21
29.0
 31
0.0
  0
LINE
  5
228
330
1F
100
AcDbEntity
  8
1
  6
CONTINUOUS
370
50
 62
4
100
AcDbLine
 10
73.0
 20
-29.0
 30
0.0
 11
73.0
 21
29.0
 31
0.0
  0
LINE
  5
229
330
1F
100
AcDbEntity
  8
SK1
  6
CONTINUOUS
370
50
 62
4
100
AcDbLine
 10
68.0
 20
20.0
 30
0.0
 11
2.0
 21
20.0
 31
0.0
  0
LINE
  5
22A
330
1F
100
AcDbEntity
  8
SK1
  6
CONTINUOUS
370
50
 62
4
100
AcDbLine
 10
2.0
 20
20.0
 30
0.0
 11
0.0
 21
18.84529946162075
 31
0.0
  0
LINE
  5
22B
330
1F
100
AcDbEntity
  8
SK1
  6
CONTINUOUS
370
50
 62
4
100
AcDbLine
 10
0.0
 20
18.84529946162075
 30
0.0
 11
0.0
 21
-18.84529946162075
 31
0.0
  0
LINE
  5
22C
330
1F
100
AcDbEntity
  8
SK1
  6
CONTINUOUS
370
50
 62
4
100
AcDbLine
 10
0.0
 20
-18.84529946162075
 30
0.0
 11
2.0
 21
-20.0
 31
0.0
  0
LINE
  5
22D
330
1F
100
AcDbEntity
  8
SK1
  6
CONTINUOUS
370
50
 62
4
100
AcDbLine
 10
2.0
 20
-20.0
 30
0.0
 11
68.0
 21
-20.0
 31
0.0
  0
LINE
  5
22E
330
1F
100
AcDbEntity
  8
SK1
  6
CONTINUOUS
370
50
 62
4
100
AcDbLine
 10
61.0
 20
8.717797887081348
 30
0.0
 11
5.0
 21
8.717797887081348
 31
0.0
  0
LINE
  5
22F
330
1F
100
AcDbEntity
  8
SK1
  6
CONTINUOUS
370
50
 62
4
100
AcDbLine
 10
5.0
 20
8.717797887081348
 30
0.0
 11
5.0
 21
-8.717797887081348
 31
0.0
  0
LINE
  5
230
330
1F
100
AcDbEntity
  8
SK1
  6
CONTINUOUS
370
50
 62
4
100
AcDbLine
 10
5.0
 20
-8.717797887081348
 30
0.0
 11
61.0
 21
-8.717797887081348
 31
0.0
  0
LINE
  5
231
330
1F
100
AcDbEntity
  8
SK1
  6
CONTINUOUS
370
50
 62
4
100
AcDbLine
 10
61.0
 20
-8.717797887081348
 30
0.0
 11
61.0
 21
8.717797887081348
 31
0.0
  0
CIRCLE
  5
232
330
1F
100
AcDbEntity
  8
SK1
  6
CONTINUOUS
370
50
 62
4
100
AcDbCircle
 10
46.4
 20
0.0
 30
0.0
 40
6.0
  0
LINE
  5
233
330
1F
100
AcDbEntity
  8
SK1
  6
CONTINUOUS
370
50
 62
4
100
AcDbLine
 10
2.0
 20
20.0
 30
0.0
 11
2.0
 21
-20.0
 31
0.0
  0
LINE
  5
234
330
1F
100
AcDbEntity
  8
NOCUT
  6
CONTINUOUS
370
25
 62
7
100
AcDbLine
 10
68.0
 20
0.0
 30
0.0
 11
68.0
 21
29.0
 31
0.0
  0
LINE
  5
235
330
1F
100
AcDbEntity
  8
NOCUT
  6
CONTINUOUS
370
25
 62
7
100
AcDbLine
 10
68.0
 20
29.0
 30
0.0
 11
73.0
 21
29.0
 31
0.0
  0
LINE
  5
236
330
1F
100
AcDbEntity
  8
NOCUT
  6
CONTINUOUS
370
25
 62
7
100
AcDbLine
 10
73.0
 20
0.0
 30
0.0
 11
68.0
 21
0.0
 31
0.0
  0
LINE
  5
237
330
1F
100
AcDbEntity
  8
SK2
  6
CONTINUOUS
370
25
 62
7
100
AcDbLine
 10
0.0
 20
18.84529946
 30
0.0
 11
0.0
 21
40.00001
 31
0.0
  0
LINE
  5
238
330
1F
100
AcDbEntity
  8
SK2
  6
CONTINUOUS
370
25
 62
7
100
AcDbLine
 10
68.0
 20
40.00001
 30
0.0
 11
68.0
 21
29.0
 31
0.0
  0
LINE
  5
239
330
1F
100
AcDbEntity
  8
SK2
  6
CONTINUOUS
370
25
 62
7
100
AcDbLine
 10
0.0
 20
39.00001
 30
0.0
 11
68.0
 21
39.00001
 31
0.0
  0
LINE
  5
23A
330
1F
100
AcDbEntity
  8
SK2
  6
CONTINUOUS
370
25
 62
7
100
AcDbLine
 10
0.0
 20
39.00001
 30
0.0
 11
5.0
 21
40.00001
 31
0.0
  0
LINE
  5
23B
330
1F
100
AcDbEntity
  8
SK2
  6
CONTINUOUS
370
25
 62
7
100
AcDbLine
 10
5.0
 20
40.00001
 30
0.0
 11
5.0
 21
38.00001
 31
0.0
  0
LINE
  5
23C
330
1F
100
AcDbEntity
  8
SK2
  6
CONTINUOUS
370
25
 62
7
100
AcDbLine
 10
5.0
 20
38.00001
 30
0.0
 11
0.0
 21
39.00001
 31
0.0
  0
LINE
  5
23D
330
1F
100
AcDbEntity
  8
SK2
  6
CONTINUOUS
370
25
 62
7
100
AcDbLine
 10
4.667414648207583
 20
38.06652707035849
 30
0.0
 11
5.0
 21
38.39911242215091
 31
0.0
  0
LINE
  5
23E
330
1F
100
AcDbEntity
  8
SK2
  6
CONTINUOUS
370
25
 62
7
100
AcDbLine
 10
4.313861257614292
 20
38.13723774847715
 30
0.0
 11
5.0
 21
38.82337649086286
 31
0.0
  0
LINE
  5
23F
330
1F
100
AcDbEntity
  8
SK2
  6
CONTINUOUS
370
25
 62
7
100
AcDbLine
 10
3.960307867021015
 20
38.20794842659581
 30
0.0
 11
5.0
 21
39.2476405595748
 31
0.0
  0
LINE
  5
240
330
1F
100
AcDbEntity
  8
SK2
  6
CONTINUOUS
370
25
 62
7
100
AcDbLine
 10
3.606754476427753
 20
38.27865910471446
 30
0.0
 11
5.0
 21
39.67190462828672
 31
0.0
  0
LINE
  5
241
330
1F
100
AcDbEntity
  8
SK2
  6
CONTINUOUS
370
25
 62
7
100
AcDbLine
 10
3.253201085834476
 20
38.34936978283312
 30
0.0
 11
4.879801628751693
 21
39.97597032575035
 31
0.0
  0
LINE
  5
242
330
1F
100
AcDbEntity
  8
SK2
  6
CONTINUOUS
370
25
 62
7
100
AcDbLine
 10
2.899647695241185
 20
38.42008046095175
 30
0.0
 11
4.349471542861778
 21
39.86990430857236
 31
0.0
  0
LINE
  5
243
330
1F
100
AcDbEntity
  8
SK2
  6
CONTINUOUS
370
25
 62
7
100
AcDbLine
 10
2.546094304647937
 20
38.49079113907042
 30
0.0
 11
3.819141456971892
 21
39.76383829139439
 31
0.0
  0
LINE
  5
244
330
1F
100
AcDbEntity
  8
SK2
  6
CONTINUOUS
370
25
 62
7
100
AcDbLine
 10
2.192540914054646
 20
38.56150181718908
 30
0.0
 11
3.288811371081948
 21
39.6577722742164
 31
0.0
  0
LINE
  5
245
330
1F
100
AcDbEntity
  8
SK2
  6
CONTINUOUS
370
25
 62
7
100
AcDbLine
 10
1.83898752346137
 20
38.63221249530773
 30
0.0
 11
2.758481285192047
 21
39.55170625703842
 31
0.0
  0
LINE
  5
246
330
1F
100
AcDbEntity
  8
SK2
  6
CONTINUOUS
370
25
 62
7
100
AcDbLine
 10
1.485434132868079
 20
38.70292317342637
 30
0.0
 11
2.228151199302133
 21
39.44564023986044
 31
0.0
  0
LINE
  5
247
330
1F
100
AcDbEntity
  8
SK2
  6
CONTINUOUS
370
25
 62
7
100
AcDbLine
 10
1.131880742274831
 20
38.77363385154504
 30
0.0
 11
1.697821113412246
 21
39.33957422268246
 31
0.0
  0
LINE
  5
248
330
1F
100
AcDbEntity
  8
SK2
  6
CONTINUOUS
370
25
 62
7
100
AcDbLine
 10
0.7783273516815399
 20
38.84434452966369
 30
0.0
 11
1.167491027522317
 21
39.23350820550448
 31
0.0
  0
LINE
  5
249
330
1F
100
AcDbEntity
  8
SK2
  6
CONTINUOUS
370
25
 62
7
100
AcDbLine
 10
0.4247739610882775
 20
38.91505520778236
 30
0.0
 11
0.6371609416324162
 21
39.1274421883265
 31
0.0
  0
LINE
  5
24A
330
1F
100
AcDbEntity
  8
SK2
  6
CONTINUOUS
370
25
 62
7
100
AcDbLine
 10
0.0712205704950009
 20
38.985765885901
 30
0.0
 11
0.1068308557425013
 21
39.0213761711485
 31
0.0
  0
LINE
  5
24B
330
1F
100
AcDbEntity
  8
SK2
  6
CONTINUOUS
370
25
 62
7
100
AcDbLine
 10
0.2424906917753731
 20
39.04850813835508
 30
0.0
 11
0.3637360376630596
 21
38.9272627924674
 31
0.0
  0
LINE
  5
24C
330
1F
100
AcDbEntity
  8
SK2
  6
CONTINUOUS
370
25
 62
7
100
AcDbLine
 10
0.5960440823686497
 20
39.11921881647372
 30
0.0
 11
0.8940661235529745
 21
38.82119677528939
 31
0.0
  0
LINE
  5
24D
330
1F
100
AcDbEntity
  8
SK2
  6
CONTINUOUS
370
25
 62
7
100
AcDbLine
 10
0.9495974729619263
 20
39.18992949459238
 30
0.0
 11
1.424396209442875
 21
38.71513075811144
 31
0.0
  0
LINE
  5
24E
330
1F
100
AcDbEntity
  8
SK2
  6
CONTINUOUS
370
25
 62
7
100
AcDbLine
 10
1.303150863555189
 20
39.26064017271105
 30
0.0
 11
1.954726295332819
 21
38.60906474093343
 31
0.0
  0
LINE
  5
24F
330
1F
100
AcDbEntity
  8
SK2
  6
CONTINUOUS
370
25
 62
7
100
AcDbLine
 10
1.65670425414848
 20
39.3313508508297
 30
0.0
 11
2.485056381222734
 21
38.50299872375546
 31
0.0
  0
LINE
  5
250
330
1F
100
AcDbEntity
  8
SK2
  6
CONTINUOUS
370
25
 62
7
100
AcDbLine
 10
2.010257644741742
 20
39.40206152894837
 30
0.0
 11
3.015386467112648
 21
38.39693270657746
 31
0.0
  0
LINE
  5
251
330
1F
100
AcDbEntity
  8
SK2
  6
CONTINUOUS
370
25
 62
7
100
AcDbLine
 10
2.363811035335033
 20
39.472772207067
 30
0.0
 11
3.545716553002563
 21
38.29086668939949
 31
0.0
  0
LINE
  5
252
330
1F
100
AcDbEntity
  8
SK2
  6
CONTINUOUS
370
25
 62
7
100
AcDbLine
 10
2.717364425928309
 20
39.54348288518567
 30
0.0
 11
4.076046638892493
 21
38.1848006722215
 31
0.0
  0
LINE
  5
253
330
1F
100
AcDbEntity
  8
SK2
  6
CONTINUOUS
370
25
 62
7
100
AcDbLine
 10
3.070917816521586
 20
39.61419356330432
 30
0.0
 11
4.606376724782393
 21
38.07873465504353
 31
0.0
  0
LINE
  5
254
330
1F
100
AcDbEntity
  8
SK2
  6
CONTINUOUS
370
25
 62
7
100
AcDbLine
 10
3.424471207114863
 20
39.68490424142297
 30
0.0
 11
5.0
 21
38.10937544853786
 31
0.0
  0
LINE
  5
255
330
1F
100
AcDbEntity
  8
SK2
  6
CONTINUOUS
370
25
 62
7
100
AcDbLine
 10
3.778024597708139
 20
39.75561491954162
 30
0.0
 11
5.0
 21
38.53363951724978
 31
0.0
  0
LINE
  5
256
330
1F
100
AcDbEntity
  8
SK2
  6
CONTINUOUS
370
25
 62
7
100
AcDbLine
 10
4.131577988301423
 20
39.82632559766028
 30
0.0
 11
5.0
 21
38.95790358596172
 31
0.0
  0
LINE
  5
257
330
1F
100
AcDbEntity
  8
SK2
  6
CONTINUOUS
370
25
 62
7
100
AcDbLine
 10
4.485131378894707
 20
39.89703627577894
 30
0.0
 11
5.0
 21
39.38216765467365
 31
0.0
  0
LINE
  5
258
330
1F
100
AcDbEntity
  8
SK2
  6
CONTINUOUS
370
25
 62
7
100
AcDbLine
 10
4.838684769487976
 20
39.9677469538976
 30
0.0
 11
5.0
 21
39.80643172338557
 31
0.0
  0
LINE
  5
259
330
1F
100
AcDbEntity
  8
SK2
  6
CONTINUOUS
370
25
 62
7
100
AcDbLine
 10
68.0
 20
39.00001
 30
0.0
 11
63.0
 21
38.00001
 31
0.0
  0
LINE
  5
25A
330
1F
100
AcDbEntity
  8
SK2
  6
CONTINUOUS
370
25
 62
7
100
AcDbLine
 10
63.0
 20
38.00001
 30
0.0
 11
63.0
 21
40.00001
 31
0.0
  0
LINE
  5
25B
330
1F
100
AcDbEntity
  8
SK2
  6
CONTINUOUS
370
25
 62
7
100
AcDbLine
 10
63.0
 20
40.00001
 30
0.0
 11
68.0
 21
39.00001
 31
0.0
  0
LINE
  5
25C
330
1F
100
AcDbEntity
  8
SK2
  6
CONTINUOUS
370
25
 62
7
100
AcDbLine
 10
67.95964459812825
 20
38.99193891962565
 30
0.0
 11
67.97309639875216
 21
39.00539072024957
 31
0.0
  0
LINE
  5
25D
330
1F
100
AcDbEntity
  8
SK2
  6
CONTINUOUS
370
25
 62
7
100
AcDbLine
 10
67.42931451223834
 20
38.88587290244767
 30
0.0
 11
67.6195430081589
 21
39.07610139836822
 31
0.0
  0
LINE
  5
25E
330
1F
100
AcDbEntity
  8
SK2
  6
CONTINUOUS
370
25
 62
7
100
AcDbLine
 10
66.89898442634842
 20
38.77980688526969
 30
0.0
 11
67.26598961756561
 21
39.14681207648688
 31
0.0
  0
LINE
  5
25F
330
1F
100
AcDbEntity
  8
SK2
  6
CONTINUOUS
370
25
 62
7
100
AcDbLine
 10
66.3686543404585
 20
38.67374086809171
 30
0.0
 11
66.91243622697235
 21
39.21752275460553
 31
0.0
  0
LINE
  5
260
330
1F
100
AcDbEntity
  8
SK2
  6
CONTINUOUS
370
25
 62
7
100
AcDbLine
 10
65.83832425456859
 20
38.56767485091372
 30
0.0
 11
66.55888283637907
 21
39.28823343272419
 31
0.0
  0
LINE
  5
261
330
1F
100
AcDbEntity
  8
SK2
  6
CONTINUOUS
370
25
 62
7
100
AcDbLine
 10
65.30799416867868
 20
38.46160883373574
 30
0.0
 11
66.20532944578578
 21
39.35894411084285
 31
0.0
  0
LINE
  5
262
330
1F
100
AcDbEntity
  8
SK2
  6
CONTINUOUS
370
25
 62
7
100
AcDbLine
 10
64.77766408278876
 20
38.35554281655776
 30
0.0
 11
65.85177605519252
 21
39.4296547889615
 31
0.0
  0
LINE
  5
263
330
1F
100
AcDbEntity
  8
SK2
  6
CONTINUOUS
370
25
 62
7
100
AcDbLine
 10
64.24733399689886
 20
38.24947679937978
 30
0.0
 11
65.49822266459924
 21
39.50036546708016
 31
0.0
  0
LINE
  5
264
330
1F
100
AcDbEntity
  8
SK2
  6
CONTINUOUS
370
25
 62
7
100
AcDbLine
 10
63.71700391100894
 20
38.14341078220179
 30
0.0
 11
65.14466927400596
 21
39.57107614519881
 31
0.0
  0
LINE
  5
265
330
1F
100
AcDbEntity
  8
SK2
  6
CONTINUOUS
370
25
 62
7
100
AcDbLine
 10
63.18667382511902
 20
38.03734476502381
 30
0.0
 11
64.79111588341269
 21
39.64178682331747
 31
0.0
  0
LINE
  5
266
330
1F
100
AcDbEntity
  8
SK2
  6
CONTINUOUS
370
25
 62
7
100
AcDbLine
 10
63.0
 20
38.27493500861672
 30
0.0
 11
64.43756249281941
 21
39.71249750143612
 31
0.0
  0
LINE
  5
267
330
1F
100
AcDbEntity
  8
SK2
  6
CONTINUOUS
370
25
 62
7
100
AcDbLine
 10
63.0
 20
38.69919907732865
 30
0.0
 11
64.08400910222613
 21
39.78320817955478
 31
0.0
  0
LINE
  5
268
330
1F
100
AcDbEntity
  8
SK2
  6
CONTINUOUS
370
25
 62
7
100
AcDbLine
 10
63.0
 20
39.12346314604058
 30
0.0
 11
63.73045571163286
 21
39.85391885767343
 31
0.0
  0
LINE
  5
269
330
1F
100
AcDbEntity
  8
SK2
  6
CONTINUOUS
370
25
 62
7
100
AcDbLine
 10
63.0
 20
39.54772721475251
 30
0.0
 11
63.37690232103958
 21
39.92462953579209
 31
0.0
  0
LINE
  5
26A
330
1F
100
AcDbEntity
  8
SK2
  6
CONTINUOUS
370
25
 62
7
100
AcDbLine
 10
63.0
 20
39.97199128346445
 30
0.0
 11
63.0233489304463
 21
39.99534021391074
 31
0.0
  0
LINE
  5
26B
330
1F
100
AcDbEntity
  8
SK2
  6
CONTINUOUS
370
25
 62
7
100
AcDbLine
 10
63.0
 20
38.09259735953037
 30
0.0
 11
63.07715613294198
 21
38.0154412265884
 31
0.0
  0
LINE
  5
26C
330
1F
100
AcDbEntity
  8
SK2
  6
CONTINUOUS
370
25
 62
7
100
AcDbLine
 10
63.0
 20
38.51686142824231
 30
0.0
 11
63.43070952353526
 21
38.08615190470705
 31
0.0
  0
LINE
  5
26D
330
1F
100
AcDbEntity
  8
SK2
  6
CONTINUOUS
370
25
 62
7
100
AcDbLine
 10
63.0
 20
38.94112549695424
 30
0.0
 11
63.78426291412853
 21
38.15686258282571
 31
0.0
  0
LINE
  5
26E
330
1F
100
AcDbEntity
  8
SK2
  6
CONTINUOUS
370
25
 62
7
100
AcDbLine
 10
63.0
 20
39.36538956566617
 30
0.0
 11
64.13781630472181
 21
38.22757326094437
 31
0.0
  0
LINE
  5
26F
330
1F
100
AcDbEntity
  8
SK2
  6
CONTINUOUS
370
25
 62
7
100
AcDbLine
 10
63.0
 20
39.7896536343781
 30
0.0
 11
64.49136969531509
 21
38.29828393906302
 31
0.0
  0
LINE
  5
270
330
1F
100
AcDbEntity
  8
SK2
  6
CONTINUOUS
370
25
 62
7
100
AcDbLine
 10
63.26738462886254
 20
39.9465330742275
 30
0.0
 11
64.84492308590836
 21
38.36899461718168
 31
0.0
  0
LINE
  5
271
330
1F
100
AcDbEntity
  8
SK2
  6
CONTINUOUS
370
25
 62
7
100
AcDbLine
 10
63.79771471475245
 20
39.84046705704952
 30
0.0
 11
65.19847647650164
 21
38.43970529530033
 31
0.0
  0
LINE
  5
272
330
1F
100
AcDbEntity
  8
SK2
  6
CONTINUOUS
370
25
 62
7
100
AcDbLine
 10
64.32804480064237
 20
39.73440103987153
 30
0.0
 11
65.55202986709492
 21
38.51041597341899
 31
0.0
  0
LINE
  5
273
330
1F
100
AcDbEntity
  8
SK2
  6
CONTINUOUS
370
25
 62
7
100
AcDbLine
 10
64.85837488653227
 20
39.62833502269355
 30
0.0
 11
65.90558325768819
 21
38.58112665153764
 31
0.0
  0
LINE
  5
274
330
1F
100
AcDbEntity
  8
SK2
  6
CONTINUOUS
370
25
 62
7
100
AcDbLine
 10
65.3887049724222
 20
39.52226900551556
 30
0.0
 11
66.25913664828147
 21
38.6518373296563
 31
0.0
  0
LINE
  5
275
330
1F
100
AcDbEntity
  8
SK2
  6
CONTINUOUS
370
25
 62
7
100
AcDbLine
 10
65.9190350583121
 20
39.41620298833758
 30
0.0
 11
66.61269003887475
 21
38.72254800777495
 31
0.0
  0
LINE
  5
276
330
1F
100
AcDbEntity
  8
SK2
  6
CONTINUOUS
370
25
 62
7
100
AcDbLine
 10
66.44936514420203
 20
39.3101369711596
 30
0.0
 11
66.96624342946802
 21
38.7932586858936
 31
0.0
  0
LINE
  5
277
330
1F
100
AcDbEntity
  8
SK2
  6
CONTINUOUS
370
25
 62
7
100
AcDbLine
 10
66.97969523009193
 20
39.20407095398161
 30
0.0
 11
67.3197968200613
 21
38.86396936401226
 31
0.0
  0
LINE
  5
278
330
1F
100
AcDbEntity
  8
SK2
  6
CONTINUOUS
370
25
 62
7
100
AcDbLine
 10
67.51002531598186
 20
39.09800493680363
 30
0.0
 11
67.67335021065458
 21
38.93468004213091
 31
0.0
  0
TEXT
  5
279
330
1F
100
AcDbEntity
  8
SK2
  6
CONTINUOUS
370
25
 62
7
100
AcDbText
 10
31.08333333333333
 20
40.50001
 30
0.0
 40
3.5
  1
68
 72
     1
 11
34.0
 21
40.50001
 31
0.0
100
AcDbText
  0
LINE
  5
27A
330
1F
100
AcDbEntity
  8
SK2
  6
CONTINUOUS
370
25
 62
7
100
AcDbLine
 10
68.0
 20
-29.0
 30
0.0
 11
-11.0
 21
-29.0
 31
0.0
  0
LINE
  5
27B
330
1F
100
AcDbEntity
  8
SK2
  6
CONTINUOUS
370
25
 62
7
100
AcDbLine
 10
-11.0
 20
29.0
 30
0.0
 11
68.0
 21
29.0
 31
0.0
  0
LINE
  5
27C
330
1F
100
AcDbEntity
  8
SK2
  6
CONTINUOUS
370
25
 62
7
100
AcDbLine
 10
-10.0
 20
-29.0
 30
0.0
 11
-10.0
 21
29.0
 31
0.0
  0
LINE
  5
27D
330
1F
100
AcDbEntity
  8
SK2
  6
CONTINUOUS
370
25
 62
7
100
AcDbLine
 10
-10.0
 20
-29.0
 30
0.0
 11
-11.0
 21
-24.0
 31
0.0
  0
LINE
  5
27E
330
1F
100
AcDbEntity
  8
SK2
  6
CONTINUOUS
370
25
 62
7
100
AcDbLine
 10
-11.0
 20
-24.0
 30
0.0
 11
-9.0
 21
-24.0
 31
0.0
  0
LINE
  5
27F
330
1F
100
AcDbEntity
  8
SK2
  6
CONTINUOUS
370
25
 62
7
100
AcDbLine
 10
-9.0
 20
-24.0
 30
0.0
 11
-10.0
 21
-29.0
 31
0.0
  0
LINE
  5
280
330
1F
100
AcDbEntity
  8
SK2
  6
CONTINUOUS
370
25
 62
7
100
AcDbLine
 10
-10.03577199509738
 20
-28.82114002451316
 30
0.0
 11
-9.946342007353948
 21
-28.73171003676973
 31
0.0
  0
LINE
  5
281
330
1F
100
AcDbEntity
  8
SK2
  6
CONTINUOUS
370
25
 62
7
100
AcDbLine
 10
-10.10648267321602
 20
-28.46758663391986
 30
0.0
 11
-9.840275990175954
 21
-28.2013799508798
 31
0.0
  0
LINE
  5
282
330
1F
100
AcDbEntity
  8
SK2
  6
CONTINUOUS
370
25
 62
7
100
AcDbLine
 10
-10.17719335133468
 20
-28.1140332433266
 30
0.0
 11
-9.734209972997974
 21
-27.6710498649899
 31
0.0
  0
LINE
  5
283
330
1F
100
AcDbEntity
  8
SK2
  6
CONTINUOUS
370
25
 62
7
100
AcDbLine
 10
-10.24790402945334
 20
-27.76047985273333
 30
0.0
 11
-9.628143955819993
 21
-27.14071977909999
 31
0.0
  0
LINE
  5
284
330
1F
100
AcDbEntity
  8
SK2
  6
CONTINUOUS
370
25
 62
7
100
AcDbLine
 10
-10.31861470757198
 20
-27.40692646214006
 30
0.0
 11
-9.522077938642013
 21
-26.6103896932101
 31
0.0
  0
LINE
  5
285
330
1F
100
AcDbEntity
  8
SK2
  6
CONTINUOUS
370
25
 62
7
100
AcDbLine
 10
-10.38932538569064
 20
-27.0533730715468
 30
0.0
 11
-9.416011921464033
 21
-26.08005960732019
 31
0.0
  0
LINE
  5
286
330
1F
100
AcDbEntity
  8
SK2
  6
CONTINUOUS
370
25
 62
7
100
AcDbLine
 10
-10.4600360638093
 20
-26.69981968095354
 30
0.0
 11
-9.309945904286053
 21
-25.54972952143029
 31
0.0
  0
LINE
  5
287
330
1F
100
AcDbEntity
  8
SK2
  6
CONTINUOUS
370
25
 62
7
100
AcDbLine
 10
-10.53074674192794
 20
-26.34626629036025
 30
0.0
 11
-9.203879887108073
 21
-25.01939943554039
 31
0.0
  0
LINE
  5
288
330
1F
100
AcDbEntity
  8
SK2
  6
CONTINUOUS
370
25
 62
7
100
AcDbLine
 10
-10.6014574200466
 20
-25.99271289976699
 30
0.0
 11
-9.097813869930093
 21
-24.48906934965048
 31
0.0
  0
LINE
  5
289
330
1F
100
AcDbEntity
  8
SK2
  6
CONTINUOUS
370
25
 62
7
100
AcDbLine
 10
-10.67216809816526
 20
-25.63915950917372
 30
0.0
 11
-9.033008588991535
 21
-24.0
 31
0.0
  0
LINE
  5
28A
330
1F
100
AcDbEntity
  8
SK2
  6
CONTINUOUS
370
25
 62
7
100
AcDbLine
 10
-10.7428787762839
 20
-25.28560611858045
 30
0.0
 11
-9.457272657703456
 21
-24.0
 31
0.0
  0
LINE
  5
28B
330
1F
100
AcDbEntity
  8
SK2
  6
CONTINUOUS
370
25
 62
7
100
AcDbLine
 10
-10.81358945440257
 20
-24.93205272798719
 30
0.0
 11
-9.881536726415376
 21
-23.99999999999999
 31
0.0
  0
LINE
  5
28C
330
1F
100
AcDbEntity
  8
SK2
  6
CONTINUOUS
370
25
 62
7
100
AcDbLine
 10
-10.88430013252122
 20
-24.57849933739391
 30
0.0
 11
-10.30580079512731
 21
-24.0
 31
0.0
  0
LINE
  5
28D
330
1F
100
AcDbEntity
  8
SK2
  6
CONTINUOUS
370
25
 62
7
100
AcDbLine
 10
-10.95501081063988
 20
-24.22494594680064
 30
0.0
 11
-10.73006486383923
 21
-24.0
 31
0.0
  0
LINE
  5
28E
330
1F
100
AcDbEntity
  8
SK2
  6
CONTINUOUS
370
25
 62
7
100
AcDbLine
 10
-10.08889186828122
 20
-28.55554065859381
 30
0.0
 11
-9.940738754479185
 21
-28.70369377239585
 31
0.0
  0
LINE
  5
28F
330
1F
100
AcDbEntity
  8
SK2
  6
CONTINUOUS
370
25
 62
7
100
AcDbLine
 10
-10.19495788545922
 20
-28.0252105727039
 30
0.0
 11
-9.870028076360512
 21
-28.3501403818026
 31
0.0
  0
LINE
  5
290
330
1F
100
AcDbEntity
  8
SK2
  6
CONTINUOUS
370
25
 62
7
100
AcDbLine
 10
-10.30102390263718
 20
-27.49488048681401
 30
0.0
 11
-9.799317398241868
 21
-27.99658699120933
 31
0.0
  0
LINE
  5
291
330
1F
100
AcDbEntity
  8
SK2
  6
CONTINUOUS
370
25
 62
7
100
AcDbLine
 10
-10.40708991981518
 20
-26.9645504009241
 30
0.0
 11
-9.72860672012321
 21
-27.64303360061606
 31
0.0
  0
LINE
  5
292
330
1F
100
AcDbEntity
  8
SK2
  6
CONTINUOUS
370
25
 62
7
100
AcDbLine
 10
-10.51315593699314
 20
-26.43422031503421
 30
0.0
 11
-9.657896042004566
 21
-27.28948021002279
 31
0.0
  0
LINE
  5
293
330
1F
100
AcDbEntity
  8
SK2
  6
CONTINUOUS
370
25
 62
7
100
AcDbLine
 10
-10.61922195417114
 20
-25.90389022914428
 30
0.0
 11
-9.587185363885908
 21
-26.93592681942951
 31
0.0
  0
LINE
  5
294
330
1F
100
AcDbEntity
  8
SK2
  6
CONTINUOUS
370
25
 62
7
100
AcDbLine
 10
-10.72528797134912
 20
-25.37356014325438
 30
0.0
 11
-9.51647468576725
 21
-26.58237342883625
 31
0.0
  0
LINE
  5
295
330
1F
100
AcDbEntity
  8
SK2
  6
CONTINUOUS
370
25
 62
7
100
AcDbLine
 10
-10.8313539885271
 20
-24.84323005736449
 30
0.0
 11
-9.445764007648592
 21
-26.228820038243
 31
0.0
  0
LINE
  5
296
330
1F
100
AcDbEntity
  8
SK2
  6
CONTINUOUS
370
25
 62
7
100
AcDbLine
 10
-10.93742000570506
 20
-24.31289997147461
 30
0.0
 11
-9.375053329529948
 21
-25.87526664764972
 31
0.0
  0
LINE
  5
297
330
1F
100
AcDbEntity
  8
SK2
  6
CONTINUOUS
370
25
 62
7
100
AcDbLine
 10
-10.82605590846774
 20
-24.0
 30
0.0
 11
-9.30434265141129
 21
-25.52171325705645
 31
0.0
  0
LINE
  5
298
330
1F
100
AcDbEntity
  8
SK2
  6
CONTINUOUS
370
25
 62
7
100
AcDbLine
 10
-10.40179183975582
 20
-24.0
 30
0.0
 11
-9.233631973292631
 21
-25.16815986646318
 31
0.0
  0
LINE
  5
299
330
1F
100
AcDbEntity
  8
SK2
  6
CONTINUOUS
370
25
 62
7
100
AcDbLine
 10
-9.977527771043896
 20
-24.0
 30
0.0
 11
-9.162921295173987
 21
-24.81460647586991
 31
0.0
  0
LINE
  5
29A
330
1F
100
AcDbEntity
  8
SK2
  6
CONTINUOUS
370
25
 62
7
100
AcDbLine
 10
-9.55326370233196
 20
-24.0
 30
0.0
 11
-9.09221061705533
 21
-24.46105308527663
 31
0.0
  0
LINE
  5
29B
330
1F
100
AcDbEntity
  8
SK2
  6
CONTINUOUS
370
25
 62
7
100
AcDbLine
 10
-9.12899963362004
 20
-24.0
 30
0.0
 11
-9.021499938936671
 21
-24.10749969468337
 31
0.0
  0
LINE
  5
29C
330
1F
100
AcDbEntity
  8
SK2
  6
CONTINUOUS
370
25
 62
7
100
AcDbLine
 10
-10.0
 20
29.0
 30
0.0
 11
-9.0
 21
24.0
 31
0.0
  0
LINE
  5
29D
330
1F
100
AcDbEntity
  8
SK2
  6
CONTINUOUS
370
25
 62
7
100
AcDbLine
 10
-9.0
 20
24.0
 30
0.0
 11
-11.0
 21
24.0
 31
0.0
  0
LINE
  5
29E
330
1F
100
AcDbEntity
  8
SK2
  6
CONTINUOUS
370
25
 62
7
100
AcDbLine
 10
-11.0
 20
24.0
 30
0.0
 11
-10.0
 21
29.0
 31
0.0
  0
LINE
  5
29F
330
1F
100
AcDbEntity
  8
SK2
  6
CONTINUOUS
370
25
 62
7
100
AcDbLine
 10
-9.399112422151163
 20
24.0
 30
0.0
 11
-9.066518737025191
 21
24.33259368512597
 31
0.0
  0
LINE
  5
2A0
330
1F
100
AcDbEntity
  8
SK2
  6
CONTINUOUS
370
25
 62
7
100
AcDbLine
 10
-9.823376490863083
 20
24.0
 30
0.0
 11
-9.13722941514385
 21
24.68614707571923
 31
0.0
  0
LINE
  5
2A1
330
1F
100
AcDbEntity
  8
SK2
  6
CONTINUOUS
370
25
 62
7
100
AcDbLine
 10
-10.24764055957502
 20
24.0
 30
0.0
 11
-9.207940093262508
 21
25.03970046631251
 31
0.0
  0
LINE
  5
2A2
330
1F
100
AcDbEntity
  8
SK2
  6
CONTINUOUS
370
25
 62
7
100
AcDbLine
 10
-10.67190462828694
 20
24.0
 30
0.0
 11
-9.278650771381152
 21
25.39325385690579
 31
0.0
  0
LINE
  5
2A3
330
1F
100
AcDbEntity
  8
SK2
  6
CONTINUOUS
370
25
 62
7
100
AcDbLine
 10
-10.97595782575029
 20
24.12021087124857
 30
0.0
 11
-9.34936144949981
 21
25.74680724749905
 31
0.0
  0
LINE
  5
2A4
330
1F
100
AcDbEntity
  8
SK2
  6
CONTINUOUS
370
25
 62
7
100
AcDbLine
 10
-10.86989180857231
 20
24.65054095713847
 30
0.0
 11
-9.420072127618468
 21
26.10036063809231
 31
0.0
  0
LINE
  5
2A5
330
1F
100
AcDbEntity
  8
SK2
  6
CONTINUOUS
370
25
 62
7
100
AcDbLine
 10
-10.76382579139432
 20
25.18087104302838
 30
0.0
 11
-9.490782805737112
 21
26.45391402868559
 31
0.0
  0
LINE
  5
2A6
330
1F
100
AcDbEntity
  8
SK2
  6
CONTINUOUS
370
25
 62
7
100
AcDbLine
 10
-10.65775977421634
 20
25.71120112891829
 30
0.0
 11
-9.56149348385577
 21
26.80746741927886
 31
0.0
  0
LINE
  5
2A7
330
1F
100
AcDbEntity
  8
SK2
  6
CONTINUOUS
370
25
 62
7
100
AcDbLine
 10
-10.55169375703836
 20
26.24153121480819
 30
0.0
 11
-9.632204161974428
 21
27.16102080987213
 31
0.0
  0
LINE
  5
2A8
330
1F
100
AcDbEntity
  8
SK2
  6
CONTINUOUS
370
25
 62
7
100
AcDbLine
 10
-10.44562773986038
 20
26.77186130069809
 30
0.0
 11
-9.702914840093072
 21
27.5145742004654
 31
0.0
  0
LINE
  5
2A9
330
1F
100
AcDbEntity
  8
SK2
  6
CONTINUOUS
370
25
 62
7
100
AcDbLine
 10
-10.3395617226824
 20
27.30219138658801
 30
0.0
 11
-9.77362551821173
 21
27.86812759105868
 31
0.0
  0
LINE
  5
2AA
330
1F
100
AcDbEntity
  8
SK2
  6
CONTINUOUS
370
25
 62
7
100
AcDbLine
 10
-10.23349570550441
 20
27.83252147247792
 30
0.0
 11
-9.844336196330389
 21
28.22168098165194
 31
0.0
  0
LINE
  5
2AB
330
1F
100
AcDbEntity
  8
SK2
  6
CONTINUOUS
370
25
 62
7
100
AcDbLine
 10
-10.12742968832644
 20
28.36285155836781
 30
0.0
 11
-9.915046874449033
 21
28.57523437224522
 31
0.0
  0
LINE
  5
2AC
330
1F
100
AcDbEntity
  8
SK2
  6
CONTINUOUS
370
25
 62
7
100
AcDbLine
 10
-10.02136367114845
 20
28.89318164425774
 30
0.0
 11
-9.985757552567705
 21
28.92878776283848
 31
0.0
  0
LINE
  5
2AD
330
1F
100
AcDbEntity
  8
SK2
  6
CONTINUOUS
370
25
 62
7
100
AcDbLine
 10
-10.99170555366693
 20
24.0414722316653
 30
0.0
 11
-10.95023332200164
 21
24.0
 31
0.0
  0
LINE
  5
2AE
330
1F
100
AcDbEntity
  8
SK2
  6
CONTINUOUS
370
25
 62
7
100
AcDbLine
 10
-10.92099487554829
 20
24.39502562225858
 30
0.0
 11
-10.5259692532897
 21
23.99999999999999
 31
0.0
  0
LINE
  5
2AF
330
1F
100
AcDbEntity
  8
SK2
  6
CONTINUOUS
370
25
 62
7
100
AcDbLine
 10
-10.85028419742963
 20
24.74857901285185
 30
0.0
 11
-10.10170518457778
 21
24.0
 31
0.0
  0
LINE
  5
2B0
330
1F
100
AcDbEntity
  8
SK2
  6
CONTINUOUS
370
25
 62
7
100
AcDbLine
 10
-10.77957351931097
 20
25.10213240344511
 30
0.0
 11
-9.67744111586586
 21
24.0
 31
0.0
  0
LINE
  5
2B1
330
1F
100
AcDbEntity
  8
SK2
  6
CONTINUOUS
370
25
 62
7
100
AcDbLine
 10
-10.70886284119233
 20
25.45568579403839
 30
0.0
 11
-9.25317704715394
 21
24.0
 31
0.0
  0
LINE
  5
2B2
330
1F
100
AcDbEntity
  8
SK2
  6
CONTINUOUS
370
25
 62
7
100
AcDbLine
 10
-10.63815216307367
 20
25.80923918463166
 30
0.0
 11
-9.042771755389495
 21
24.21385877694748
 31
0.0
  0
LINE
  5
2B3
330
1F
100
AcDbEntity
  8
SK2
  6
CONTINUOUS
370
25
 62
7
100
AcDbLine
 10
-10.56744148495501
 20
26.16279257522493
 30
0.0
 11
-9.148837772567475
 21
24.74418886283739
 31
0.0
  0
LINE
  5
2B4
330
1F
100
AcDbEntity
  8
SK2
  6
CONTINUOUS
370
25
 62
7
100
AcDbLine
 10
-10.49673080683637
 20
26.5163459658182
 30
0.0
 11
-9.254903789745455
 21
25.27451894872729
 31
0.0
  0
LINE
  5
2B5
330
1F
100
AcDbEntity
  8
SK2
  6
CONTINUOUS
370
25
 62
7
100
AcDbLine
 10
-10.42602012871771
 20
26.86989935641147
 30
0.0
 11
-9.360969806923435
 21
25.80484903461719
 31
0.0
  0
LINE
  5
2B6
330
1F
100
AcDbEntity
  8
SK2
  6
CONTINUOUS
370
25
 62
7
100
AcDbLine
 10
-10.35530945059905
 20
27.22345274700474
 30
0.0
 11
-9.467035824101416
 21
26.3351791205071
 31
0.0
  0
LINE
  5
2B7
330
1F
100
AcDbEntity
  8
SK2
  6
CONTINUOUS
370
25
 62
7
100
AcDbLine
 10
-10.28459877248041
 20
27.57700613759802
 30
0.0
 11
-9.573101841279396
 21
26.86550920639701
 31
0.0
  0
LINE
  5
2B8
330
1F
100
AcDbEntity
  8
SK2
  6
CONTINUOUS
370
25
 62
7
100
AcDbLine
 10
-10.21388809436174
 20
27.93055952819127
 30
0.0
 11
-9.67916785845739
 21
27.39583929228692
 31
0.0
  0
LINE
  5
2B9
330
1F
100
AcDbEntity
  8
SK2
  6
CONTINUOUS
370
25
 62
7
100
AcDbLine
 10
-10.14317741624309
 20
28.28411291878454
 30
0.0
 11
-9.785233875635356
 21
27.92616937817681
 31
0.0
  0
LINE
  5
2BA
330
1F
100
AcDbEntity
  8
SK2
  6
CONTINUOUS
370
25
 62
7
100
AcDbLine
 10
-10.07246673812443
 20
28.63766630937781
 30
0.0
 11
-9.89129989281335
 21
28.45649946406673
 31
0.0
  0
LINE
  5
2BB
330
1F
100
AcDbEntity
  8
SK2
  6
CONTINUOUS
370
25
 62
7
100
AcDbLine
 10
-10.00175606000579
 20
28.99121969997108
 30
0.0
 11
-9.99736590999133
 21
28.98682954995662
 31
0.0
  0
TEXT
  5
2BC
330
1F
100
AcDbEntity
  8
SK2
  6
CONTINUOUS
370
25
 62
7
100
AcDbText
 10
-11.5
 20
-0.641666666666667
 30
0.0
 40
3.5
  1
58
 50
90.0
 72
     1
 11
-11.5
 21
2.275
 31
0.0
100
AcDbText
  0
CIRCLE
  5
2BD
330
1F
100
AcDbEntity
  8
SK2
  6
CONTINUOUS
370
25
 62
7
100
AcDbCircle
 10
-13.25
 20
-2.625
 30
0.0
 40
1.4
  0
LINE
  5
2BE
330
1F
100
AcDbEntity
  8
SK2
  6
CONTINUOUS
370
25
 62
7
100
AcDbLine
 10
-11.84999999999999
 20
-4.024999999999999
 30
0.0
 11
-14.65000000000001
 21
-1.224999999999999
 31
0.0
  0
LINE
  5
2BF
330
1F
100
AcDbEntity
  8
2
  6
CONTINUOUS
370
25
 62
7
100
AcDbLine
 10
68.0
 20
-29.0
 30
0.0
 11
68.0
 21
-40.00001
 31
0.0
  0
LINE
  5
2C0
330
1F
100
AcDbEntity
  8
2
  6
CONTINUOUS
370
25
 62
7
100
AcDbLine
 10
73.0
 20
-40.00001
 30
0.0
 11
73.0
 21
-29.0
 31
0.0
  0
LINE
  5
2C1
330
1F
100
AcDbEntity
  8
2
  6
CONTINUOUS
370
25
 62
7
100
AcDbLine
 10
61.0
 20
-39.00001
 30
0.0
 11
80.0
 21
-39.00001
 31
0.0
  0
LINE
  5
2C2
330
1F
100
AcDbEntity
  8
2
  6
CONTINUOUS
370
25
 62
7
100
AcDbLine
 10
68.0
 20
-39.00001
 30
0.0
 11
63.0
 21
-40.00001
 31
0.0
  0
LINE
  5
2C3
330
1F
100
AcDbEntity
  8
2
  6
CONTINUOUS
370
25
 62
7
100
AcDbLine
 10
63.0
 20
-40.00001
 30
0.0
 11
63.0
 21
-38.00001
 31
0.0
  0
LINE
  5
2C4
330
1F
100
AcDbEntity
  8
2
  6
CONTINUOUS
370
25
 62
7
100
AcDbLine
 10
63.0
 20
-38.00001
 30
0.0
 11
68.0
 21
-39.00001
 31
0.0
  0
LINE
  5
2C5
330
1F
100
AcDbEntity
  8
2
  6
CONTINUOUS
370
25
 62
7
100
AcDbLine
 10
67.93869698686973
 20
-39.01227060262606
 30
0.0
 11
67.95913132457983
 21
-38.99183626491597
 31
0.0
  0
LINE
  5
2C6
330
1F
100
AcDbEntity
  8
2
  6
CONTINUOUS
370
25
 62
7
100
AcDbLine
 10
67.40836690097983
 20
-39.11833661980404
 30
0.0
 11
67.60557793398655
 21
-38.92112558679732
 31
0.0
  0
LINE
  5
2C7
330
1F
100
AcDbEntity
  8
2
  6
CONTINUOUS
370
25
 62
7
100
AcDbLine
 10
66.8780368150899
 20
-39.22440263698202
 30
0.0
 11
67.25202454339328
 21
-38.85041490867866
 31
0.0
  0
LINE
  5
2C8
330
1F
100
AcDbEntity
  8
2
  6
CONTINUOUS
370
25
 62
7
100
AcDbLine
 10
66.3477067292
 20
-39.33046865416
 30
0.0
 11
66.8984711528
 21
-38.77970423056
 31
0.0
  0
LINE
  5
2C9
330
1F
100
AcDbEntity
  8
2
  6
CONTINUOUS
370
25
 62
7
100
AcDbLine
 10
65.81737664331007
 20
-39.43653467133799
 30
0.0
 11
66.54491776220672
 21
-38.70899355244135
 31
0.0
  0
LINE
  5
2CA
330
1F
100
AcDbEntity
  8
2
  6
CONTINUOUS
370
25
 62
7
100
AcDbLine
 10
65.28704655742015
 20
-39.54260068851597
 30
0.0
 11
66.19136437161345
 21
-38.63828287432269
 31
0.0
  0
LINE
  5
2CB
330
1F
100
AcDbEntity
  8
2
  6
CONTINUOUS
370
25
 62
7
100
AcDbLine
 10
64.75671647153025
 20
-39.64866670569396
 30
0.0
 11
65.83781098102017
 21
-38.56757219620404
 31
0.0
  0
LINE
  5
2CC
330
1F
100
AcDbEntity
  8
2
  6
CONTINUOUS
370
25
 62
7
100
AcDbLine
 10
64.22638638564034
 20
-39.75473272287194
 30
0.0
 11
65.48425759042689
 21
-38.49686151808538
 31
0.0
  0
LINE
  5
2CD
330
1F
100
AcDbEntity
  8
2
  6
CONTINUOUS
370
25
 62
7
100
AcDbLine
 10
63.69605629975042
 20
-39.86079874004992
 30
0.0
 11
65.13070419983362
 21
-38.42615083996672
 31
0.0
  0
LINE
  5
2CE
330
1F
100
AcDbEntity
  8
2
  6
CONTINUOUS
370
25
 62
7
100
AcDbLine
 10
63.1657262138605
 20
-39.9668647572279
 30
0.0
 11
64.77715080924034
 21
-38.35544016184807
 31
0.0
  0
LINE
  5
2CF
330
1F
100
AcDbEntity
  8
2
  6
CONTINUOUS
370
25
 62
7
100
AcDbLine
 10
63.0
 20
-39.70832690237648
 30
0.0
 11
64.42359741864706
 21
-38.28472948372941
 31
0.0
  0
LINE
  5
2D0
330
1F
100
AcDbEntity
  8
2
  6
CONTINUOUS
370
25
 62
7
100
AcDbLine
 10
63.0
 20
-39.28406283366454
 30
0.0
 11
64.07004402805379
 21
-38.21401880561076
 31
0.0
  0
LINE
  5
2D1
330
1F
100
AcDbEntity
  8
2
  6
CONTINUOUS
370
25
 62
7
100
AcDbLine
 10
63.0
 20
-38.85979876495261
 30
0.0
 11
63.71649063746051
 21
-38.14330812749211
 31
0.0
  0
LINE
  5
2D2
330
1F
100
AcDbEntity
  8
2
  6
CONTINUOUS
370
25
 62
7
100
AcDbLine
 10
63.0
 20
-38.43553469624068
 30
0.0
 11
63.36293724686723
 21
-38.07259744937345
 31
0.0
  0
LINE
  5
2D3
330
1F
100
AcDbEntity
  8
2
  6
CONTINUOUS
370
25
 62
7
100
AcDbLine
 10
63.0
 20
-38.01127062752875
 30
0.0
 11
63.00938385627396
 21
-38.0018867712548
 31
0.0
  0
LINE
  5
2D4
330
1F
100
AcDbEntity
  8
2
  6
CONTINUOUS
370
25
 62
7
100
AcDbLine
 10
63.0
 20
-39.70832690237652
 30
0.0
 11
63.24306924801957
 21
-39.95139615039609
 31
0.0
  0
LINE
  5
2D5
330
1F
100
AcDbEntity
  8
2
  6
CONTINUOUS
370
25
 62
7
100
AcDbLine
 10
63.0
 20
-39.28406283366458
 30
0.0
 11
63.59662263861285
 21
-39.88068547227743
 31
0.0
  0
LINE
  5
2D6
330
1F
100
AcDbEntity
  8
2
  6
CONTINUOUS
370
25
 62
7
100
AcDbLine
 10
63.0
 20
-38.85979876495265
 30
0.0
 11
63.95017602920613
 21
-39.80997479415878
 31
0.0
  0
LINE
  5
2D7
330
1F
100
AcDbEntity
  8
2
  6
CONTINUOUS
370
25
 62
7
100
AcDbLine
 10
63.0
 20
-38.43553469624072
 30
0.0
 11
64.3037294197994
 21
-39.73926411604013
 31
0.0
  0
LINE
  5
2D8
330
1F
100
AcDbEntity
  8
2
  6
CONTINUOUS
370
25
 62
7
100
AcDbLine
 10
63.0
 20
-38.01127062752879
 30
0.0
 11
64.65728281039267
 21
-39.66855343792147
 31
0.0
  0
LINE
  5
2D9
330
1F
100
AcDbEntity
  8
2
  6
CONTINUOUS
370
25
 62
7
100
AcDbLine
 10
63.51625430147893
 20
-38.10326086029579
 30
0.0
 11
65.01083620098595
 21
-39.59784275980281
 31
0.0
  0
LINE
  5
2DA
330
1F
100
AcDbEntity
  8
2
  6
CONTINUOUS
370
25
 62
7
100
AcDbLine
 10
64.04658438736884
 20
-38.20932687747377
 30
0.0
 11
65.36438959157923
 21
-39.52713208168416
 31
0.0
  0
LINE
  5
2DB
330
1F
100
AcDbEntity
  8
2
  6
CONTINUOUS
370
25
 62
7
100
AcDbLine
 10
64.57691447325877
 20
-38.31539289465176
 30
0.0
 11
65.7179429821725
 21
-39.4564214035655
 31
0.0
  0
LINE
  5
2DC
330
1F
100
AcDbEntity
  8
2
  6
CONTINUOUS
370
25
 62
7
100
AcDbLine
 10
65.10724455914867
 20
-38.42145891182974
 30
0.0
 11
66.07149637276578
 21
-39.38571072544685
 31
0.0
  0
LINE
  5
2DD
330
1F
100
AcDbEntity
  8
2
  6
CONTINUOUS
370
25
 62
7
100
AcDbLine
 10
65.6375746450386
 20
-38.52752492900772
 30
0.0
 11
66.42504976335906
 21
-39.31500004732819
 31
0.0
  0
LINE
  5
2DE
330
1F
100
AcDbEntity
  8
2
  6
CONTINUOUS
370
25
 62
7
100
AcDbLine
 10
66.16790473092851
 20
-38.63359094618571
 30
0.0
 11
66.77860315395235
 21
-39.24428936920953
 31
0.0
  0
LINE
  5
2DF
330
1F
100
AcDbEntity
  8
2
  6
CONTINUOUS
370
25
 62
7
100
AcDbLine
 10
66.69823481681841
 20
-38.73965696336369
 30
0.0
 11
67.13215654454561
 21
-39.17357869109088
 31
0.0
  0
LINE
  5
2E0
330
1F
100
AcDbEntity
  8
2
  6
CONTINUOUS
370
25
 62
7
100
AcDbLine
 10
67.22856490270833
 20
-38.84572298054167
 30
0.0
 11
67.48570993513889
 21
-39.10286801297222
 31
0.0
  0
LINE
  5
2E1
330
1F
100
AcDbEntity
  8
2
  6
CONTINUOUS
370
25
 62
7
100
AcDbLine
 10
67.75889498859824
 20
-38.95178899771965
 30
0.0
 11
67.83926332573216
 21
-39.03215733485357
 31
0.0
  0
LINE
  5
2E2
330
1F
100
AcDbEntity
  8
2
  6
CONTINUOUS
370
25
 62
7
100
AcDbLine
 10
73.0
 20
-39.00001
 30
0.0
 11
78.0
 21
-38.00001
 31
0.0
  0
LINE
  5
2E3
330
1F
100
AcDbEntity
  8
2
  6
CONTINUOUS
370
25
 62
7
100
AcDbLine
 10
78.0
 20
-38.00001
 30
0.0
 11
78.0
 21
-40.00001
 31
0.0
  0
LINE
  5
2E4
330
1F
100
AcDbEntity
  8
2
  6
CONTINUOUS
370
25
 62
7
100
AcDbLine
 10
78.0
 20
-40.00001
 30
0.0
 11
73.0
 21
-39.00001
 31
0.0
  0
LINE
  5
2E5
330
1F
100
AcDbEntity
  8
2
  6
CONTINUOUS
370
25
 62
7
100
AcDbLine
 10
77.6809567315278
 20
-39.93620134630556
 30
0.0
 11
78.0
 21
-39.61715807783335
 31
0.0
  0
LINE
  5
2E6
330
1F
100
AcDbEntity
  8
2
  6
CONTINUOUS
370
25
 62
7
100
AcDbLine
 10
77.32740334093451
 20
-39.86549066818691
 30
0.0
 11
78.0
 21
-39.19289400912142
 31
0.0
  0
LINE
  5
2E7
330
1F
100
AcDbEntity
  8
2
  6
CONTINUOUS
370
25
 62
7
100
AcDbLine
 10
76.97384995034125
 20
-39.79477999006825
 30
0.0
 11
78.0
 21
-38.76862994040949
 31
0.0
  0
LINE
  5
2E8
330
1F
100
AcDbEntity
  8
2
  6
CONTINUOUS
370
25
 62
7
100
AcDbLine
 10
76.62029655974796
 20
-39.72406931194959
 30
0.0
 11
78.0
 21
-38.34436587169755
 31
0.0
  0
LINE
  5
2E9
330
1F
100
AcDbEntity
  8
2
  6
CONTINUOUS
370
25
 62
7
100
AcDbLine
 10
76.26674316915468
 20
-39.65335863383094
 30
0.0
 11
77.90011475373203
 21
-38.0199870492536
 31
0.0
  0
LINE
  5
2EA
330
1F
100
AcDbEntity
  8
2
  6
CONTINUOUS
370
25
 62
7
100
AcDbLine
 10
75.9131897785614
 20
-39.58264795571229
 30
0.0
 11
77.36978466784211
 21
-38.12605306643158
 31
0.0
  0
LINE
  5
2EB
330
1F
100
AcDbEntity
  8
2
  6
CONTINUOUS
370
25
 62
7
100
AcDbLine
 10
75.55963638796813
 20
-39.51193727759363
 30
0.0
 11
76.8394545819522
 21
-38.23211908360956
 31
0.0
  0
LINE
  5
2EC
330
1F
100
AcDbEntity
  8
2
  6
CONTINUOUS
370
25
 62
7
100
AcDbLine
 10
75.20608299737486
 20
-39.44122659947497
 30
0.0
 11
76.30912449606228
 21
-38.33818510078755
 31
0.0
  0
LINE
  5
2ED
330
1F
100
AcDbEntity
  8
2
  6
CONTINUOUS
370
25
 62
7
100
AcDbLine
 10
74.85252960678157
 20
-39.37051592135632
 30
0.0
 11
75.77879441017237
 21
-38.44425111796553
 31
0.0
  0
LINE
  5
2EE
330
1F
100
AcDbEntity
  8
2
  6
CONTINUOUS
370
25
 62
7
100
AcDbLine
 10
74.49897621618831
 20
-39.29980524323766
 30
0.0
 11
75.24846432428247
 21
-38.55031713514352
 31
0.0
  0
LINE
  5
2EF
330
1F
100
AcDbEntity
  8
2
  6
CONTINUOUS
370
25
 62
7
100
AcDbLine
 10
74.14542282559503
 20
-39.22909456511901
 30
0.0
 11
74.71813423839254
 21
-38.6563831523215
 31
0.0
  0
LINE
  5
2F0
330
1F
100
AcDbEntity
  8
2
  6
CONTINUOUS
370
25
 62
7
100
AcDbLine
 10
73.79186943500174
 20
-39.15838388700035
 30
0.0
 11
74.18780415250262
 21
-38.76244916949948
 31
0.0
  0
LINE
  5
2F1
330
1F
100
AcDbEntity
  8
2
  6
CONTINUOUS
370
25
 62
7
100
AcDbLine
 10
73.43831604440848
 20
-39.0876732088817
 30
0.0
 11
73.6574740666127
 21
-38.86851518667746
 31
0.0
  0
LINE
  5
2F2
330
1F
100
AcDbEntity
  8
2
  6
CONTINUOUS
370
25
 62
7
100
AcDbLine
 10
73.08476265381519
 20
-39.01696253076305
 30
0.0
 11
73.12714398072279
 21
-38.97458120385544
 31
0.0
  0
LINE
  5
2F3
330
1F
100
AcDbEntity
  8
2
  6
CONTINUOUS
370
25
 62
7
100
AcDbLine
 10
73.31844804556081
 20
-38.93632039088784
 30
0.0
 11
73.47767206834122
 21
-39.09554441366825
 31
0.0
  0
LINE
  5
2F4
330
1F
100
AcDbEntity
  8
2
  6
CONTINUOUS
370
25
 62
7
100
AcDbLine
 10
73.67200143615409
 20
-38.86560971276919
 30
0.0
 11
74.00800215423114
 21
-39.20161043084623
 31
0.0
  0
LINE
  5
2F5
330
1F
100
AcDbEntity
  8
2
  6
CONTINUOUS
370
25
 62
7
100
AcDbLine
 10
74.02555482674737
 20
-38.79489903465053
 30
0.0
 11
74.53833224012106
 21
-39.30767644802422
 31
0.0
  0
LINE
  5
2F6
330
1F
100
AcDbEntity
  8
2
  6
CONTINUOUS
370
25
 62
7
100
AcDbLine
 10
74.37910821734064
 20
-38.72418835653188
 30
0.0
 11
75.06866232601097
 21
-39.4137424652022
 31
0.0
  0
LINE
  5
2F7
330
1F
100
AcDbEntity
  8
2
  6
CONTINUOUS
370
25
 62
7
100
AcDbLine
 10
74.73266160793392
 20
-38.65347767841322
 30
0.0
 11
75.59899241190088
 21
-39.51980848238018
 31
0.0
  0
LINE
  5
2F8
330
1F
100
AcDbEntity
  8
2
  6
CONTINUOUS
370
25
 62
7
100
AcDbLine
 10
75.0862149985272
 20
-38.58276700029457
 30
0.0
 11
76.1293224977908
 21
-39.62587449955817
 31
0.0
  0
LINE
  5
2F9
330
1F
100
AcDbEntity
  8
2
  6
CONTINUOUS
370
25
 62
7
100
AcDbLine
 10
75.43976838912047
 20
-38.51205632217591
 30
0.0
 11
76.65965258368071
 21
-39.73194051673615
 31
0.0
  0
LINE
  5
2FA
330
1F
100
AcDbEntity
  8
2
  6
CONTINUOUS
370
25
 62
7
100
AcDbLine
 10
75.79332177971375
 20
-38.44134564405725
 30
0.0
 11
77.18998266957063
 21
-39.83800653391413
 31
0.0
  0
LINE
  5
2FB
330
1F
100
AcDbEntity
  8
2
  6
CONTINUOUS
370
25
 62
7
100
AcDbLine
 10
76.14687517030703
 20
-38.37063496593859
 30
0.0
 11
77.72031275546054
 21
-39.94407255109211
 31
0.0
  0
LINE
  5
2FC
330
1F
100
AcDbEntity
  8
2
  6
CONTINUOUS
370
25
 62
7
100
AcDbLine
 10
76.5004285609003
 20
-38.29992428781994
 30
0.0
 11
78.0
 21
-39.79949572691964
 31
0.0
  0
LINE
  5
2FD
330
1F
100
AcDbEntity
  8
2
  6
CONTINUOUS
370
25
 62
7
100
AcDbLine
 10
76.85398195149358
 20
-38.22921360970129
 30
0.0
 11
78.0
 21
-39.37523165820771
 31
0.0
  0
LINE
  5
2FE
330
1F
100
AcDbEntity
  8
2
  6
CONTINUOUS
370
25
 62
7
100
AcDbLine
 10
77.20753534208686
 20
-38.15850293158263
 30
0.0
 11
78.0
 21
-38.95096758949578
 31
0.0
  0
LINE
  5
2FF
330
1F
100
AcDbEntity
  8
2
  6
CONTINUOUS
370
25
 62
7
100
AcDbLine
 10
77.56108873268013
 20
-38.08779225346397
 30
0.0
 11
78.0
 21
-38.52670352078385
 31
0.0
  0
LINE
  5
300
330
1F
100
AcDbEntity
  8
2
  6
CONTINUOUS
370
25
 62
7
100
AcDbLine
 10
77.91464212327341
 20
-38.01708157534532
 30
0.0
 11
78.0
 21
-38.10243945207191
 31
0.0
  0
TEXT
  5
301
330
1F
100
AcDbEntity
  8
2
  6
CONTINUOUS
370
25
 62
7
100
AcDbText
 10
69.33333333333333
 20
-37.50001
 30
0.0
 40
3.5
  1
5
 72
     1
 11
70.5
 21
-37.50001
 31
0.0
100
AcDbText
  0
LINE
  5
302
330
1F
100
AcDbEntity
  8
2
  6
CONTINUOUS
370
25
 62
7
100
AcDbLine
 10
224.0
 20
-19.5
 30
0.0
 11
243.0
 21
-19.5
 31
0.0
  0
LINE
  5
303
330
1F
100
AcDbEntity
  8
2
  6
CONTINUOUS
370
25
 62
7
100
AcDbLine
 10
243.0
 20
19.5
 30
0.0
 11
224.0
 21
19.5
 31
0.0
  0
LINE
  5
304
330
1F
100
AcDbEntity
  8
2
  6
CONTINUOUS
370
25
 62
7
100
AcDbLine
 10
242.0
 20
-19.5
 30
0.0
 11
242.0
 21
19.5
 31
0.0
  0
LINE
  5
305
330
1F
100
AcDbEntity
  8
2
  6
CONTINUOUS
370
25
 62
7
100
AcDbLine
 10
242.0
 20
-19.5
 30
0.0
 11
241.0
 21
-14.5
 31
0.0
  0
LINE
  5
306
330
1F
100
AcDbEntity
  8
2
  6
CONTINUOUS
370
25
 62
7
100
AcDbLine
 10
241.0
 20
-14.5
 30
0.0
 11
243.0
 21
-14.5
 31
0.0
  0
LINE
  5
307
330
1F
100
AcDbEntity
  8
2
  6
CONTINUOUS
370
25
 62
7
100
AcDbLine
 10
243.0
 20
-14.5
 30
0.0
 11
242.0
 21
-19.5
 31
0.0
  0
LINE
  5
308
330
1F
100
AcDbEntity
  8
2
  6
CONTINUOUS
370
25
 62
7
100
AcDbLine
 10
241.9324270849402
 20
-19.16213542470086
 30
0.0
 11
242.1013593725897
 21
-18.99320313705135
 31
0.0
  0
LINE
  5
309
330
1F
100
AcDbEntity
  8
2
  6
CONTINUOUS
370
25
 62
7
100
AcDbLine
 10
241.8617164068215
 20
-18.80858203410762
 30
0.0
 11
242.2074253897677
 21
-18.46287305116144
 31
0.0
  0
LINE
  5
30A
330
1F
100
AcDbEntity
  8
2
  6
CONTINUOUS
370
25
 62
7
100
AcDbLine
 10
241.7910057287029
 20
-18.45502864351434
 30
0.0
 11
242.3134914069457
 21
-17.93254296527152
 31
0.0
  0
LINE
  5
30B
330
1F
100
AcDbEntity
  8
2
  6
CONTINUOUS
370
25
 62
7
100
AcDbLine
 10
241.7202950505842
 20
-18.10147525292103
 30
0.0
 11
242.4195574241237
 21
-17.40221287938161
 31
0.0
  0
LINE
  5
30C
330
1F
100
AcDbEntity
  8
2
  6
CONTINUOUS
370
25
 62
7
100
AcDbLine
 10
241.6495843724656
 20
-17.74792186232776
 30
0.0
 11
242.5256234413017
 21
-16.87188279349169
 31
0.0
  0
LINE
  5
30D
330
1F
100
AcDbEntity
  8
2
  6
CONTINUOUS
370
25
 62
7
100
AcDbLine
 10
241.5788736943469
 20
-17.39436847173454
 30
0.0
 11
242.6316894584796
 21
-16.34155270760181
 31
0.0
  0
LINE
  5
30E
330
1F
100
AcDbEntity
  8
2
  6
CONTINUOUS
370
25
 62
7
100
AcDbLine
 10
241.5081630162283
 20
-17.04081508114126
 30
0.0
 11
242.7377554756576
 21
-15.81122262171189
 31
0.0
  0
LINE
  5
30F
330
1F
100
AcDbEntity
  8
2
  6
CONTINUOUS
370
25
 62
7
100
AcDbLine
 10
241.4374523381096
 20
-16.68726169054801
 30
0.0
 11
242.8438214928356
 21
-15.28089253582203
 31
0.0
  0
LINE
  5
310
330
1F
100
AcDbEntity
  8
2
  6
CONTINUOUS
370
25
 62
7
100
AcDbLine
 10
241.366741659991
 20
-16.33370829995474
 30
0.0
 11
242.9498875100136
 21
-14.75056244993215
 31
0.0
  0
LINE
  5
311
330
1F
100
AcDbEntity
  8
2
  6
CONTINUOUS
370
25
 62
7
100
AcDbLine
 10
241.2960309818723
 20
-15.98015490936149
 30
0.0
 11
242.7761858912338
 21
-14.5
 31
0.0
  0
LINE
  5
312
330
1F
100
AcDbEntity
  8
2
  6
CONTINUOUS
370
25
 62
7
100
AcDbLine
 10
241.2253203037536
 20
-15.62660151876821
 30
0.0
 11
242.3519218225219
 21
-14.5
 31
0.0
  0
LINE
  5
313
330
1F
100
AcDbEntity
  8
2
  6
CONTINUOUS
370
25
 62
7
100
AcDbLine
 10
241.154609625635
 20
-15.27304812817491
 30
0.0
 11
241.9276577538099
 21
-14.5
 31
0.0
  0
LINE
  5
314
330
1F
100
AcDbEntity
  8
2
  6
CONTINUOUS
370
25
 62
7
100
AcDbLine
 10
241.0838989475164
 20
-14.91949473758163
 30
0.0
 11
241.503393685098
 21
-14.5
 31
0.0
  0
LINE
  5
315
330
1F
100
AcDbEntity
  8
2
  6
CONTINUOUS
370
25
 62
7
100
AcDbLine
 10
241.0131882693977
 20
-14.56594134698838
 30
0.0
 11
241.0791296163861
 21
-14.5
 31
0.0
  0
LINE
  5
316
330
1F
100
AcDbEntity
  8
2
  6
CONTINUOUS
370
25
 62
7
100
AcDbLine
 10
241.9109037300363
 20
-19.05451865018139
 30
0.0
 11
242.0593975133092
 21
-19.20301243345429
 31
0.0
  0
LINE
  5
317
330
1F
100
AcDbEntity
  8
2
  6
CONTINUOUS
370
25
 62
7
100
AcDbLine
 10
241.8048377128583
 20
-18.52418856429151
 30
0.0
 11
242.1301081914278
 21
-18.84945904286101
 31
0.0
  0
LINE
  5
318
330
1F
100
AcDbEntity
  8
2
  6
CONTINUOUS
370
25
 62
7
100
AcDbLine
 10
241.6987716956803
 20
-17.99385847840162
 30
0.0
 11
242.2008188695465
 21
-18.49590565226774
 31
0.0
  0
LINE
  5
319
330
1F
100
AcDbEntity
  8
2
  6
CONTINUOUS
370
25
 62
7
100
AcDbLine
 10
241.5927056785023
 20
-17.46352839251168
 30
0.0
 11
242.2715295476651
 21
-18.14235226167446
 31
0.0
  0
LINE
  5
31A
330
1F
100
AcDbEntity
  8
2
  6
CONTINUOUS
370
25
 62
7
100
AcDbLine
 10
241.4866396613243
 20
-16.93319830662176
 30
0.0
 11
242.3422402257838
 21
-17.78879887108118
 31
0.0
  0
LINE
  5
31B
330
1F
100
AcDbEntity
  8
2
  6
CONTINUOUS
370
25
 62
7
100
AcDbLine
 10
241.3805736441464
 20
-16.40286822073188
 30
0.0
 11
242.4129509039024
 21
-17.43524548048791
 31
0.0
  0
LINE
  5
31C
330
1F
100
AcDbEntity
  8
2
  6
CONTINUOUS
370
25
 62
7
100
AcDbLine
 10
241.2745076269684
 20
-15.87253813484196
 30
0.0
 11
242.4836615820211
 21
-17.08169208989463
 31
0.0
  0
LINE
  5
31D
330
1F
100
AcDbEntity
  8
2
  6
CONTINUOUS
370
25
 62
7
100
AcDbLine
 10
241.1684416097904
 20
-15.34220804895207
 30
0.0
 11
242.5543722601398
 21
-16.72813869930141
 31
0.0
  0
LINE
  5
31E
330
1F
100
AcDbEntity
  8
2
  6
CONTINUOUS
370
25
 62
7
100
AcDbLine
 10
241.0623755926124
 20
-14.81187796306216
 30
0.0
 11
242.6250829382584
 21
-16.37458530870813
 31
0.0
  0
LINE
  5
31F
330
1F
100
AcDbEntity
  8
2
  6
CONTINUOUS
370
25
 62
7
100
AcDbLine
 10
241.1747616982622
 20
-14.5
 30
0.0
 11
242.695793616377
 21
-16.02103191811486
 31
0.0
  0
LINE
  5
320
330
1F
100
AcDbEntity
  8
2
  6
CONTINUOUS
370
25
 62
7
100
AcDbLine
 10
241.5990257669741
 20
-14.5
 30
0.0
 11
242.7665042944957
 21
-15.66747852752158
 31
0.0
  0
LINE
  5
321
330
1F
100
AcDbEntity
  8
2
  6
CONTINUOUS
370
25
 62
7
100
AcDbLine
 10
242.0232898356861
 20
-14.5
 30
0.0
 11
242.8372149726144
 21
-15.3139251369283
 31
0.0
  0
LINE
  5
322
330
1F
100
AcDbEntity
  8
2
  6
CONTINUOUS
370
25
 62
7
100
AcDbLine
 10
242.447553904398
 20
-14.5
 30
0.0
 11
242.907925650733
 21
-14.96037174633503
 31
0.0
  0
LINE
  5
323
330
1F
100
AcDbEntity
  8
2
  6
CONTINUOUS
370
25
 62
7
100
AcDbLine
 10
242.8718179731099
 20
-14.5
 30
0.0
 11
242.9786363288516
 21
-14.60681835574175
 31
0.0
  0
LINE
  5
324
330
1F
100
AcDbEntity
  8
2
  6
CONTINUOUS
370
25
 62
7
100
AcDbLine
 10
242.0
 20
19.5
 30
0.0
 11
243.0
 21
14.5
 31
0.0
  0
LINE
  5
325
330
1F
100
AcDbEntity
  8
2
  6
CONTINUOUS
370
25
 62
7
100
AcDbLine
 10
243.0
 20
14.5
 30
0.0
 11
241.0
 21
14.5
 31
0.0
  0
LINE
  5
326
330
1F
100
AcDbEntity
  8
2
  6
CONTINUOUS
370
25
 62
7
100
AcDbLine
 10
241.0
 20
14.5
 30
0.0
 11
242.0
 21
19.5
 31
0.0
  0
LINE
  5
327
330
1F
100
AcDbEntity
  8
2
  6
CONTINUOUS
370
25
 62
7
100
AcDbLine
 10
242.8084802127312
 20
14.5
 30
0.0
 11
242.9680800354552
 21
14.65959982272403
 31
0.0
  0
LINE
  5
328
330
1F
100
AcDbEntity
  8
2
  6
CONTINUOUS
370
25
 62
7
100
AcDbLine
 10
242.3842161440192
 20
14.5
 30
0.0
 11
242.8973693573365
 21
15.01315321331731
 31
0.0
  0
LINE
  5
329
330
1F
100
AcDbEntity
  8
2
  6
CONTINUOUS
370
25
 62
7
100
AcDbLine
 10
241.9599520753073
 20
14.5
 30
0.0
 11
242.8266586792179
 21
15.36670660391059
 31
0.0
  0
LINE
  5
32A
330
1F
100
AcDbEntity
  8
2
  6
CONTINUOUS
370
25
 62
7
100
AcDbLine
 10
241.5356880065954
 20
14.5
 30
0.0
 11
242.7559480010993
 21
15.72025999450386
 31
0.0
  0
LINE
  5
32B
330
1F
100
AcDbEntity
  8
2
  6
CONTINUOUS
370
25
 62
7
100
AcDbLine
 10
241.1114239378835
 20
14.5
 30
0.0
 11
242.6852373229806
 21
16.07381338509714
 31
0.0
  0
LINE
  5
32C
330
1F
100
AcDbEntity
  8
2
  6
CONTINUOUS
370
25
 62
7
100
AcDbLine
 10
241.0782100327071
 20
14.89105016353557
 30
0.0
 11
242.6145266448619
 21
16.42736677569039
 31
0.0
  0
LINE
  5
32D
330
1F
100
AcDbEntity
  8
2
  6
CONTINUOUS
370
25
 62
7
100
AcDbLine
 10
241.1842760498851
 20
15.42138024942545
 30
0.0
 11
242.5438159667433
 21
16.78092016628366
 31
0.0
  0
LINE
  5
32E
330
1F
100
AcDbEntity
  8
2
  6
CONTINUOUS
370
25
 62
7
100
AcDbLine
 10
241.2903420670631
 20
15.95171033531534
 30
0.0
 11
242.4731052886247
 21
17.13447355687694
 31
0.0
  0
LINE
  5
32F
330
1F
100
AcDbEntity
  8
2
  6
CONTINUOUS
370
25
 62
7
100
AcDbLine
 10
241.396408084241
 20
16.48204042120526
 30
0.0
 11
242.402394610506
 21
17.48802694747016
 31
0.0
  0
LINE
  5
330
330
1F
100
AcDbEntity
  8
2
  6
CONTINUOUS
370
25
 62
7
100
AcDbLine
 10
241.502474101419
 20
17.01237050709517
 30
0.0
 11
242.3316839323873
 21
17.84158033806344
 31
0.0
  0
LINE
  5
331
330
1F
100
AcDbEntity
  8
2
  6
CONTINUOUS
370
25
 62
7
100
AcDbLine
 10
241.608540118597
 20
17.54270059298506
 30
0.0
 11
242.2609732542687
 21
18.19513372865671
 31
0.0
  0
LINE
  5
332
330
1F
100
AcDbEntity
  8
2
  6
CONTINUOUS
370
25
 62
7
100
AcDbLine
 10
241.714606135775
 20
18.07303067887494
 30
0.0
 11
242.19026257615
 21
18.54868711924999
 31
0.0
  0
LINE
  5
333
330
1F
100
AcDbEntity
  8
2
  6
CONTINUOUS
370
25
 62
7
100
AcDbLine
 10
241.820672152953
 20
18.60336076476486
 30
0.0
 11
242.1195518980314
 21
18.90224050984327
 31
0.0
  0
LINE
  5
334
330
1F
100
AcDbEntity
  8
2
  6
CONTINUOUS
370
25
 62
7
100
AcDbLine
 10
241.926738170131
 20
19.13369085065477
 30
0.0
 11
242.0488412199127
 21
19.25579390043652
 31
0.0
  0
LINE
  5
335
330
1F
100
AcDbEntity
  8
2
  6
CONTINUOUS
370
25
 62
7
100
AcDbLine
 10
241.0041197284455
 20
14.52059864222744
 30
0.0
 11
241.024718370673
 21
14.5
 31
0.0
  0
LINE
  5
336
330
1F
100
AcDbEntity
  8
2
  6
CONTINUOUS
370
25
 62
7
100
AcDbLine
 10
241.0748304065642
 20
14.87415203282072
 30
0.0
 11
241.4489824393849
 21
14.5
 31
0.0
  0
LINE
  5
337
330
1F
100
AcDbEntity
  8
2
  6
CONTINUOUS
370
25
 62
7
100
AcDbLine
 10
241.1455410846828
 20
15.22770542341399
 30
0.0
 11
241.8732465080968
 21
14.5
 31
0.0
  0
LINE
  5
338
330
1F
100
AcDbEntity
  8
2
  6
CONTINUOUS
370
25
 62
7
100
AcDbLine
 10
241.2162517628015
 20
15.58125881400724
 30
0.0
 11
242.2975105768087
 21
14.5
 31
0.0
  0
LINE
  5
339
330
1F
100
AcDbEntity
  8
2
  6
CONTINUOUS
370
25
 62
7
100
AcDbLine
 10
241.2869624409201
 20
15.93481220460052
 30
0.0
 11
242.7217746455206
 21
14.5
 31
0.0
  0
LINE
  5
33A
330
1F
100
AcDbEntity
  8
2
  6
CONTINUOUS
370
25
 62
7
100
AcDbLine
 10
241.3576731190388
 20
16.2883655951938
 30
0.0
 11
242.9634903214419
 21
14.68254839279069
 31
0.0
  0
LINE
  5
33B
330
1F
100
AcDbEntity
  8
2
  6
CONTINUOUS
370
25
 62
7
100
AcDbLine
 10
241.4283837971574
 20
16.64191898578707
 30
0.0
 11
242.8574243042639
 21
15.21287847868058
 31
0.0
  0
LINE
  5
33C
330
1F
100
AcDbEntity
  8
2
  6
CONTINUOUS
370
25
 62
7
100
AcDbLine
 10
241.4990944752761
 20
16.99547237638035
 30
0.0
 11
242.7513582870859
 21
15.74320856457052
 31
0.0
  0
LINE
  5
33D
330
1F
100
AcDbEntity
  8
2
  6
CONTINUOUS
370
25
 62
7
100
AcDbLine
 10
241.5698051533947
 20
17.3490257669736
 30
0.0
 11
242.6452922699079
 21
16.27353865046041
 31
0.0
  0
LINE
  5
33E
330
1F
100
AcDbEntity
  8
2
  6
CONTINUOUS
370
25
 62
7
100
AcDbLine
 10
241.6405158315134
 20
17.70257915756687
 30
0.0
 11
242.5392262527299
 21
16.8038687363503
 31
0.0
  0
LINE
  5
33F
330
1F
100
AcDbEntity
  8
2
  6
CONTINUOUS
370
25
 62
7
100
AcDbLine
 10
241.711226509632
 20
18.05613254816015
 30
0.0
 11
242.433160235552
 21
17.33419882224018
 31
0.0
  0
LINE
  5
340
330
1F
100
AcDbEntity
  8
2
  6
CONTINUOUS
370
25
 62
7
100
AcDbLine
 10
241.7819371877507
 20
18.40968593875337
 30
0.0
 11
242.327094218374
 21
17.8645289081301
 31
0.0
  0
LINE
  5
341
330
1F
100
AcDbEntity
  8
2
  6
CONTINUOUS
370
25
 62
7
100
AcDbLine
 10
241.8526478658694
 20
18.76323932934665
 30
0.0
 11
242.221028201196
 21
18.39485899402001
 31
0.0
  0
LINE
  5
342
330
1F
100
AcDbEntity
  8
2
  6
CONTINUOUS
370
25
 62
7
100
AcDbLine
 10
241.923358543988
 20
19.11679271993992
 30
0.0
 11
242.114962184018
 21
18.9251890799099
 31
0.0
  0
LINE
  5
343
330
1F
100
AcDbEntity
  8
2
  6
CONTINUOUS
370
25
 62
7
100
AcDbLine
 10
241.9940692221066
 20
19.4703461105332
 30
0.0
 11
242.0088961668401
 21
19.45551916579979
 31
0.0
  0
TEXT
  5
344
330
1F
100
AcDbEntity
  8
2
  6
CONTINUOUS
370
25
 62
7
100
AcDbText
 10
240.5
 20
-0.641666666666667
 30
0.0
 40
3.5
  1
39
 50
90.0
 72
     1
 11
240.5
 21
2.275
 31
0.0
100
AcDbText
  0
CIRCLE
  5
345
330
1F
100
AcDbEntity
  8
2
  6
CONTINUOUS
370
25
 62
7
100
AcDbCircle
 10
238.75
 20
-2.625
 30
0.0
 40
1.4
  0
LINE
  5
346
330
1F
100
AcDbEntity
  8
2
  6
CONTINUOUS
370
25
 62
7
100
AcDbLine
 10
240.15
 20
-4.024999999999999
 30
0.0
 11
237.35
 21
-1.224999999999999
 31
0.0
  0
LINE
  5
347
330
1F
100
AcDbEntity
  8
SK1
  6
CONTINUOUS
370
50
 62
4
100
AcDbLine
 10
0.0
 20
0.0
 30
0.0
 11
2.625
 21
0.0
 31
0.0
  0
LINE
  5
348
330
1F
100
AcDbEntity
  8
SK1
  6
CONTINUOUS
370
50
 62
4
100
AcDbLine
 10
0.0
 20
0.0
 30
0.0
 11
0.0
 21
2.625
 31
0.0
  0
ARC
  5
349
330
1F
100
AcDbEntity
  8
SK1
  6
CONTINUOUS
370
50
 62
4
100
AcDbCircle
 10
0.0
 20
0.0
 30
0.0
 40
2.625
100
AcDbArc
 50
0.0
 51
90.0
  0
LINE
  5
34A
330
1F
100
AcDbEntity
  8
SK1
  6
CONTINUOUS
370
50
 62
4
100
AcDbLine
 10
0.0
 20
0.0
 30
0.0
 11
-2.625
 21
0.0
 31
0.0
  0
ARC
  5
34B
330
1F
100
AcDbEntity
  8
SK1
  6
CONTINUOUS
370
50
 62
4
100
AcDbCircle
 10
0.0
 20
0.0
 30
0.0
 40
2.625
100
AcDbArc
 50
180.0
 51
270.0
  0
LINE
  5
34C
330
1F
100
AcDbEntity
  8
SK1
  6
CONTINUOUS
370
50
 62
4
100
AcDbLine
 10
0.0
 20
-2.625
 30
0.0
 11
0.0
 21
0.0
 31
0.0
  0
ARC
  5
34D
330
1F
100
AcDbEntity
  8
SK1
  6
CONTINUOUS
370
50
 62
4
100
AcDbCircle
 10
0.0
 20
0.0
 30
0.0
 40
2.625
100
AcDbArc
 50
270.0
 51
0.0
  0
ARC
  5
34E
330
1F
100
AcDbEntity
  8
SK1
  6
CONTINUOUS
370
50
 62
4
100
AcDbCircle
 10
0.0
 20
0.0
 30
0.0
 40
2.625
100
AcDbArc
 50
90.0
 51
180.0
  0
LINE
  5
34F
330
1F
100
AcDbEntity
  8
SK1
  6
CONTINUOUS
370
50
 62
4
100
AcDbLine
 10
-0.3136497351945593
 20
-2.605752093434347
 30
0.0
 11
0.0
 21
-2.292102358239788
 31
0.0
  0
LINE
  5
350
330
1F
100
AcDbEntity
  8
SK1
  6
CONTINUOUS
370
50
 62
4
100
AcDbLine
 10
2.292102358239788
 20
0.0
 30
0.0
 11
2.605752093434347
 21
0.3136497351945593
 31
0.0
  0
LINE
  5
351
330
1F
100
AcDbEntity
  8
SK1
  6
CONTINUOUS
370
50
 62
4
100
AcDbLine
 10
-0.6273505699113713
 20
-2.548221868028222
 30
0.0
 11
0.0
 21
-1.92087129811685
 31
0.0
  0
LINE
  5
352
330
1F
100
AcDbEntity
  8
SK1
  6
CONTINUOUS
370
50
 62
4
100
AcDbLine
 10
1.92087129811685
 20
0.0
 30
0.0
 11
2.548221868028222
 21
0.6273505699113713
 31
0.0
  0
LINE
  5
353
330
1F
100
AcDbEntity
  8
SK1
  6
CONTINUOUS
370
50
 62
4
100
AcDbLine
 10
-0.9109573282046455
 20
-2.460597566198558
 30
0.0
 11
0.0
 21
-1.549640237993913
 31
0.0
  0
LINE
  5
354
330
1F
100
AcDbEntity
  8
SK1
  6
CONTINUOUS
370
50
 62
4
100
AcDbLine
 10
1.549640237993913
 20
0.0
 30
0.0
 11
2.460597566198558
 21
0.9109573282046455
 31
0.0
  0
LINE
  5
355
330
1F
100
AcDbEntity
  8
SK1
  6
CONTINUOUS
370
50
 62
4
100
AcDbLine
 10
-1.170065381050165
 20
-2.34847455892114
 30
0.0
 11
0.0
 21
-1.178409177870975
 31
0.0
  0
LINE
  5
356
330
1F
100
AcDbEntity
  8
SK1
  6
CONTINUOUS
370
50
 62
4
100
AcDbLine
 10
1.178409177870975
 20
0.0
 30
0.0
 11
2.34847455892114
 21
1.170065381050165
 31
0.0
  0
LINE
  5
357
330
1F
100
AcDbEntity
  8
SK1
  6
CONTINUOUS
370
50
 62
4
100
AcDbLine
 10
-1.408115562455023
 20
-2.215293680203061
 30
0.0
 11
0.0
 21
-0.8071781177480375
 31
0.0
  0
LINE
  5
358
330
1F
100
AcDbEntity
  8
SK1
  6
CONTINUOUS
370
50
 62
4
100
AcDbLine
 10
0.8071781177480375
 20
0.0
 30
0.0
 11
2.215293680203075
 21
1.408115562455038
 31
0.0
  0
LINE
  5
359
330
1F
100
AcDbEntity
  8
SK1
  6
CONTINUOUS
370
50
 62
4
100
AcDbLine
 10
-1.624474799392502
 20
-2.060421857017602
 30
0.0
 11
0.0
 21
-0.4359470576250999
 31
0.0
  0
LINE
  5
35A
330
1F
100
AcDbEntity
  8
SK1
  6
CONTINUOUS
370
50
 62
4
100
AcDbLine
 10
0.4359470576250999
 20
0.0
 30
0.0
 11
2.060421857017587
 21
1.624474799392488
 31
0.0
  0
LINE
  5
35B
330
1F
100
AcDbEntity
  8
SK1
  6
CONTINUOUS
370
50
 62
4
100
AcDbLine
 10
-1.822881401270919
 20
-1.887597398773082
 30
0.0
 11
0.0
 21
-0.0647159975021623
 31
0.0
  0
LINE
  5
35C
330
1F
100
AcDbEntity
  8
SK1
  6
CONTINUOUS
370
50
 62
4
100
AcDbLine
 10
0.0647159975021623
 20
0.0
 30
0.0
 11
1.887597398773067
 21
1.822881401270905
 31
0.0
  0
LINE
  5
35D
330
1F
100
AcDbEntity
  8
SK1
  6
CONTINUOUS
370
50
 62
4
100
AcDbLine
 10
-2.002522914128136
 20
-1.69600785150736
 30
0.0
 11
-0.3065150626207753
 21
0.0
 31
0.0
  0
LINE
  5
35E
330
1F
100
AcDbEntity
  8
SK1
  6
CONTINUOUS
370
50
 62
4
100
AcDbLine
 10
0.0
 20
0.3065150626207753
 30
0.0
 11
1.696007851507346
 21
2.002522914128122
 31
0.0
  0
LINE
  5
35F
330
1F
100
AcDbEntity
  8
SK1
  6
CONTINUOUS
370
50
 62
4
100
AcDbLine
 10
-2.1629229194712
 20
-1.485176796727487
 30
0.0
 11
-0.6777461227437129
 21
0.0
 31
0.0
  0
LINE
  5
360
330
1F
100
AcDbEntity
  8
SK1
  6
CONTINUOUS
370
50
 62
4
100
AcDbLine
 10
0.0
 20
0.6777461227437129
 30
0.0
 11
1.485176796727487
 21
2.1629229194712
 31
0.0
  0
LINE
  5
361
330
1F
100
AcDbEntity
  8
SK1
  6
CONTINUOUS
370
50
 62
4
100
AcDbLine
 10
-2.3047860636688
 20
-1.255808880802149
 30
0.0
 11
-1.048977182866651
 21
0.0
 31
0.0
  0
LINE
  5
362
330
1F
100
AcDbEntity
  8
SK1
  6
CONTINUOUS
370
50
 62
4
100
AcDbLine
 10
0.0
 20
1.048977182866651
 30
0.0
 11
1.255808880802135
 21
2.304786063668786
 31
0.0
  0
LINE
  5
363
330
1F
100
AcDbEntity
  8
SK1
  6
CONTINUOUS
370
50
 62
4
100
AcDbLine
 10
-2.424314646419546
 20
-1.004106403429958
 30
0.0
 11
-1.420208242989588
 21
0.0
 31
0.0
  0
LINE
  5
364
330
1F
100
AcDbEntity
  8
SK1
  6
CONTINUOUS
370
50
 62
4
100
AcDbLine
 10
0.0
 20
1.420208242989588
 30
0.0
 11
1.004106403429958
 21
2.424314646419546
 31
0.0
  0
LINE
  5
365
330
1F
100
AcDbEntity
  8
SK1
  6
CONTINUOUS
370
50
 62
4
100
AcDbLine
 10
-2.5204056197705
 20
-0.7289663166579743
 30
0.0
 11
-1.791439303112526
 21
0.0
 31
0.0
  0
LINE
  5
366
330
1F
100
AcDbEntity
  8
SK1
  6
CONTINUOUS
370
50
 62
4
100
AcDbLine
 10
0.0
 20
1.791439303112526
 30
0.0
 11
0.7289663166579743
 21
2.5204056197705
 31
0.0
  0
LINE
  5
367
330
1F
100
AcDbEntity
  8
SK1
  6
CONTINUOUS
370
50
 62
4
100
AcDbLine
 10
-2.588901198107166
 20
-0.4262308348717028
 30
0.0
 11
-2.162670363235463
 21
0.0
 31
0.0
  0
LINE
  5
368
330
1F
100
AcDbEntity
  8
SK1
  6
CONTINUOUS
370
50
 62
4
100
AcDbLine
 10
0.0
 20
2.162670363235463
 30
0.0
 11
0.4262308348717028
 21
2.588901198107166
 31
0.0
  0
LINE
  5
369
330
1F
100
AcDbEntity
  8
SK1
  6
CONTINUOUS
370
50
 62
4
100
AcDbLine
 10
-2.622224340507927
 20
-0.0883229171495259
 30
0.0
 11
-2.533901423358401
 21
0.0
 31
0.0
  0
LINE
  5
36A
330
1F
100
AcDbEntity
  8
SK1
  6
CONTINUOUS
370
50
 62
4
100
AcDbLine
 10
0.0
 20
2.533901423358401
 30
0.0
 11
0.0883229171495259
 21
2.622224340507927
 31
0.0
  0
LINE
  5
36B
330
1F
100
AcDbEntity
  8
SK1
  6
CONTINUOUS
370
50
 62
4
100
AcDbLine
 10
-2.409655589475619
 20
-1.037981485321865
 30
0.0
 11
-1.037981485321865
 21
-2.409655589475619
 31
0.0
  0
LINE
  5
36C
330
1F
100
AcDbEntity
  8
SK1
  6
CONTINUOUS
370
50
 62
4
100
AcDbLine
 10
-2.57676929601601
 20
-0.499636718658536
 30
0.0
 11
-0.4996367186585218
 21
-2.576769296016025
 31
0.0
  0
LINE
  5
36D
330
1F
100
AcDbEntity
  8
SK1
  6
CONTINUOUS
370
50
 62
4
100
AcDbLine
 10
-2.622398649825598
 20
-0.0827763047260106
 30
0.0
 11
-0.0827763047260106
 21
-2.622398649825598
 31
0.0
  0
LINE
  5
36E
330
1F
100
AcDbEntity
  8
SK1
  6
CONTINUOUS
370
50
 62
4
100
AcDbLine
 10
-2.333943894428671
 20
0.0
 30
0.0
 11
0.0
 21
-2.333943894428671
 31
0.0
  0
LINE
  5
36F
330
1F
100
AcDbEntity
  8
SK1
  6
CONTINUOUS
370
50
 62
4
100
AcDbLine
 10
-1.962712834305734
 20
0.0
 30
0.0
 11
0.0
 21
-1.962712834305734
 31
0.0
  0
LINE
  5
370
330
1F
100
AcDbEntity
  8
SK1
  6
CONTINUOUS
370
50
 62
4
100
AcDbLine
 10
-1.591481774182796
 20
0.0
 30
0.0
 11
0.0
 21
-1.591481774182796
 31
0.0
  0
LINE
  5
371
330
1F
100
AcDbEntity
  8
SK1
  6
CONTINUOUS
370
50
 62
4
100
AcDbLine
 10
-1.220250714059858
 20
0.0
 30
0.0
 11
0.0
 21
-1.220250714059858
 31
0.0
  0
LINE
  5
372
330
1F
100
AcDbEntity
  8
SK1
  6
CONTINUOUS
370
50
 62
4
100
AcDbLine
 10
-0.8490196539369208
 20
0.0
 30
0.0
 11
0.0
 21
-0.8490196539369208
 31
0.0
  0
LINE
  5
373
330
1F
100
AcDbEntity
  8
SK1
  6
CONTINUOUS
370
50
 62
4
100
AcDbLine
 10
-0.4777885938139832
 20
0.0
 30
0.0
 11
0.0
 21
-0.4777885938139832
 31
0.0
  0
LINE
  5
374
330
1F
100
AcDbEntity
  8
SK1
  6
CONTINUOUS
370
50
 62
4
100
AcDbLine
 10
-0.1065575336910456
 20
0.0
 30
0.0
 11
0.0
 21
-0.1065575336910456
 31
0.0
  0
LINE
  5
375
330
1F
100
AcDbEntity
  8
SK1
  6
CONTINUOUS
370
50
 62
4
100
AcDbLine
 10
0.0
 20
0.264673526431892
 30
0.0
 11
0.264673526431892
 21
0.0
 31
0.0
  0
LINE
  5
376
330
1F
100
AcDbEntity
  8
SK1
  6
CONTINUOUS
370
50
 62
4
100
AcDbLine
 10
0.0
 20
0.6359045865548154
 30
0.0
 11
0.6359045865548154
 21
0.0
 31
0.0
  0
LINE
  5
377
330
1F
100
AcDbEntity
  8
SK1
  6
CONTINUOUS
370
50
 62
4
100
AcDbLine
 10
0.0
 20
1.007135646677753
 30
0.0
 11
1.007135646677753
 21
0.0
 31
0.0
  0
LINE
  5
378
330
1F
100
AcDbEntity
  8
SK1
  6
CONTINUOUS
370
50
 62
4
100
AcDbLine
 10
0.0
 20
1.378366706800691
 30
0.0
 11
1.378366706800691
 21
0.0
 31
0.0
  0
LINE
  5
379
330
1F
100
AcDbEntity
  8
SK1
  6
CONTINUOUS
370
50
 62
4
100
AcDbLine
 10
0.0
 20
1.749597766923628
 30
0.0
 11
1.749597766923628
 21
0.0
 31
0.0
  0
LINE
  5
37A
330
1F
100
AcDbEntity
  8
SK1
  6
CONTINUOUS
370
50
 62
4
100
AcDbLine
 10
0.0
 20
2.120828827046566
 30
0.0
 11
2.120828827046566
 21
0.0
 31
0.0
  0
LINE
  5
37B
330
1F
100
AcDbEntity
  8
SK1
  6
CONTINUOUS
370
50
 62
4
100
AcDbLine
 10
0.0
 20
2.492059887169503
 30
0.0
 11
2.492059887169503
 21
0.0
 31
0.0
  0
LINE
  5
37C
330
1F
100
AcDbEntity
  8
SK1
  6
CONTINUOUS
370
50
 62
4
100
AcDbLine
 10
0.2516810924591937
 20
2.611609854833247
 30
0.0
 11
2.611609854833247
 21
0.2516810924591937
 31
0.0
  0
LINE
  5
37D
330
1F
100
AcDbEntity
  8
SK1
  6
CONTINUOUS
370
50
 62
4
100
AcDbLine
 10
0.708035391852718
 20
2.526486615562661
 30
0.0
 11
2.526486615562661
 21
0.708035391852718
 31
0.0
  0
LINE
  5
37E
330
1F
100
AcDbEntity
  8
SK1
  6
CONTINUOUS
370
50
 62
4
100
AcDbLine
 10
1.364565394293749
 20
2.241187673244568
 30
0.0
 11
2.241187673244582
 21
1.364565394293734
 31
0.0
  0
LINE
  5
37F
330
1F
100
AcDbEntity
  8
SK1
  6
CONTINUOUS
370
50
 62
4
100
AcDbLine
 10
68.0
 20
0.0
 30
0.0
 11
69.75
 21
0.0
 31
0.0
  0
LINE
  5
380
330
1F
100
AcDbEntity
  8
SK1
  6
CONTINUOUS
370
50
 62
4
100
AcDbLine
 10
68.0
 20
0.0
 30
0.0
 11
68.0
 21
1.75
 31
0.0
  0
ARC
  5
381
330
1F
100
AcDbEntity
  8
SK1
  6
CONTINUOUS
370
50
 62
4
100
AcDbCircle
 10
68.0
 20
0.0
 30
0.0
 40
1.75
100
AcDbArc
 50
0.0
 51
90.0
  0
LINE
  5
382
330
1F
100
AcDbEntity
  8
SK1
  6
CONTINUOUS
370
50
 62
4
100
AcDbLine
 10
68.0
 20
0.0
 30
0.0
 11
66.25
 21
0.0
 31
0.0
  0
ARC
  5
383
330
1F
100
AcDbEntity
  8
SK1
  6
CONTINUOUS
370
50
 62
4
100
AcDbCircle
 10
68.0
 20
0.0
 30
0.0
 40
1.75
100
AcDbArc
 50
180.0
 51
270.0
  0
LINE
  5
384
330
1F
100
AcDbEntity
  8
SK1
  6
CONTINUOUS
370
50
 62
4
100
AcDbLine
 10
68.0
 20
-1.75
 30
0.0
 11
68.0
 21
0.0
 31
0.0
  0
ARC
  5
385
330
1F
100
AcDbEntity
  8
SK1
  6
CONTINUOUS
370
50
 62
4
100
AcDbCircle
 10
68.0
 20
0.0
 30
0.0
 40
1.75
100
AcDbArc
 50
270.0
 51
0.0
  0
ARC
  5
386
330
1F
100
AcDbEntity
  8
SK1
  6
CONTINUOUS
370
50
 62
4
100
AcDbCircle
 10
68.0
 20
0.0
 30
0.0
 40
1.75
100
AcDbArc
 50
90.0
 51
180.0
  0
LINE
  5
387
330
1F
100
AcDbEntity
  8
SK1
  6
CONTINUOUS
370
50
 62
4
100
AcDbLine
 10
67.77717274741573
 20
-1.73564731720198
 30
0.0
 11
68.0
 21
-1.512820064617713
 31
0.0
  0
LINE
  5
388
330
1F
100
AcDbEntity
  8
SK1
  6
CONTINUOUS
370
50
 62
4
100
AcDbLine
 10
69.51282006461771
 20
0.0
 30
0.0
 11
69.73564731720198
 21
0.2228272525842674
 31
0.0
  0
LINE
  5
389
330
1F
100
AcDbEntity
  8
SK1
  6
CONTINUOUS
370
50
 62
4
100
AcDbLine
 10
67.56930380681874
 20
-1.69602888438369
 30
0.0
 11
68.0
 21
-1.265332691202421
 31
0.0
  0
LINE
  5
38A
330
1F
100
AcDbEntity
  8
SK1
  6
CONTINUOUS
370
50
 62
4
100
AcDbLine
 10
69.26533269120242
 20
0.0
 30
0.0
 11
69.6960288843837
 21
0.4306961931812696
 31
0.0
  0
LINE
  5
38B
330
1F
100
AcDbEntity
  8
SK1
  6
CONTINUOUS
370
50
 62
4
100
AcDbLine
 10
67.38148340435765
 20
-1.636361913429485
 30
0.0
 11
68.0
 21
-1.01784531778713
 31
0.0
  0
LINE
  5
38C
330
1F
100
AcDbEntity
  8
SK1
  6
CONTINUOUS
370
50
 62
4
100
AcDbLine
 10
69.01784531778713
 20
0.0
 30
0.0
 11
69.63636191342948
 21
0.6185165956423557
 31
0.0
  0
LINE
  5
38D
330
1F
100
AcDbEntity
  8
SK1
  6
CONTINUOUS
370
50
 62
4
100
AcDbLine
 10
67.2098551094628
 20
-1.560502834909039
 30
0.0
 11
68.0
 21
-0.7703579443718382
 31
0.0
  0
LINE
  5
38E
330
1F
100
AcDbEntity
  8
SK1
  6
CONTINUOUS
370
50
 62
4
100
AcDbLine
 10
68.77035794437184
 20
0.0
 30
0.0
 11
69.56050283490904
 21
0.7901448905372013
 31
0.0
  0
LINE
  5
38F
330
1F
100
AcDbEntity
  8
SK1
  6
CONTINUOUS
370
50
 62
4
100
AcDbLine
 10
67.05217783219447
 20
-1.470692738762079
 30
0.0
 11
68.0
 21
-0.5228705709565462
 31
0.0
  0
LINE
  5
390
330
1F
100
AcDbEntity
  8
SK1
  6
CONTINUOUS
370
50
 62
4
100
AcDbLine
 10
68.52287057095654
 20
0.0
 30
0.0
 11
69.47069273876208
 21
0.947822167805533
 31
0.0
  0
LINE
  5
391
330
1F
100
AcDbEntity
  8
SK1
  6
CONTINUOUS
370
50
 62
4
100
AcDbLine
 10
66.90842956711548
 20
-1.366953630425777
 30
0.0
 11
68.0
 21
-0.2753831975412551
 31
0.0
  0
LINE
  5
392
330
1F
100
AcDbEntity
  8
SK1
  6
CONTINUOUS
370
50
 62
4
100
AcDbLine
 10
68.27538319754126
 20
0.0
 30
0.0
 11
69.36695363042577
 21
1.091570432884522
 31
0.0
  0
LINE
  5
393
330
1F
100
AcDbEntity
  8
SK1
  6
CONTINUOUS
370
50
 62
4
100
AcDbLine
 10
66.77712164538164
 20
-1.25077417874432
 30
0.0
 11
68.0
 21
-0.0278958241259639
 31
0.0
  0
LINE
  5
394
330
1F
100
AcDbEntity
  8
SK1
  6
CONTINUOUS
370
50
 62
4
100
AcDbLine
 10
68.02789582412596
 20
0.0
 30
0.0
 11
69.25077417874432
 21
1.222878354618356
 31
0.0
  0
LINE
  5
395
330
1F
100
AcDbEntity
  8
SK1
  6
CONTINUOUS
370
50
 62
4
100
AcDbLine
 10
66.65784030371346
 20
-1.122568146997212
 30
0.0
 11
67.78040845071067
 21
0.0
 31
0.0
  0
LINE
  5
396
330
1F
100
AcDbEntity
  8
SK1
  6
CONTINUOUS
370
50
 62
4
100
AcDbLine
 10
68.0
 20
0.2195915492893277
 30
0.0
 11
69.12256814699721
 21
1.34215969628654
 31
0.0
  0
LINE
  5
397
330
1F
100
AcDbEntity
  8
SK1
  6
CONTINUOUS
370
50
 62
4
100
AcDbLine
 10
66.55188167231256
 20
-0.9810394049828186
 30
0.0
 11
67.53292107729538
 21
0.0
 31
0.0
  0
LINE
  5
398
330
1F
100
AcDbEntity
  8
SK1
  6
CONTINUOUS
370
50
 62
4
100
AcDbLine
 10
68.0
 20
0.4670789227046193
 30
0.0
 11
68.98103940498282
 21
1.448118327687438
 31
0.0
  0
LINE
  5
399
330
1F
100
AcDbEntity
  8
SK1
  6
CONTINUOUS
370
50
 62
4
100
AcDbLine
 10
66.45832908651575
 20
-0.8271046173643402
 30
0.0
 11
67.28543370388009
 21
0.0
 31
0.0
  0
LINE
  5
39A
330
1F
100
AcDbEntity
  8
SK1
  6
CONTINUOUS
370
50
 62
4
100
AcDbLine
 10
68.0
 20
0.71456629611991
 30
0.0
 11
68.82710461736434
 21
1.54167091348425
 31
0.0
  0
LINE
  5
39B
330
1F
100
AcDbEntity
  8
SK1
  6
CONTINUOUS
370
50
 62
4
100
AcDbLine
 10
66.37918473824205
 20
-0.6587615922227528
 30
0.0
 11
67.0379463304648
 21
0.0
 31
0.0
  0
LINE
  5
39C
330
1F
100
AcDbEntity
  8
SK1
  6
CONTINUOUS
370
50
 62
4
100
AcDbLine
 10
68.0
 20
0.9620536695352015
 30
0.0
 11
68.65876159222275
 21
1.620815261757954
 31
0.0
  0
LINE
  5
39D
330
1F
100
AcDbEntity
  8
SK1
  6
CONTINUOUS
370
50
 62
4
100
AcDbLine
 10
66.31629687706963
 20
-0.474162079979876
 30
0.0
 11
66.79045895704951
 21
0.0
 31
0.0
  0
LINE
  5
39E
330
1F
100
AcDbEntity
  8
SK1
  6
CONTINUOUS
370
50
 62
4
100
AcDbLine
 10
68.0
 20
1.209541042950494
 30
0.0
 11
68.47416207997988
 21
1.683703122930369
 31
0.0
  0
LINE
  5
39F
330
1F
100
AcDbEntity
  8
SK1
  6
CONTINUOUS
370
50
 62
4
100
AcDbLine
 10
66.27198100434272
 20
-0.2709905792915031
 30
0.0
 11
66.54297158363421
 21
0.0
 31
0.0
  0
LINE
  5
3A0
330
1F
100
AcDbEntity
  8
SK1
  6
CONTINUOUS
370
50
 62
4
100
AcDbLine
 10
68.0
 20
1.457028416365784
 30
0.0
 11
68.2709905792915
 21
1.728018995657286
 31
0.0
  0
LINE
  5
3A1
330
1F
100
AcDbEntity
  8
SK1
  6
CONTINUOUS
370
50
 62
4
100
AcDbLine
 10
66.2513858468978
 20
-0.0440983633211194
 30
0.0
 11
66.29548421021893
 21
0.0
 31
0.0
  0
LINE
  5
3A2
330
1F
100
AcDbEntity
  8
SK1
  6
CONTINUOUS
370
50
 62
4
100
AcDbLine
 10
68.0
 20
1.704515789781075
 30
0.0
 11
68.04409836332111
 21
1.748614153102194
 31
0.0
  0
LINE
  5
3A3
330
1F
100
AcDbEntity
  8
SK1
  6
CONTINUOUS
370
50
 62
4
100
AcDbLine
 10
66.36386517603681
 20
-0.6191473609004006
 30
0.0
 11
67.3808526390996
 21
-1.636134823963186
 31
0.0
  0
LINE
  5
3A4
330
1F
100
AcDbEntity
  8
SK1
  6
CONTINUOUS
370
50
 62
4
100
AcDbLine
 10
66.27363430643545
 20
-0.2814291178837463
 30
0.0
 11
67.71857088211625
 21
-1.726365693564548
 31
0.0
  0
LINE
  5
3A5
330
1F
100
AcDbEntity
  8
SK1
  6
CONTINUOUS
370
50
 62
4
100
AcDbLine
 10
66.2503344343115
 20
-0.0106418723445003
 30
0.0
 11
67.9893581276555
 21
-1.749665565688503
 31
0.0
  0
LINE
  5
3A6
330
1F
100
AcDbEntity
  8
SK1
  6
CONTINUOUS
370
50
 62
4
100
AcDbLine
 10
66.48717993538229
 20
0.0
 30
0.0
 11
68.0
 21
-1.51282006461771
 31
0.0
  0
LINE
  5
3A7
330
1F
100
AcDbEntity
  8
SK1
  6
CONTINUOUS
370
50
 62
4
100
AcDbLine
 10
66.73466730879758
 20
0.0
 30
0.0
 11
68.0
 21
-1.265332691202418
 31
0.0
  0
LINE
  5
3A8
330
1F
100
AcDbEntity
  8
SK1
  6
CONTINUOUS
370
50
 62
4
100
AcDbLine
 10
66.98215468221287
 20
0.0
 30
0.0
 11
68.0
 21
-1.017845317787128
 31
0.0
  0
LINE
  5
3A9
330
1F
100
AcDbEntity
  8
SK1
  6
CONTINUOUS
370
50
 62
4
100
AcDbLine
 10
67.22964205562816
 20
0.0
 30
0.0
 11
68.0
 21
-0.7703579443718369
 31
0.0
  0
LINE
  5
3AA
330
1F
100
AcDbEntity
  8
SK1
  6
CONTINUOUS
370
50
 62
4
100
AcDbLine
 10
67.47712942904346
 20
0.0
 30
0.0
 11
68.0
 21
-0.5228705709565453
 31
0.0
  0
LINE
  5
3AB
330
1F
100
AcDbEntity
  8
SK1
  6
CONTINUOUS
370
50
 62
4
100
AcDbLine
 10
67.72461680245874
 20
0.0
 30
0.0
 11
68.0
 21
-0.2753831975412537
 31
0.0
  0
LINE
  5
3AC
330
1F
100
AcDbEntity
  8
SK1
  6
CONTINUOUS
370
50
 62
4
100
AcDbLine
 10
67.97210417587404
 20
0.0
 30
0.0
 11
68.0
 21
-0.027895824125963
 31
0.0
  0
LINE
  5
3AD
330
1F
100
AcDbEntity
  8
SK1
  6
CONTINUOUS
370
50
 62
4
100
AcDbLine
 10
68.0
 20
0.219591549289329
 30
0.0
 11
68.21959154928933
 21
0.0
 31
0.0
  0
LINE
  5
3AE
330
1F
100
AcDbEntity
  8
SK1
  6
CONTINUOUS
370
50
 62
4
100
AcDbLine
 10
68.0
 20
0.4670789227046202
 30
0.0
 11
68.46707892270462
 21
0.0
 31
0.0
  0
LINE
  5
3AF
330
1F
100
AcDbEntity
  8
SK1
  6
CONTINUOUS
370
50
 62
4
100
AcDbLine
 10
68.0
 20
0.7145662961199113
 30
0.0
 11
68.71456629611991
 21
0.0
 31
0.0
  0
LINE
  5
3B0
330
1F
100
AcDbEntity
  8
SK1
  6
CONTINUOUS
370
50
 62
4
100
AcDbLine
 10
68.0
 20
0.9620536695352029
 30
0.0
 11
68.96205366953521
 21
0.0
 31
0.0
  0
LINE
  5
3B1
330
1F
100
AcDbEntity
  8
SK1
  6
CONTINUOUS
370
50
 62
4
100
AcDbLine
 10
68.0
 20
1.209541042950494
 30
0.0
 11
69.20954104295049
 21
0.0
 31
0.0
  0
LINE
  5
3B2
330
1F
100
AcDbEntity
  8
SK1
  6
CONTINUOUS
370
50
 62
4
100
AcDbLine
 10
68.0
 20
1.457028416365785
 30
0.0
 11
69.45702841636579
 21
0.0
 31
0.0
  0
LINE
  5
3B3
330
1F
100
AcDbEntity
  8
SK1
  6
CONTINUOUS
370
50
 62
4
100
AcDbLine
 10
68.0
 20
1.704515789781076
 30
0.0
 11
69.70451578978108
 21
0.0
 31
0.0
  0
LINE
  5
3B4
330
1F
100
AcDbEntity
  8
SK1
  6
CONTINUOUS
370
50
 62
4
100
AcDbLine
 10
68.21543384193566
 20
1.736569321260697
 30
0.0
 11
69.7365693212607
 21
0.2154338419356714
 31
0.0
  0
LINE
  5
3B5
330
1F
100
AcDbEntity
  8
SK1
  6
CONTINUOUS
370
50
 62
4
100
AcDbLine
 10
68.53283284728992
 20
1.666657689321729
 30
0.0
 11
69.66665768932172
 21
0.5328328472899322
 31
0.0
  0
LINE
  5
3B6
330
1F
100
AcDbEntity
  8
SK1
  6
CONTINUOUS
370
50
 62
4
100
AcDbLine
 10
69.04009874905674
 20
1.406879160970207
 30
0.0
 11
69.4068791609702
 21
1.040098749056747
 31
0.0
  0
LINE
  5
3B7
330
1F
100
AcDbEntity
  8
4
  6
LONGDASH_DASH
370
25
 62
2
100
AcDbLine
 10
68.0
 20
0.0
 30
0.0
 11
224.0
 21
0.0
 31
0.0
  0
LINE
  5
3B8
330
1F
100
AcDbEntity
  8
SK4
  6
LONGDASH_DASH
370
25
 62
2
100
AcDbLine
 10
-5.0
 20
0.0
 30
0.0
 11
229.0
 21
0.0
 31
0.0
  0
LINE
  5
3B9
330
1F
100
AcDbEntity
  8
CUT
  6
CONTINUOUS
370
25
 62
1
100
AcDbLine
 10
223.9989036278037
 20
0.041868764994355
 30
0.0
 11
223.4389088960042
 21
10.7272047868683
 31
0.0
  0
ARC
  5
3BA
330
1F
100
AcDbEntity
  8
CUT
  6
CONTINUOUS
370
25
 62
1
100
AcDbCircle
 10
222.6400052681059
 20
10.68533602176884
 30
0.0
 40
0.7999999999999844
100
AcDbArc
 50
3.000000007162011
 51
92.99999999284087
  0
LINE
  5
3BB
330
1F
100
AcDbEntity
  8
CUT
  6
CONTINUOUS
370
25
 62
1
100
AcDbLine
 10
222.5981365032061
 20
11.4842396496776
 30
0.0
 11
211.9128004813322
 21
10.9242449178781
 31
0.0
  0
ARC
  5
3BC
330
1F
100
AcDbEntity
  8
CUT
  6
CONTINUOUS
370
25
 62
1
100
AcDbCircle
 10
211.9546692464316
 20
10.12534128997981
 30
0.0
 40
0.7999999999999987
100
AcDbArc
 50
93.00000000716224
 51
182.9999999928381
  0
LINE
  5
3BD
330
1F
100
AcDbEntity
  8
CUT
  6
CONTINUOUS
370
25
 62
1
100
AcDbLine
 10
211.1557656185229
 20
10.08347252508009
 30
0.0
 11
211.7157603503224
 21
-0.6018634967938515
 31
0.0
  0
ARC
  5
3BE
330
1F
100
AcDbEntity
  8
CUT
  6
CONTINUOUS
370
25
 62
1
100
AcDbCircle
 10
212.5146639782207
 20
-0.5599947316943998
 30
0.0
 40
0.7999999999999844
100
AcDbArc
 50
183.000000007162
 51
272.9999999928389
  0
LINE
  5
3BF
330
1F
100
AcDbEntity
  8
CUT
  6
CONTINUOUS
370
25
 62
1
100
AcDbLine
 10
212.5565327431204
 20
-1.358898359603156
 30
0.0
 11
223.2418687649943
 21
-0.7989036278036591
 31
0.0
  0
ARC
  5
3C0
330
1F
100
AcDbEntity
  8
CUT
  6
CONTINUOUS
370
25
 62
1
100
AcDbCircle
 10
223.1999999998949
 20
0.0000000000946295
 30
0.0
 40
0.7999999999999987
100
AcDbArc
 50
273.0000000071602
 51
2.999999992838078
  0
LINE
  5
3C1
330
1F
100
AcDbEntity
  8
CUT
  6
CONTINUOUS
370
25
 62
1
100
AcDbLine
 10
223.9989036278037
 20
-8.056532743120416
 30
0.0
 11
223.4389088960042
 21
-18.74186876499436
 31
0.0
  0
ARC
  5
3C2
330
1F
100
AcDbEntity
  8
CUT
  6
CONTINUOUS
370
25
 62
1
100
AcDbCircle
 10
222.6400052681059
 20
-18.6999999998949
 30
0.0
 40
0.7999999999999846
100
AcDbArc
 50
267.0000000071591
 51
356.9999999928376
  0
LINE
  5
3C3
330
1F
100
AcDbEntity
  8
CUT
  6
CONTINUOUS
370
25
 62
1
100
AcDbLine
 10
222.5981365032061
 20
-19.49890362780366
 30
0.0
 11
211.9128004813322
 21
-18.93890889600416
 31
0.0
  0
ARC
  5
3C4
330
1F
100
AcDbEntity
  8
CUT
  6
CONTINUOUS
370
25
 62
1
100
AcDbCircle
 10
211.9546692464316
 20
-18.14000526810587
 30
0.0
 40
0.8000000000000023
100
AcDbArc
 50
177.0000000071624
 51
266.9999999928378
  0
LINE
  5
3C5
330
1F
100
AcDbEntity
  8
CUT
  6
CONTINUOUS
370
25
 62
1
100
AcDbLine
 10
211.1557656185229
 20
-18.09813650320615
 30
0.0
 11
211.7157603503224
 21
-7.412800481332209
 31
0.0
  0
ARC
  5
3C6
330
1F
100
AcDbEntity
  8
CUT
  6
CONTINUOUS
370
25
 62
1
100
AcDbCircle
 10
212.5146639782207
 20
-7.454669246431661
 30
0.0
 40
0.7999999999999844
100
AcDbArc
 50
87.00000000716118
 51
176.999999992838
  0
LINE
  5
3C7
330
1F
100
AcDbEntity
  8
CUT
  6
CONTINUOUS
370
25
 62
1
100
AcDbLine
 10
212.5565327431204
 20
-6.655765618522905
 30
0.0
 11
223.2418687649943
 21
-7.215760350322402
 31
0.0
  0
ARC
  5
3C8
330
1F
100
AcDbEntity
  8
CUT
  6
CONTINUOUS
370
25
 62
1
100
AcDbCircle
 10
223.1999999998949
 20
-8.01466397822069
 30
0.0
 40
0.799999999999999
100
AcDbArc
 50
357.000000007162
 51
86.99999999283979
  0
ARC
  5
3C9
330
1F
100
AcDbEntity
  8
SK6
  6
CONTINUOUS
370
25
 62
5
100
AcDbCircle
 10
99.7613820083765
 20
-56.21265884338786
 30
0.0
 40
2.76048912849221
100
AcDbArc
 50
338.9379403434233
 51
90.44457437511365
  0
LINE
  5
3CA
330
1F
100
AcDbEntity
  8
SK6
  6
CONTINUOUS
370
25
 62
5
100
AcDbLine
 10
99.73996279695983
 20
-53.45225281421281
 30
0.0
 11
99.73996279695983
 21
-54.55531144613464
 31
0.0
  0
ARC
  5
3CB
330
1F
100
AcDbEntity
  8
SK6
  6
CONTINUOUS
370
25
 62
5
100
AcDbCircle
 10
99.75050902936916
 20
-56.23265233566821
 30
0.0
 40
1.677374043771779
100
AcDbArc
 50
243.4214706017868
 51
90.36024081226083
  0
ARC
  5
3CC
330
1F
100
AcDbEntity
  8
SK6
  6
CONTINUOUS
370
25
 62
5
100
AcDbCircle
 10
102.2727598968496
 20
-55.8012450821556
 30
0.0
 40
3.800217030022762
100
AcDbArc
 50
210.548373128854
 51
236.97801693668
  0
LINE
  5
3CD
330
1F
100
AcDbEntity
  8
SK6
  6
CONTINUOUS
370
25
 62
5
100
AcDbLine
 10
100.2017906851249
 20
-58.98758090867535
 30
0.0
 11
104.3437309674267
 21
-58.98758090867535
 31
0.0
  0
ARC
  5
3CE
330
1F
100
AcDbEntity
  8
SK6
  6
CONTINUOUS
370
25
 62
5
100
AcDbCircle
 10
102.2727618387726
 20
-55.80124518373459
 30
0.0
 40
3.800216899582478
100
AcDbArc
 50
303.0219828477958
 51
326.3732153033476
  0
LINE
  5
3CF
330
1F
100
AcDbEntity
  8
SK6
  6
CONTINUOUS
370
25
 62
5
100
AcDbLine
 10
105.4370597513572
 20
-57.9057325807709
 30
0.0
 11
102.0797617057546
 21
-57.9057325807709
 31
0.0
  0
LINE
  5
3D0
330
1F
100
AcDbEntity
  8
SK6
  6
CONTINUOUS
370
25
 62
5
100
AcDbLine
 10
102.0797617057546
 20
-57.9057325807709
 30
0.0
 11
105.9996210977199
 21
-56.54433138641694
 31
0.0
  0
ARC
  5
3D1
330
1F
100
AcDbEntity
  8
SK6
  6
CONTINUOUS
370
25
 62
5
100
AcDbCircle
 10
102.2727625615721
 20
-55.8012456948594
 30
0.0
 40
3.800217216614723
100
AcDbArc
 50
348.7238644184695
 51
53.46910512608847
  0
LINE
  5
3D2
330
1F
100
AcDbEntity
  8
SK6
  6
CONTINUOUS
370
25
 62
5
100
AcDbLine
 10
104.5348652453854
 20
-52.74763433429968
 30
0.0
 11
102.3374504788274
 21
-57.20472282507058
 31
0.0
  0
ENDSEC
  0
SECTION
  2
OBJECTS
  0
DICTIONARY
  5
C
330
0
100
AcDbDictionary
281
     1
  3
ACAD_GROUP
350
D
  3
ACAD_LAYOUT
350
1A
  3
ACAD_MATERIAL
350
3B
  3
ACAD_MLEADERSTYLE
350
3D5
  3
ACAD_MLINESTYLE
350
17
  3
ACAD_PLOTSETTINGS
350
19
  3
ACAD_PLOTSTYLENAME
350
E
  3
ACAD_SCALELIST
350
A0
  3
ACAD_VISUALSTYLE
350
2A
  3
AcDbVariableDictionary
350
3D3
  0
DICTIONARY
  5
D
102
{ACAD_REACTORS
330
C
102
}
330
C
100
AcDbDictionary
281
     1
  0
DICTIONARY
  5
1A
102
{ACAD_REACTORS
330
C
102
}
330
C
100
AcDbDictionary
281
     1
  3
Layout1
350
1E
  3
Layout2
350
26
  3
Model
350
22
  0
DICTIONARY
  5
3B
102
{ACAD_REACTORS
330
C
102
}
330
C
100
AcDbDictionary
281
     1
  3
ByBlock
350
3D
  3
ByLayer
350
3C
  3
Global
350
3E
  0
DICTIONARY
  5
3D5
102
{ACAD_REACTORS
330
C
102
}
330
C
100
AcDbDictionary
281
     1
  0
DICTIONARY
  5
17
102
{ACAD_REACTORS
330
C
102
}
330
C
100
AcDbDictionary
281
     1
  3
Standard
350
18
  0
DICTIONARY
  5
19
102
{ACAD_REACTORS
330
C
102
}
330
C
100
AcDbDictionary
281
     1
  0
ACDBDICTIONARYWDFLT
  5
E
102
{ACAD_REACTORS
330
C
102
}
330
C
100
AcDbDictionary
281
     1
  3
Normal
350
F
100
AcDbDictionaryWithDefault
340
F
  0
DICTIONARY
  5
A0
102
{ACAD_REACTORS
330
C
102
}
330
C
100
AcDbDictionary
281
     1
  3
A0
350
A1
  3
A1
350
A2
  3
A2
350
A3
  3
A3
350
A4
  3
A4
350
A5
  3
A5
350
A6
  3
A6
350
A7
  3
A7
350
A8
  3
A8
350
A9
  3
A9
350
AA
  3
B0
350
AB
  3
B1
350
AC
  3
B2
350
AD
  3
B3
350
AE
  3
B4
350
AF
  3
B5
350
B0
  3
B6
350
B1
  3
B7
350
B2
  3
B8
350
B3
  3
B9
350
B4
  3
C0
350
B5
  3
C1
350
B6
  3
C2
350
B7
  3
C3
350
B8
  3
C4
350
B9
  3
C5
350
BA
  3
C6
350
BB
  3
C7
350
BC
  3
C8
350
BD
  3
C9
350
BE
  3
D0
350
BF
  3
D1
350
C0
  3
D2
350
C1
  0
DICTIONARY
  5
2A
102
{ACAD_REACTORS
330
C
102
}
330
C
100
AcDbDictionary
281
     1
  3
2dWireframe
350
2F
  3
3D Hidden
350
31
  3
3dWireframe
350
30
  3
Basic
350
32
  3
Brighten
350
36
  3
ColorChange
350
3A
  3
Conceptual
350
34
  3
Dim
350
35
  3
Facepattern
350
39
  3
Flat
350
2B
  3
FlatWithEdges
350
2C
  3
Gouraud
350
2D
  3
GouraudWithEdges
350
2E
  3
Linepattern
350
38
  3
Realistic
350
33
  3
Thicken
350
37
  0
DICTIONARY
  5
3D3
102
{ACAD_REACTORS
330
C
102
}
330
C
100
AcDbDictionary
281
     1
  3
CANNOSCALE
350
3D8
  3
DIMASSOC
350
3D9
  3
HIDETEXT
350
3DA
  3
PSOLHEIGHT
350
3D7
  3
PSOLWIDTH
350
3D6
  0
LAYOUT
  5
1E
102
{ACAD_REACTORS
330
1A
102
}
330
1A
100
AcDbPlotSettings
  1

  2
none_device
  4

  6

 40
0.0
 41
0.0
 42
0.0
 43
0.0
 44
0.0
 45
0.0
 46
0.0
 47
0.0
 48
0.0
 49
0.0
140
0.0
141
0.0
142
1.0
143
1.0
 70
   688
 72
     0
 73
     0
 74
     5
  7

 75
    16
147
1.0
148
0.0
149
0.0
100
AcDbLayout
  1
Layout1
 70
     1
 71
     1
 10
0.0
 20
0.0
 11
420.0
 21
297.0
 12
0.0
 22
0.0
 32
0.0
 14
1.000000000000000E+20
 24
1.000000000000000E+20
 34
1.000000000000000E+20
 15
-1.000000000000000E+20
 25
-1.000000000000000E+20
 35
-1.000000000000000E+20
146
0.0
 13
0.0
 23
0.0
 33
0.0
 16
1.0
 26
0.0
 36
0.0
 17
0.0
 27
1.0
 37
0.0
 76
     0
330
1B
  0
LAYOUT
  5
26
102
{ACAD_REACTORS
330
1A
102
}
330
1A
100
AcDbPlotSettings
  1

  2
none_device
  4

  6

 40
0.0
 41
0.0
 42
0.0
 43
0.0
 44
0.0
 45
0.0
 46
0.0
 47
0.0
 48
0.0
 49
0.0
140
0.0
141
0.0
142
1.0
143
1.0
 70
   688
 72
     0
 73
     0
 74
     5
  7

 75
    16
147
1.0
148
0.0
149
0.0
100
AcDbLayout
  1
Layout2
 70
     1
 71
     2
 10
0.0
 20
0.0
 11
0.0
 21
0.0
 12
0.0
 22
0.0
 32
0.0
 14
0.0
 24
0.0
 34
0.0
 15
0.0
 25
0.0
 35
0.0
146
0.0
 13
0.0
 23
0.0
 33
0.0
 16
1.0
 26
0.0
 36
0.0
 17
0.0
 27
1.0
 37
0.0
 76
     0
330
23
  0
LAYOUT
  5
22
102
{ACAD_REACTORS
330
1A
102
}
330
1A
100
AcDbPlotSettings
  1

  2
none_device
  4

  6

 40
0.0
 41
0.0
 42
0.0
 43
0.0
 44
0.0
 45
0.0
 46
0.0
 47
0.0
 48
0.0
 49
0.0
140
0.0
141
0.0
142
1.0
143
1.0
 70
  1712
 72
     0
 73
     0
 74
     0
  7

 75
     0
147
1.0
148
0.0
149
0.0
100
AcDbLayout
  1
Model
 70
     1
 71
     0
 10
0.0
 20
0.0
 11
420.0
 21
297.0
 12
0.0
 22
0.0
 32
0.0
 14
0.0
 24
0.0
 34
0.0
 15
25.0
 25
35.0
 35
0.0
146
0.0
 13
0.0
 23
0.0
 33
0.0
 16
1.0
 26
0.0
 36
0.0
 17
0.0
 27
1.0
 37
0.0
 76
     0
330
1F
331
29
  0
MATERIAL
  5
3D
102
{ACAD_REACTORS
330
3B
102
}
102
{ACAD_XDICTIONARY
360
3FD
102
}
330
3B
100
AcDbMaterial
  1
ByBlock
  0
MATERIAL
  5
3C
102
{ACAD_REACTORS
330
3B
102
}
102
{ACAD_XDICTIONARY
360
3FB
102
}
330
3B
100
AcDbMaterial
  1
ByLayer
  0
MATERIAL
  5
3E
102
{ACAD_REACTORS
330
3B
102
}
102
{ACAD_XDICTIONARY
360
3FF
102
}
330
3B
100
AcDbMaterial
  1
Global
  0
MLINESTYLE
  5
18
102
{ACAD_REACTORS
330
17
102
}
330
17
100
AcDbMlineStyle
  2
Standard
 70
     0
  3

 62
   256
 51
90.0
 52
90.0
 71
     2
 49
0.5
 62
   256
  6
BYLAYER
 49
-0.5
 62
   256
  6
BYLAYER
  0
ACDBPLACEHOLDER
  5
F
102
{ACAD_REACTORS
330
E
102
}
330
E
  0
SCALE
  5
A1
102
{ACAD_REACTORS
330
A0
102
}
330
A0
100
AcDbScale
 70
     0
300
1:1
140
1.0
141
1.0
290
     1
  0
SCALE
  5
A2
102
{ACAD_REACTORS
330
A0
102
}
330
A0
100
AcDbScale
 70
     0
300
1:2
140
1.0
141
2.0
290
     0
  0
SCALE
  5
A3
102
{ACAD_REACTORS
330
A0
102
}
330
A0
100
AcDbScale
 70
     0
300
1:4
140
1.0
141
4.0
290
     0
  0
SCALE
  5
A4
102
{ACAD_REACTORS
330
A0
102
}
330
A0
100
AcDbScale
 70
     0
300
1:5
140
1.0
141
5.0
290
     0
  0
SCALE
  5
A5
102
{ACAD_REACTORS
330
A0
102
}
330
A0
100
AcDbScale
 70
     0
300
1:8
140
1.0
141
8.0
290
     0
  0
SCALE
  5
A6
102
{ACAD_REACTORS
330
A0
102
}
330
A0
100
AcDbScale
 70
     0
300
1:10
140
1.0
141
10.0
290
     0
  0
SCALE
  5
A7
102
{ACAD_REACTORS
330
A0
102
}
330
A0
100
AcDbScale
 70
     0
300
1:16
140
1.0
141
16.0
290
     0
  0
SCALE
  5
A8
102
{ACAD_REACTORS
330
A0
102
}
330
A0
100
AcDbScale
 70
     0
300
1:20
140
1.0
141
20.0
290
     0
  0
SCALE
  5
A9
102
{ACAD_REACTORS
330
A0
102
}
330
A0
100
AcDbScale
 70
     0
300
1:30
140
1.0
141
30.0
290
     0
  0
SCALE
  5
AA
102
{ACAD_REACTORS
330
A0
102
}
330
A0
100
AcDbScale
 70
     0
300
1:40
140
1.0
141
40.0
290
     0
  0
SCALE
  5
AB
102
{ACAD_REACTORS
330
A0
102
}
330
A0
100
AcDbScale
 70
     0
300
1:50
140
1.0
141
50.0
290
     0
  0
SCALE
  5
AC
102
{ACAD_REACTORS
330
A0
102
}
330
A0
100
AcDbScale
 70
     0
300
1:100
140
1.0
141
100.0
290
     0
  0
SCALE
  5
AD
102
{ACAD_REACTORS
330
A0
102
}
330
A0
100
AcDbScale
 70
     0
300
2:1
140
2.0
141
1.0
290
     0
  0
SCALE
  5
AE
102
{ACAD_REACTORS
330
A0
102
}
330
A0
100
AcDbScale
 70
     0
300
4:1
140
4.0
141
1.0
290
     0
  0
SCALE
  5
AF
102
{ACAD_REACTORS
330
A0
102
}
330
A0
100
AcDbScale
 70
     0
300
8:1
140
8.0
141
1.0
290
     0
  0
SCALE
  5
B0
102
{ACAD_REACTORS
330
A0
102
}
330
A0
100
AcDbScale
 70
     0
300
10:1
140
10.0
141
1.0
290
     0
  0
SCALE
  5
B1
102
{ACAD_REACTORS
330
A0
102
}
330
A0
100
AcDbScale
 70
     0
300
100:1
140
100.0
141
1.0
290
     0
  0
SCALE
  5
B2
102
{ACAD_REACTORS
330
A0
102
}
330
A0
100
AcDbScale
 70
     0
300
1/128" = 1'-0"
140
0.0078125
141
12.0
290
     0
  0
SCALE
  5
B3
102
{ACAD_REACTORS
330
A0
102
}
330
A0
100
AcDbScale
 70
     0
300
1/64" = 1'-0"
140
0.015625
141
12.0
290
     0
  0
SCALE
  5
B4
102
{ACAD_REACTORS
330
A0
102
}
330
A0
100
AcDbScale
 70
     0
300
1/32" = 1'-0"
140
0.03125
141
12.0
290
     0
  0
SCALE
  5
B5
102
{ACAD_REACTORS
330
A0
102
}
330
A0
100
AcDbScale
 70
     0
300
1/16" = 1'-0"
140
0.0625
141
12.0
290
     0
  0
SCALE
  5
B6
102
{ACAD_REACTORS
330
A0
102
}
330
A0
100
AcDbScale
 70
     0
300
3/32" = 1'-0"
140
0.09375
141
12.0
290
     0
  0
SCALE
  5
B7
102
{ACAD_REACTORS
330
A0
102
}
330
A0
100
AcDbScale
 70
     0
300
1/8" = 1'-0"
140
0.125
141
12.0
290
     0
  0
SCALE
  5
B8
102
{ACAD_REACTORS
330
A0
102
}
330
A0
100
AcDbScale
 70
     0
300
3/16" = 1'-0"
140
0.1875
141
12.0
290
     0
  0
SCALE
  5
B9
102
{ACAD_REACTORS
330
A0
102
}
330
A0
100
AcDbScale
 70
     0
300
1/4" = 1'-0"
140
0.25
141
12.0
290
     0
  0
SCALE
  5
BA
102
{ACAD_REACTORS
330
A0
102
}
330
A0
100
AcDbScale
 70
     0
300
3/8" = 1'-0"
140
0.375
141
12.0
290
     0
  0
SCALE
  5
BB
102
{ACAD_REACTORS
330
A0
102
}
330
A0
100
AcDbScale
 70
     0
300
1/2" = 1'-0"
140
0.5
141
12.0
290
     0
  0
SCALE
  5
BC
102
{ACAD_REACTORS
330
A0
102
}
330
A0
100
AcDbScale
 70
     0
300
3/4" = 1'-0"
140
0.75
141
12.0
290
     0
  0
SCALE
  5
BD
102
{ACAD_REACTORS
330
A0
102
}
330
A0
100
AcDbScale
 70
     0
300
1" = 1'-0"
140
1.0
141
12.0
290
     0
  0
SCALE
  5
BE
102
{ACAD_REACTORS
330
A0
102
}
330
A0
100
AcDbScale
 70
     0
300
1-1/2" = 1'-0"
140
1.5
141
12.0
290
     0
  0
SCALE
  5
BF
102
{ACAD_REACTORS
330
A0
102
}
330
A0
100
AcDbScale
 70
     0
300
3" = 1'-0"
140
3.0
141
12.0
290
     0
  0
SCALE
  5
C0
102
{ACAD_REACTORS
330
A0
102
}
330
A0
100
AcDbScale
 70
     0
300
6" = 1'-0"
140
6.0
141
12.0
290
     0
  0
SCALE
  5
C1
102
{ACAD_REACTORS
330
A0
102
}
330
A0
100
AcDbScale
 70
     0
300
1'-0" = 1'-0"
140
12.0
141
12.0
290
     0
  0
VISUALSTYLE
  5
2F
102
{ACAD_REACTORS
330
2A
102
}
102
{ACAD_XDICTIONARY
360
3E3
102
}
330
2A
100
AcDbVisualStyle
  2
2dWireframe
 70
     4
 71
     0
 72
     2
 73
     0
 90
        0
 40
-0.6
 41
-30.0
 62
     5
 63
     7
 74
     1
 91
        4
 64
     7
 65
   257
 75
     1
175
     1
 42
1.0
 92
        0
 66
   257
 43
1.0
 76
     1
 77
     6
 78
     2
 67
     7
 79
     5
170
     0
171
     0
290
     0
174
     0
 93
        1
 44
0.0
173
     0
291
     0
 45
0.0
1001
ACAD
1000
AcDbSavedByObjectVersion
1070
     0
  0
VISUALSTYLE
  5
31
102
{ACAD_REACTORS
330
2A
102
}
102
{ACAD_XDICTIONARY
360
3E7
102
}
330
2A
100
AcDbVisualStyle
  2
3D Hidden
 70
     6
 71
     1
 72
     2
 73
     2
 90
        0
 40
-0.6
 41
-30.0
 62
     5
 63
     7
 74
     2
 91
        2
 64
     7
 65
   257
 75
     2
175
     1
 42
40.0
 92
        0
 66
   257
 43
1.0
 76
     1
 77
     6
 78
     2
 67
     7
 79
     3
170
     0
171
     0
290
     0
174
     0
 93
        1
 44
0.0
173
     0
291
     0
 45
0.0
1001
ACAD
1000
AcDbSavedByObjectVersion
1070
     0
  0
VISUALSTYLE
  5
30
102
{ACAD_REACTORS
330
2A
102
}
102
{ACAD_XDICTIONARY
360
3E5
102
}
330
2A
100
AcDbVisualStyle
  2
3dWireframe
 70
     5
 71
     0
 72
     2
 73
     0
 90
        0
 40
-0.6
 41
-30.0
 62
     5
 63
     7
 74
     1
 91
        4
 64
     7
 65
   257
 75
     1
175
     1
 42
1.0
 92
        0
 66
   257
 43
1.0
 76
     1
 77
     6
 78
     2
 67
     7
 79
     5
170
     0
171
     0
290
     0
174
     0
 93
        1
 44
0.0
173
     0
291
     0
 45
0.0
1001
ACAD
1000
AcDbSavedByObjectVersion
1070
     0
  0
VISUALSTYLE
  5
32
102
{ACAD_REACTORS
330
2A
102
}
102
{ACAD_XDICTIONARY
360
3E9
102
}
330
2A
100
AcDbVisualStyle
  2
Basic
 70
     7
 71
     1
 72
     0
 73
     1
 90
        0
 40
-0.6
 41
-30.0
 62
     5
 63
     7
 74
     0
 91
        4
 64
     7
 65
   257
 75
     1
175
     1
 42
1.0
 92
        8
 66
     7
 43
1.0
 76
     1
 77
     6
 78
     2
 67
     7
 79
     5
170
     0
171
     0
290
     0
174
     0
 93
        1
 44
0.0
173
     0
291
     1
 45
0.0
1001
ACAD
1000
AcDbSavedByObjectVersion
1070
     0
  0
VISUALSTYLE
  5
36
102
{ACAD_REACTORS
330
2A
102
}
102
{ACAD_XDICTIONARY
360
3F1
102
}
330
2A
100
AcDbVisualStyle
  2
Brighten
 70
    12
 71
     2
 72
     2
 73
     0
 90
        0
 40
-0.6
 41
-30.0
 62
     5
 63
     7
 74
     1
 91
        4
 64
     7
 65
   257
 75
     1
175
     1
 42
1.0
 92
        8
 66
     7
 43
1.0
 76
     1
 77
     6
 78
     2
 67
     7
 79
     5
170
     0
171
     0
290
     0
174
     0
 93
        1
 44
50.0
173
     0
291
     1
 45
0.0
1001
ACAD
1000
AcDbSavedByObjectVersion
1070
     0
  0
VISUALSTYLE
  5
3A
102
{ACAD_REACTORS
330
2A
102
}
102
{ACAD_XDICTIONARY
360
3F9
102
}
330
2A
100
AcDbVisualStyle
  2
ColorChange
 70
    16
 71
     2
 72
     2
 73
     3
 90
        0
 40
-0.6
 41
-30.0
 62
     5
 63
     8
 74
     1
 91
        4
 64
     7
 65
   257
 75
     1
175
     1
 42
1.0
 92
        8
 66
     8
 43
1.0
 76
     1
 77
     6
 78
     2
 67
     7
 79
     5
170
     0
171
     0
290
     0
174
     0
 93
        1
 44
0.0
173
     0
291
     1
 45
0.0
1001
ACAD
1000
AcDbSavedByObjectVersion
1070
     0
  0
VISUALSTYLE
  5
34
102
{ACAD_REACTORS
330
2A
102
}
102
{ACAD_XDICTIONARY
360
3ED
102
}
330
2A
100
AcDbVisualStyle
  2
Conceptual
 70
     9
 71
     3
 72
     2
 73
     0
 90
        0
 40
-0.6
 41
-30.0
 62
     5
 63
     7
 74
     2
 91
        2
 64
     7
 65
   257
 75
     1
175
     1
 42
40.0
 92
        8
 66
     7
 43
1.0
 76
     1
 77
     6
 78
     2
 67
     7
 79
     3
170
     0
171
     0
290
     0
174
     0
 93
        1
 44
0.0
173
     0
291
     0
 45
0.0
1001
ACAD
1000
AcDbSavedByObjectVersion
1070
     0
  0
VISUALSTYLE
  5
35
102
{ACAD_REACTORS
330
2A
102
}
102
{ACAD_XDICTIONARY
360
3EF
102
}
330
2A
100
AcDbVisualStyle
  2
Dim
 70
    11
 71
     2
 72
     2
 73
     0
 90
        0
 40
-0.6
 41
-30.0
 62
     5
 63
     7
 74
     1
 91
        4
 64
     7
 65
   257
 75
     1
175
     1
 42
1.0
 92
        8
 66
     7
 43
1.0
 76
     1
 77
     6
 78
     2
 67
     7
 79
     5
170
     0
171
     0
290
     0
174
     0
 93
        1
 44
-50.0
173
     0
291
     1
 45
0.0
1001
ACAD
1000
AcDbSavedByObjectVersion
1070
     0
  0
VISUALSTYLE
  5
39
102
{ACAD_REACTORS
330
2A
102
}
102
{ACAD_XDICTIONARY
360
3F7
102
}
330
2A
100
AcDbVisualStyle
  2
Facepattern
 70
    15
 71
     2
 72
     2
 73
     0
 90
        0
 40
-0.6
 41
-30.0
 62
     5
 63
     7
 74
     1
 91
        4
 64
     7
 65
   257
 75
     1
175
     1
 42
1.0
 92
        8
 66
     7
 43
1.0
 76
     1
 77
     6
 78
     2
 67
     7
 79
     5
170
     0
171
     0
290
     0
174
     0
 93
        1
 44
0.0
173
     0
291
     1
 45
0.0
1001
ACAD
1000
AcDbSavedByObjectVersion
1070
     0
  0
VISUALSTYLE
  5
2B
102
{ACAD_REACTORS
330
2A
102
}
102
{ACAD_XDICTIONARY
360
3DB
102
}
330
2A
100
AcDbVisualStyle
  2
Flat
 70
     0
 71
     2
 72
     1
 73
     1
 90
        2
 40
-0.6
 41
30.0
 62
     5
 63
     7
 74
     0
 91
        4
 64
     7
 65
   257
 75
     1
175
     1
 42
1.0
 92
        8
 66
     7
 43
1.0
 76
     1
 77
     6
 78
     2
 67
     7
 79
     5
170
     0
171
     0
290
     0
174
     0
 93
       13
 44
0.0
173
     0
291
     1
 45
0.0
1001
ACAD
1000
AcDbSavedByObjectVersion
1070
     0
  0
VISUALSTYLE
  5
2C
102
{ACAD_REACTORS
330
2A
102
}
102
{ACAD_XDICTIONARY
360
3DD
102
}
330
2A
100
AcDbVisualStyle
  2
FlatWithEdges
 70
     1
 71
     2
 72
     1
 73
     1
 90
        2
 40
-0.6
 41
30.0
 62
     5
 63
     7
 74
     1
 91
        4
 64
     7
 65
   257
 75
     1
175
     1
 42
1.0
 92
        0
 66
   257
 43
1.0
 76
     1
 77
     6
 78
     2
 67
     7
 79
     5
170
     0
171
     0
290
     0
174
     0
 93
       13
 44
0.0
173
     0
291
     1
 45
0.0
1001
ACAD
1000
AcDbSavedByObjectVersion
1070
     0
  0
VISUALSTYLE
  5
2D
102
{ACAD_REACTORS
330
2A
102
}
102
{ACAD_XDICTIONARY
360
3DF
102
}
330
2A
100
AcDbVisualStyle
  2
Gouraud
 70
     2
 71
     2
 72
     2
 73
     1
 90
        2
 40
-0.6
 41
30.0
 62
     5
 63
     7
 74
     0
 91
        4
 64
     7
 65
   257
 75
     1
175
     1
 42
1.0
 92
        0
 66
     7
 43
1.0
 76
     1
 77
     6
 78
     2
 67
     7
 79
     5
170
     0
171
     0
290
     0
174
     0
 93
       13
 44
0.0
173
     0
291
     1
 45
0.0
1001
ACAD
1000
AcDbSavedByObjectVersion
1070
     0
  0
VISUALSTYLE
  5
2E
102
{ACAD_REACTORS
330
2A
102
}
102
{ACAD_XDICTIONARY
360
3E1
102
}
330
2A
100
AcDbVisualStyle
  2
GouraudWithEdges
 70
     3
 71
     2
 72
     2
 73
     1
 90
        2
 40
-0.6
 41
30.0
 62
     5
 63
     7
 74
     1
 91
        4
 64
     7
 65
   257
 75
     1
175
     1
 42
1.0
 92
        0
 66
   257
 43
1.0
 76
     1
 77
     6
 78
     2
 67
     7
 79
     5
170
     0
171
     0
290
     0
174
     0
 93
       13
 44
0.0
173
     0
291
     1
 45
0.0
1001
ACAD
1000
AcDbSavedByObjectVersion
1070
     0
  0
VISUALSTYLE
  5
38
102
{ACAD_REACTORS
330
2A
102
}
102
{ACAD_XDICTIONARY
360
3F5
102
}
330
2A
100
AcDbVisualStyle
  2
Linepattern
 70
    14
 71
     2
 72
     2
 73
     0
 90
        0
 40
-0.6
 41
-30.0
 62
     5
 63
     7
 74
     1
 91
        4
 64
     7
 65
   257
 75
     7
175
     7
 42
1.0
 92
        8
 66
     7
 43
1.0
 76
     1
 77
     6
 78
     2
 67
     7
 79
     5
170
     0
171
     0
290
     0
174
     0
 93
        1
 44
0.0
173
     0
291
     1
 45
0.0
1001
ACAD
1000
AcDbSavedByObjectVersion
1070
     0
  0
VISUALSTYLE
  5
33
102
{ACAD_REACTORS
330
2A
102
}
102
{ACAD_XDICTIONARY
360
3EB
102
}
330
2A
100
AcDbVisualStyle
  2
Realistic
 70
     8
 71
     2
 72
     2
 73
     0
 90
        0
 40
-0.6
 41
-30.0
 62
     5
 63
     7
 74
     1
 91
        0
 64
     7
 65
   257
 75
     1
175
     1
 42
1.0
 92
        8
 66
     8
 43
1.0
 76
     1
 77
     6
 78
     2
 67
     7
 79
     5
170
     0
171
     0
290
     0
174
     0
 93
       13
 44
0.0
173
     0
291
     0
 45
0.0
1001
ACAD
1000
AcDbSavedByObjectVersion
1070
     0
  0
VISUALSTYLE
  5
37
102
{ACAD_REACTORS
330
2A
102
}
102
{ACAD_XDICTIONARY
360
3F3
102
}
330
2A
100
AcDbVisualStyle
  2
Thicken
 70
    13
 71
     2
 72
     2
 73
     0
 90
        0
 40
-0.6
 41
-30.0
 62
     5
 63
     7
 74
     1
 91
        4
 64
     7
 65
   257
 75
     1
175
     1
 42
1.0
 92
       12
 66
     7
 43
1.0
 76
     1
 77
     6
 78
     2
 67
     7
 79
     5
170
     0
171
     0
290
     0
174
     0
 93
        1
 44
0.0
173
     0
291
     1
 45
0.0
1001
ACAD
1000
AcDbSavedByObjectVersion
1070
     0
  0
DICTIONARYVAR
  5
3D8
102
{ACAD_REACTORS
330
3D3
102
}
330
3D3
100
DictionaryVariables
280
     0
  1
1:1
  0
DICTIONARYVAR
  5
3D9
102
{ACAD_REACTORS
330
3D3
102
}
330
3D3
100
DictionaryVariables
280
     0
  1
2
  0
DICTIONARYVAR
  5
3DA
102
{ACAD_REACTORS
330
3D3
102
}
330
3D3
100
DictionaryVariables
280
     0
  1
1
  0
DICTIONARYVAR
  5
3D7
102
{ACAD_REACTORS
330
3D3
102
}
330
3D3
100
DictionaryVariables
280
     0
  1
80.000000
  0
DICTIONARYVAR
  5
3D6
102
{ACAD_REACTORS
330
3D3
102
}
330
3D3
100
DictionaryVariables
280
     0
  1
5.000000
  0
DICTIONARY
  5
3FD
330
3D
100
AcDbDictionary
280
     1
281
     1
  3
ACAD_XREC_ROUNDTRIP
360
3FE
  0
DICTIONARY
  5
3FB
330
3C
100
AcDbDictionary
280
     1
281
     1
  3
ACAD_XREC_ROUNDTRIP
360
3FC
  0
DICTIONARY
  5
3FF
330
3E
100
AcDbDictionary
280
     1
281
     1
  3
ACAD_XREC_ROUNDTRIP
360
400
  0
DICTIONARY
  5
3E3
330
2F
100
AcDbDictionary
280
     1
281
     1
  3
ACAD_XREC_ROUNDTRIP
360
3E4
  0
DICTIONARY
  5
3E7
330
31
100
AcDbDictionary
280
     1
281
     1
  3
ACAD_XREC_ROUNDTRIP
360
3E8
  0
DICTIONARY
  5
3E5
330
30
100
AcDbDictionary
280
     1
281
     1
  3
ACAD_XREC_ROUNDTRIP
360
3E6
  0
DICTIONARY
  5
3E9
330
32
100
AcDbDictionary
280
     1
281
     1
  3
ACAD_XREC_ROUNDTRIP
360
3EA
  0
DICTIONARY
  5
3F1
330
36
100
AcDbDictionary
280
     1
281
     1
  3
ACAD_XREC_ROUNDTRIP
360
3F2
  0
DICTIONARY
  5
3F9
330
3A
100
AcDbDictionary
280
     1
281
     1
  3
ACAD_XREC_ROUNDTRIP
360
3FA
  0
DICTIONARY
  5
3ED
330
34
100
AcDbDictionary
280
     1
281
     1
  3
ACAD_XREC_ROUNDTRIP
360
3EE
  0
DICTIONARY
  5
3EF
330
35
100
AcDbDictionary
280
     1
281
     1
  3
ACAD_XREC_ROUNDTRIP
360
3F0
  0
DICTIONARY
  5
3F7
330
39
100
AcDbDictionary
280
     1
281
     1
  3
ACAD_XREC_ROUNDTRIP
360
3F8
  0
DICTIONARY
  5
3DB
330
2B
100
AcDbDictionary
280
     1
281
     1
  3
ACAD_XREC_ROUNDTRIP
360
3DC
  0
DICTIONARY
  5
3DD
330
2C
100
AcDbDictionary
280
     1
281
     1
  3
ACAD_XREC_ROUNDTRIP
360
3DE
  0
DICTIONARY
  5
3DF
330
2D
100
AcDbDictionary
280
     1
281
     1
  3
ACAD_XREC_ROUNDTRIP
360
3E0
  0
DICTIONARY
  5
3E1
330
2E
100
AcDbDictionary
280
     1
281
     1
  3
ACAD_XREC_ROUNDTRIP
360
3E2
  0
DICTIONARY
  5
3F5
330
38
100
AcDbDictionary
280
     1
281
     1
  3
ACAD_XREC_ROUNDTRIP
360
3F6
  0
DICTIONARY
  5
3EB
330
33
100
AcDbDictionary
280
     1
281
     1
  3
ACAD_XREC_ROUNDTRIP
360
3EC
  0
DICTIONARY
  5
3F3
330
37
100
AcDbDictionary
280
     1
281
     1
  3
ACAD_XREC_ROUNDTRIP
360
3F4
  0
XRECORD
  5
3FE
102
{ACAD_REACTORS
330
3FD
102
}
330
3FD
100
AcDbXrecord
280
     1
102
MATERIAL
148
0.0
149
0.0
149
0.0
 93
        0
 94
      127
282
     0
 72
     1
 77
     1
171
     1
175
     1
179
     1
273
     0
  0
XRECORD
  5
3FC
102
{ACAD_REACTORS
330
3FB
102
}
330
3FB
100
AcDbXrecord
280
     1
102
MATERIAL
148
0.0
149
0.0
149
0.0
 93
        0
 94
      127
282
     0
 72
     1
 77
     1
171
     1
175
     1
179
     1
273
     0
  0
XRECORD
  5
400
102
{ACAD_REACTORS
330
3FF
102
}
330
3FF
100
AcDbXrecord
280
     1
102
MATERIAL
148
0.0
149
0.0
149
0.0
 93
        0
 94
      127
282
     0
 72
     1
 77
     1
171
     1
175
     1
179
     1
273
     0
  0
XRECORD
  5
3E4
102
{ACAD_REACTORS
330
3E3
102
}
330
3E3
100
AcDbXrecord
280
     1
102
RTVSPropertyOp0
 70
     1
102
RTVSPropertyOp1
 70
     1
102
RTVSPropertyOp2
 70
     1
102
RTVSPropertyOp3
 70
     1
102
RTVSPropertyOp4
 70
     1
102
RTVSPropertyOp5
 70
     1
102
RTVSPropertyOp6
 70
     1
102
RTVSPropertyOp7
 70
     1
102
RTVSPropertyOp8
 70
     1
102
RTVSPropertyOp9
 70
     1
102
RTVSPropertyOp10
 70
     1
102
RTVSPropertyOp11
 70
     1
102
RTVSPropertyOp12
 70
     1
102
RTVSPropertyOp13
 70
     1
102
RTVSPropertyOp14
 70
     1
102
RTVSPropertyOp15
 70
     1
102
RTVSPropertyOp16
 70
     1
102
RTVSPropertyOp17
 70
     1
102
RTVSPropertyOp18
 70
     1
102
RTVSPropertyOp19
 70
     1
102
RTVSPropertyOp20
 70
     1
102
RTVSPropertyOp21
 70
     1
102
RTVSPropertyOp22
 70
     1
102
RTVSPropertyOp23
 70
     1
102
RTVSPropertyOp24
 70
     1
102
RTVSPropertyOp25
 70
     1
102
RTVSPropertyOp26
 70
     1
102
RTVSPropertyOp27
 70
     1
  0
XRECORD
  5
3E8
102
{ACAD_REACTORS
330
3E7
102
}
330
3E7
100
AcDbXrecord
280
     1
102
RTVSPropertyOp0
 70
     1
102
RTVSPropertyOp1
 70
     1
102
RTVSPropertyOp2
 70
     1
102
RTVSPropertyOp3
 70
     1
102
RTVSPropertyOp4
 70
     1
102
RTVSPropertyOp5
 70
     1
102
RTVSPropertyOp6
 70
     1
102
RTVSPropertyOp7
 70
     1
102
RTVSPropertyOp8
 70
     1
102
RTVSPropertyOp9
 70
     1
102
RTVSPropertyOp10
 70
     1
102
RTVSPropertyOp11
 70
     1
102
RTVSPropertyOp12
 70
     1
102
RTVSPropertyOp13
 70
     1
102
RTVSPropertyOp14
 70
     1
102
RTVSPropertyOp15
 70
     1
102
RTVSPropertyOp16
 70
     1
102
RTVSPropertyOp17
 70
     1
102
RTVSPropertyOp18
 70
     1
102
RTVSPropertyOp19
 70
     1
102
RTVSPropertyOp20
 70
     1
102
RTVSPropertyOp21
 70
     1
102
RTVSPropertyOp22
 70
     1
102
RTVSPropertyOp23
 70
     1
102
RTVSPropertyOp24
 70
     1
102
RTVSPropertyOp25
 70
     1
102
RTVSPropertyOp26
 70
     1
102
RTVSPropertyOp27
 70
     1
  0
XRECORD
  5
3E6
102
{ACAD_REACTORS
330
3E5
102
}
330
3E5
100
AcDbXrecord
280
     1
102
RTVSPropertyOp0
 70
     1
102
RTVSPropertyOp1
 70
     1
102
RTVSPropertyOp2
 70
     1
102
RTVSPropertyOp3
 70
     1
102
RTVSPropertyOp4
 70
     1
102
RTVSPropertyOp5
 70
     1
102
RTVSPropertyOp6
 70
     1
102
RTVSPropertyOp7
 70
     1
102
RTVSPropertyOp8
 70
     1
102
RTVSPropertyOp9
 70
     1
102
RTVSPropertyOp10
 70
     1
102
RTVSPropertyOp11
 70
     1
102
RTVSPropertyOp12
 70
     1
102
RTVSPropertyOp13
 70
     1
102
RTVSPropertyOp14
 70
     1
102
RTVSPropertyOp15
 70
     1
102
RTVSPropertyOp16
 70
     1
102
RTVSPropertyOp17
 70
     1
102
RTVSPropertyOp18
 70
     1
102
RTVSPropertyOp19
 70
     1
102
RTVSPropertyOp20
 70
     1
102
RTVSPropertyOp21
 70
     1
102
RTVSPropertyOp22
 70
     1
102
RTVSPropertyOp23
 70
     1
102
RTVSPropertyOp24
 70
     1
102
RTVSPropertyOp25
 70
     1
102
RTVSPropertyOp26
 70
     1
102
RTVSPropertyOp27
 70
     1
  0
XRECORD
  5
3EA
102
{ACAD_REACTORS
330
3E9
102
}
330
3E9
100
AcDbXrecord
280
     1
102
RTVSPropertyOp0
 70
     1
102
RTVSPropertyOp1
 70
     1
102
RTVSPropertyOp2
 70
     1
102
RTVSPropertyOp3
 70
     1
102
RTVSPropertyOp4
 70
     1
102
RTVSPropertyOp5
 70
     1
102
RTVSPropertyOp6
 70
     1
102
RTVSPropertyOp7
 70
     1
102
RTVSPropertyOp8
 70
     1
102
RTVSPropertyOp9
 70
     1
102
RTVSPropertyOp10
 70
     1
102
RTVSPropertyOp11
 70
     1
102
RTVSPropertyOp12
 70
     1
102
RTVSPropertyOp13
 70
     1
102
RTVSPropertyOp14
 70
     1
102
RTVSPropertyOp15
 70
     1
102
RTVSPropertyOp16
 70
     1
102
RTVSPropertyOp17
 70
     1
102
RTVSPropertyOp18
 70
     1
102
RTVSPropertyOp19
 70
     1
102
RTVSPropertyOp20
 70
     1
102
RTVSPropertyOp21
 70
     1
102
RTVSPropertyOp22
 70
     1
102
RTVSPropertyOp23
 70
     1
102
RTVSPropertyOp24
 70
     1
102
RTVSPropertyOp25
 70
     1
102
RTVSPropertyOp26
 70
     1
102
RTVSPropertyOp27
 70
     1
  0
XRECORD
  5
3F2
102
{ACAD_REACTORS
330
3F1
102
}
330
3F1
100
AcDbXrecord
280
     1
102
RTVSPropertyOp0
 70
     1
102
RTVSPropertyOp1
 70
     1
102
RTVSPropertyOp2
 70
     1
102
RTVSPropertyOp3
 70
     1
102
RTVSPropertyOp4
 70
     1
102
RTVSPropertyOp5
 70
     1
102
RTVSPropertyOp6
 70
     1
102
RTVSPropertyOp7
 70
     1
102
RTVSPropertyOp8
 70
     1
102
RTVSPropertyOp9
 70
     1
102
RTVSPropertyOp10
 70
     1
102
RTVSPropertyOp11
 70
     1
102
RTVSPropertyOp12
 70
     1
102
RTVSPropertyOp13
 70
     1
102
RTVSPropertyOp14
 70
     1
102
RTVSPropertyOp15
 70
     1
102
RTVSPropertyOp16
 70
     1
102
RTVSPropertyOp17
 70
     1
102
RTVSPropertyOp18
 70
     1
102
RTVSPropertyOp19
 70
     1
102
RTVSPropertyOp20
 70
     1
102
RTVSPropertyOp21
 70
     1
102
RTVSPropertyOp22
 70
     1
102
RTVSPropertyOp23
 70
     1
102
RTVSPropertyOp24
 70
     1
102
RTVSPropertyOp25
 70
     1
102
RTVSPropertyOp26
 70
     1
102
RTVSPropertyOp27
 70
     1
  0
XRECORD
  5
3FA
102
{ACAD_REACTORS
330
3F9
102
}
330
3F9
100
AcDbXrecord
280
     1
102
RTVSPropertyOp0
 70
     1
102
RTVSPropertyOp1
 70
     1
102
RTVSPropertyOp2
 70
     1
102
RTVSPropertyOp3
 70
     1
102
RTVSPropertyOp4
 70
     1
102
RTVSPropertyOp5
 70
     1
102
RTVSPropertyOp6
 70
     1
102
RTVSPropertyOp7
 70
     1
102
RTVSPropertyOp8
 70
     1
102
RTVSPropertyOp9
 70
     1
102
RTVSPropertyOp10
 70
     1
102
RTVSPropertyOp11
 70
     1
102
RTVSPropertyOp12
 70
     1
102
RTVSPropertyOp13
 70
     1
102
RTVSPropertyOp14
 70
     1
102
RTVSPropertyOp15
 70
     1
102
RTVSPropertyOp16
 70
     1
102
RTVSPropertyOp17
 70
     1
102
RTVSPropertyOp18
 70
     1
102
RTVSPropertyOp19
 70
     1
102
RTVSPropertyOp20
 70
     1
102
RTVSPropertyOp21
 70
     1
102
RTVSPropertyOp22
 70
     1
102
RTVSPropertyOp23
 70
     1
102
RTVSPropertyOp24
 70
     1
102
RTVSPropertyOp25
 70
     1
102
RTVSPropertyOp26
 70
     1
102
RTVSPropertyOp27
 70
     1
  0
XRECORD
  5
3EE
102
{ACAD_REACTORS
330
3ED
102
}
330
3ED
100
AcDbXrecord
280
     1
102
RTVSPropertyOp0
 70
     1
102
RTVSPropertyOp1
 70
     1
102
RTVSPropertyOp2
 70
     1
102
RTVSPropertyOp3
 70
     1
102
RTVSPropertyOp4
 70
     1
102
RTVSPropertyOp5
 70
     1
102
RTVSPropertyOp6
 70
     1
102
RTVSPropertyOp7
 70
     1
102
RTVSPropertyOp8
 70
     1
102
RTVSPropertyOp9
 70
     1
102
RTVSPropertyOp10
 70
     1
102
RTVSPropertyOp11
 70
     1
102
RTVSPropertyOp12
 70
     1
102
RTVSPropertyOp13
 70
     1
102
RTVSPropertyOp14
 70
     1
102
RTVSPropertyOp15
 70
     1
102
RTVSPropertyOp16
 70
     1
102
RTVSPropertyOp17
 70
     1
102
RTVSPropertyOp18
 70
     1
102
RTVSPropertyOp19
 70
     1
102
RTVSPropertyOp20
 70
     1
102
RTVSPropertyOp21
 70
     1
102
RTVSPropertyOp22
 70
     1
102
RTVSPropertyOp23
 70
     1
102
RTVSPropertyOp24
 70
     1
102
RTVSPropertyOp25
 70
     1
102
RTVSPropertyOp26
 70
     1
102
RTVSPropertyOp27
 70
     1
  0
XRECORD
  5
3F0
102
{ACAD_REACTORS
330
3EF
102
}
330
3EF
100
AcDbXrecord
280
     1
102
RTVSPropertyOp0
 70
     1
102
RTVSPropertyOp1
 70
     1
102
RTVSPropertyOp2
 70
     1
102
RTVSPropertyOp3
 70
     1
102
RTVSPropertyOp4
 70
     1
102
RTVSPropertyOp5
 70
     1
102
RTVSPropertyOp6
 70
     1
102
RTVSPropertyOp7
 70
     1
102
RTVSPropertyOp8
 70
     1
102
RTVSPropertyOp9
 70
     1
102
RTVSPropertyOp10
 70
     1
102
RTVSPropertyOp11
 70
     1
102
RTVSPropertyOp12
 70
     1
102
RTVSPropertyOp13
 70
     1
102
RTVSPropertyOp14
 70
     1
102
RTVSPropertyOp15
 70
     1
102
RTVSPropertyOp16
 70
     1
102
RTVSPropertyOp17
 70
     1
102
RTVSPropertyOp18
 70
     1
102
RTVSPropertyOp19
 70
     1
102
RTVSPropertyOp20
 70
     1
102
RTVSPropertyOp21
 70
     1
102
RTVSPropertyOp22
 70
     1
102
RTVSPropertyOp23
 70
     1
102
RTVSPropertyOp24
 70
     1
102
RTVSPropertyOp25
 70
     1
102
RTVSPropertyOp26
 70
     1
102
RTVSPropertyOp27
 70
     1
  0
XRECORD
  5
3F8
102
{ACAD_REACTORS
330
3F7
102
}
330
3F7
100
AcDbXrecord
280
     1
102
RTVSPropertyOp0
 70
     1
102
RTVSPropertyOp1
 70
     1
102
RTVSPropertyOp2
 70
     1
102
RTVSPropertyOp3
 70
     1
102
RTVSPropertyOp4
 70
     1
102
RTVSPropertyOp5
 70
     1
102
RTVSPropertyOp6
 70
     1
102
RTVSPropertyOp7
 70
     1
102
RTVSPropertyOp8
 70
     1
102
RTVSPropertyOp9
 70
     1
102
RTVSPropertyOp10
 70
     1
102
RTVSPropertyOp11
 70
     1
102
RTVSPropertyOp12
 70
     1
102
RTVSPropertyOp13
 70
     1
102
RTVSPropertyOp14
 70
     1
102
RTVSPropertyOp15
 70
     1
102
RTVSPropertyOp16
 70
     1
102
RTVSPropertyOp17
 70
     1
102
RTVSPropertyOp18
 70
     1
102
RTVSPropertyOp19
 70
     1
102
RTVSPropertyOp20
 70
     1
102
RTVSPropertyOp21
 70
     1
102
RTVSPropertyOp22
 70
     1
102
RTVSPropertyOp23
 70
     1
102
RTVSPropertyOp24
 70
     1
102
RTVSPropertyOp25
 70
     1
102
RTVSPropertyOp26
 70
     1
102
RTVSPropertyOp27
 70
     1
  0
XRECORD
  5
3DC
102
{ACAD_REACTORS
330
3DB
102
}
330
3DB
100
AcDbXrecord
280
     1
102
RTVSPropertyOp0
 70
     1
102
RTVSPropertyOp1
 70
     1
102
RTVSPropertyOp2
 70
     1
102
RTVSPropertyOp3
 70
     1
102
RTVSPropertyOp4
 70
     1
102
RTVSPropertyOp5
 70
     1
102
RTVSPropertyOp6
 70
     1
102
RTVSPropertyOp7
 70
     1
102
RTVSPropertyOp8
 70
     1
102
RTVSPropertyOp9
 70
     1
102
RTVSPropertyOp10
 70
     1
102
RTVSPropertyOp11
 70
     1
102
RTVSPropertyOp12
 70
     1
102
RTVSPropertyOp13
 70
     1
102
RTVSPropertyOp14
 70
     1
102
RTVSPropertyOp15
 70
     1
102
RTVSPropertyOp16
 70
     1
102
RTVSPropertyOp17
 70
     1
102
RTVSPropertyOp18
 70
     1
102
RTVSPropertyOp19
 70
     1
102
RTVSPropertyOp20
 70
     1
102
RTVSPropertyOp21
 70
     1
102
RTVSPropertyOp22
 70
     1
102
RTVSPropertyOp23
 70
     1
102
RTVSPropertyOp24
 70
     1
102
RTVSPropertyOp25
 70
     1
102
RTVSPropertyOp26
 70
     1
102
RTVSPropertyOp27
 70
     1
  0
XRECORD
  5
3DE
102
{ACAD_REACTORS
330
3DD
102
}
330
3DD
100
AcDbXrecord
280
     1
102
RTVSPropertyOp0
 70
     1
102
RTVSPropertyOp1
 70
     1
102
RTVSPropertyOp2
 70
     1
102
RTVSPropertyOp3
 70
     1
102
RTVSPropertyOp4
 70
     1
102
RTVSPropertyOp5
 70
     1
102
RTVSPropertyOp6
 70
     1
102
RTVSPropertyOp7
 70
     1
102
RTVSPropertyOp8
 70
     1
102
RTVSPropertyOp9
 70
     1
102
RTVSPropertyOp10
 70
     1
102
RTVSPropertyOp11
 70
     1
102
RTVSPropertyOp12
 70
     1
102
RTVSPropertyOp13
 70
     1
102
RTVSPropertyOp14
 70
     1
102
RTVSPropertyOp15
 70
     1
102
RTVSPropertyOp16
 70
     1
102
RTVSPropertyOp17
 70
     1
102
RTVSPropertyOp18
 70
     1
102
RTVSPropertyOp19
 70
     1
102
RTVSPropertyOp20
 70
     1
102
RTVSPropertyOp21
 70
     1
102
RTVSPropertyOp22
 70
     1
102
RTVSPropertyOp23
 70
     1
102
RTVSPropertyOp24
 70
     1
102
RTVSPropertyOp25
 70
     1
102
RTVSPropertyOp26
 70
     1
102
RTVSPropertyOp27
 70
     1
  0
XRECORD
  5
3E0
102
{ACAD_REACTORS
330
3DF
102
}
330
3DF
100
AcDbXrecord
280
     1
102
RTVSPropertyOp0
 70
     1
102
RTVSPropertyOp1
 70
     1
102
RTVSPropertyOp2
 70
     1
102
RTVSPropertyOp3
 70
     1
102
RTVSPropertyOp4
 70
     1
102
RTVSPropertyOp5
 70
     1
102
RTVSPropertyOp6
 70
     1
102
RTVSPropertyOp7
 70
     1
102
RTVSPropertyOp8
 70
     1
102
RTVSPropertyOp9
 70
     1
102
RTVSPropertyOp10
 70
     1
102
RTVSPropertyOp11
 70
     1
102
RTVSPropertyOp12
 70
     1
102
RTVSPropertyOp13
 70
     1
102
RTVSPropertyOp14
 70
     1
102
RTVSPropertyOp15
 70
     1
102
RTVSPropertyOp16
 70
     1
102
RTVSPropertyOp17
 70
     1
102
RTVSPropertyOp18
 70
     1
102
RTVSPropertyOp19
 70
     1
102
RTVSPropertyOp20
 70
     1
102
RTVSPropertyOp21
 70
     1
102
RTVSPropertyOp22
 70
     1
102
RTVSPropertyOp23
 70
     1
102
RTVSPropertyOp24
 70
     1
102
RTVSPropertyOp25
 70
     1
102
RTVSPropertyOp26
 70
     1
102
RTVSPropertyOp27
 70
     1
  0
XRECORD
  5
3E2
102
{ACAD_REACTORS
330
3E1
102
}
330
3E1
100
AcDbXrecord
280
     1
102
RTVSPropertyOp0
 70
     1
102
RTVSPropertyOp1
 70
     1
102
RTVSPropertyOp2
 70
     1
102
RTVSPropertyOp3
 70
     1
102
RTVSPropertyOp4
 70
     1
102
RTVSPropertyOp5
 70
     1
102
RTVSPropertyOp6
 70
     1
102
RTVSPropertyOp7
 70
     1
102
RTVSPropertyOp8
 70
     1
102
RTVSPropertyOp9
 70
     1
102
RTVSPropertyOp10
 70
     1
102
RTVSPropertyOp11
 70
     1
102
RTVSPropertyOp12
 70
     1
102
RTVSPropertyOp13
 70
     1
102
RTVSPropertyOp14
 70
     1
102
RTVSPropertyOp15
 70
     1
102
RTVSPropertyOp16
 70
     1
102
RTVSPropertyOp17
 70
     1
102
RTVSPropertyOp18
 70
     1
102
RTVSPropertyOp19
 70
     1
102
RTVSPropertyOp20
 70
     1
102
RTVSPropertyOp21
 70
     1
102
RTVSPropertyOp22
 70
     1
102
RTVSPropertyOp23
 70
     1
102
RTVSPropertyOp24
 70
     1
102
RTVSPropertyOp25
 70
     1
102
RTVSPropertyOp26
 70
     1
102
RTVSPropertyOp27
 70
     1
  0
XRECORD
  5
3F6
102
{ACAD_REACTORS
330
3F5
102
}
330
3F5
100
AcDbXrecord
280
     1
102
RTVSPropertyOp0
 70
     1
102
RTVSPropertyOp1
 70
     1
102
RTVSPropertyOp2
 70
     1
102
RTVSPropertyOp3
 70
     1
102
RTVSPropertyOp4
 70
     1
102
RTVSPropertyOp5
 70
     1
102
RTVSPropertyOp6
 70
     1
102
RTVSPropertyOp7
 70
     1
102
RTVSPropertyOp8
 70
     1
102
RTVSPropertyOp9
 70
     1
102
RTVSPropertyOp10
 70
     1
102
RTVSPropertyOp11
 70
     1
102
RTVSPropertyOp12
 70
     1
102
RTVSPropertyOp13
 70
     1
102
RTVSPropertyOp14
 70
     1
102
RTVSPropertyOp15
 70
     1
102
RTVSPropertyOp16
 70
     1
102
RTVSPropertyOp17
 70
     1
102
RTVSPropertyOp18
 70
     1
102
RTVSPropertyOp19
 70
     1
102
RTVSPropertyOp20
 70
     1
102
RTVSPropertyOp21
 70
     1
102
RTVSPropertyOp22
 70
     1
102
RTVSPropertyOp23
 70
     1
102
RTVSPropertyOp24
 70
     1
102
RTVSPropertyOp25
 70
     1
102
RTVSPropertyOp26
 70
     1
102
RTVSPropertyOp27
 70
     1
  0
XRECORD
  5
3EC
102
{ACAD_REACTORS
330
3EB
102
}
330
3EB
100
AcDbXrecord
280
     1
102
RTVSPropertyOp0
 70
     1
102
RTVSPropertyOp1
 70
     1
102
RTVSPropertyOp2
 70
     1
102
RTVSPropertyOp3
 70
     1
102
RTVSPropertyOp4
 70
     1
102
RTVSPropertyOp5
 70
     1
102
RTVSPropertyOp6
 70
     1
102
RTVSPropertyOp7
 70
     1
102
RTVSPropertyOp8
 70
     1
102
RTVSPropertyOp9
 70
     1
102
RTVSPropertyOp10
 70
     1
102
RTVSPropertyOp11
 70
     1
102
RTVSPropertyOp12
 70
     1
102
RTVSPropertyOp13
 70
     1
102
RTVSPropertyOp14
 70
     1
102
RTVSPropertyOp15
 70
     1
102
RTVSPropertyOp16
 70
     1
102
RTVSPropertyOp17
 70
     1
102
RTVSPropertyOp18
 70
     1
102
RTVSPropertyOp19
 70
     1
102
RTVSPropertyOp20
 70
     1
102
RTVSPropertyOp21
 70
     1
102
RTVSPropertyOp22
 70
     1
102
RTVSPropertyOp23
 70
     1
102
RTVSPropertyOp24
 70
     1
102
RTVSPropertyOp25
 70
     1
102
RTVSPropertyOp26
 70
     1
102
RTVSPropertyOp27
 70
     1
  0
XRECORD
  5
3F4
102
{ACAD_REACTORS
330
3F3
102
}
330
3F3
100
AcDbXrecord
280
     1
102
RTVSPropertyOp0
 70
     1
102
RTVSPropertyOp1
 70
     1
102
RTVSPropertyOp2
 70
     1
102
RTVSPropertyOp3
 70
     1
102
RTVSPropertyOp4
 70
     1
102
RTVSPropertyOp5
 70
     1
102
RTVSPropertyOp6
 70
     1
102
RTVSPropertyOp7
 70
     1
102
RTVSPropertyOp8
 70
     1
102
RTVSPropertyOp9
 70
     1
102
RTVSPropertyOp10
 70
     1
102
RTVSPropertyOp11
 70
     1
102
RTVSPropertyOp12
 70
     1
102
RTVSPropertyOp13
 70
     1
102
RTVSPropertyOp14
 70
     1
102
RTVSPropertyOp15
 70
     1
102
RTVSPropertyOp16
 70
     1
102
RTVSPropertyOp17
 70
     1
102
RTVSPropertyOp18
 70
     1
102
RTVSPropertyOp19
 70
     1
102
RTVSPropertyOp20
 70
     1
102
RTVSPropertyOp21
 70
     1
102
RTVSPropertyOp22
 70
     1
102
RTVSPropertyOp23
 70
     1
102
RTVSPropertyOp24
 70
     1
102
RTVSPropertyOp25
 70
     1
102
RTVSPropertyOp26
 70
     1
102
RTVSPropertyOp27
 70
     1
  0
ENDSEC
  0
EOF
