  0
SECTION
  2
HEADER
  9
$ACADVER
  1
AC1015
  9
$ACADMAINTVER
 70
     6
  9
$DWGCODEPAGE
  3
ANSI_1252
  9
$INSBASE
 10
0.0
 20
0.0
 30
0.0
  9
$EXTMIN
 10
0.0
 20
0.0
 30
0.0
  9
$EXTMAX
 10
25.0
 20
35.0
 30
0.0
  9
$LIMMIN
 10
0.0
 20
0.0
  9
$LIMMAX
 10
420.0
 20
297.0
  9
$ORTHOMODE
 70
     0
  9
$REGENMODE
 70
     1
  9
$FILLMODE
 70
     1
  9
$QTEXTMODE
 70
     0
  9
$MIRRTEXT
 70
     1
  9
$LTSCALE
 40
6.65
  9
$ATTMODE
 70
     1
  9
$TEXTSIZE
 40
2.5
  9
$TRACEWID
 40
1.0
  9
$TEXTSTYLE
  7
Standard
  9
$CLAYER
  8
0
  9
$CELTYPE
  6
ByLayer
  9
$CECOLOR
 62
   256
  9
$CELTSCALE
 40
1.0
  9
$DISPSILH
 70
     0
  9
$DIMSCALE
 40
1.0
  9
$DIMASZ
 40
2.5
  9
$DIMEXO
 40
0.625
  9
$DIMDLI
 40
3.75
  9
$DIMRND
 40
0.0
  9
$DIMDLE
 40
0.0
  9
$DIMEXE
 40
1.25
  9
$DIMTP
 40
0.0
  9
$DIMTM
 40
0.0
  9
$DIMTXT
 40
2.5
  9
$DIMCEN
 40
2.5
  9
$DIMTSZ
 40
0.0
  9
$DIMTOL
 70
     0
  9
$DIMLIM
 70
     0
  9
$DIMTIH
 70
     0
  9
$DIMTOH
 70
     0
  9
$DIMSE1
 70
     0
  9
$DIMSE2
 70
     0
  9
$DIMTAD
 70
     1
  9
$DIMZIN
 70
     8
  9
$DIMBLK
  1

  9
$DIMASO
 70
     1
  9
$DIMSHO
 70
     1
  9
$DIMPOST
  1

  9
$DIMAPOST
  1

  9
$DIMALT
 70
     0
  9
$DIMALTD
 70
     3
  9
$DIMALTF
 40
0.03937007874016
  9
$DIMLFAC
 40
1.0
  9
$DIMTOFL
 70
     1
  9
$DIMTVP
 40
0.0
  9
$DIMTIX
 70
     0
  9
$DIMSOXD
 70
     0
  9
$DIMSAH
 70
     0
  9
$DIMBLK1
  1

  9
$DIMBLK2
  1

  9
$DIMSTYLE
  2
ISO-25
  9
$DIMCLRD
 70
     0
  9
$DIMCLRE
 70
     0
  9
$DIMCLRT
 70
     0
  9
$DIMTFAC
 40
1.0
  9
$DIMGAP
 40
0.625
  9
$DIMJUST
 70
     0
  9
$DIMSD1
 70
     0
  9
$DIMSD2
 70
     0
  9
$DIMTOLJ
 70
     0
  9
$DIMTZIN
 70
     8
  9
$DIMALTZ
 70
     0
  9
$DIMALTTZ
 70
     0
  9
$DIMUPT
 70
     0
  9
$DIMDEC
 70
     2
  9
$DIMTDEC
 70
     2
  9
$DIMALTU
 70
     2
  9
$DIMALTTD
 70
     3
  9
$DIMTXSTY
  7
Standard
  9
$DIMAUNIT
 70
     0
  9
$DIMADEC
 70
     0
  9
$DIMALTRND
 40
0.0
  9
$DIMAZIN
 70
     0
  9
$DIMDSEP
 70
    44
  9
$DIMATFIT
 70
     3
  9
$DIMFRAC
 70
     0
  9
$DIMLDRBLK
  1

  9
$DIMLUNIT
 70
     2
  9
$DIMLWD
 70
    -2
  9
$DIMLWE
 70
    -2
  9
$DIMTMOVE
 70
     0
  9
$LUNITS
 70
     2
  9
$LUPREC
 70
     4
  9
$SKETCHINC
 40
1.0
  9
$FILLETRAD
 40
10.0
  9
$AUNITS
 70
     0
  9
$AUPREC
 70
     0
  9
$MENU
  1
.
  9
$ELEVATION
 40
0.0
  9
$PELEVATION
 40
0.0
  9
$THICKNESS
 40
0.0
  9
$LIMCHECK
 70
     0
  9
$CHAMFERA
 40
10.0
  9
$CHAMFERB
 40
10.0
  9
$CHAMFERC
 40
20.0
  9
$CHAMFERD
 40
0.0
  9
$SKPOLY
 70
     0
  9
$TDCREATE
 40
2458992.176388889
  9
$TDUCREATE
 40
2458992.093055556
  9
$TDUPDATE
 40
2458992.179861111
  9
$TDUUPDATE
 40
2458992.096527778
  9
$TDINDWG
 40
0.0000000116
  9
$TDUSRTIMER
 40
0.0000000116
  9
$USRTIMER
 70
     1
  9
$ANGBASE
 50
0.0
  9
$ANGDIR
 70
     0
  9
$PDMODE
 70
     0
  9
$PDSIZE
 40
0.0
  9
$PLINEWID
 40
0.0
  9
$SPLFRAME
 70
     0
  9
$SPLINETYPE
 70
     6
  9
$SPLINESEGS
 70
     8
  9
$HANDSEED
  5
90C
  9
$SURFTAB1
 70
     6
  9
$SURFTAB2
 70
     6
  9
$SURFTYPE
 70
     6
  9
$SURFU
 70
     6
  9
$SURFV
 70
     6
  9
$UCSBASE
  2

  9
$UCSNAME
  2

  9
$UCSORG
 10
0.0
 20
0.0
 30
0.0
  9
$UCSXDIR
 10
1.0
 20
0.0
 30
0.0
  9
$UCSYDIR
 10
0.0
 20
1.0
 30
0.0
  9
$UCSORTHOREF
  2

  9
$UCSORTHOVIEW
 70
     0
  9
$UCSORGTOP
 10
0.0
 20
0.0
 30
0.0
  9
$UCSORGBOTTOM
 10
0.0
 20
0.0
 30
0.0
  9
$UCSORGLEFT
 10
0.0
 20
0.0
 30
0.0
  9
$UCSORGRIGHT
 10
0.0
 20
0.0
 30
0.0
  9
$UCSORGFRONT
 10
0.0
 20
0.0
 30
0.0
  9
$UCSORGBACK
 10
0.0
 20
0.0
 30
0.0
  9
$PUCSBASE
  2

  9
$PUCSNAME
  2

  9
$PUCSORG
 10
0.0
 20
0.0
 30
0.0
  9
$PUCSXDIR
 10
1.0
 20
0.0
 30
0.0
  9
$PUCSYDIR
 10
0.0
 20
1.0
 30
0.0
  9
$PUCSORTHOREF
  2

  9
$PUCSORTHOVIEW
 70
     0
  9
$PUCSORGTOP
 10
0.0
 20
0.0
 30
0.0
  9
$PUCSORGBOTTOM
 10
0.0
 20
0.0
 30
0.0
  9
$PUCSORGLEFT
 10
0.0
 20
0.0
 30
0.0
  9
$PUCSORGRIGHT
 10
0.0
 20
0.0
 30
0.0
  9
$PUCSORGFRONT
 10
0.0
 20
0.0
 30
0.0
  9
$PUCSORGBACK
 10
0.0
 20
0.0
 30
0.0
  9
$USERI1
 70
     0
  9
$USERI2
 70
     0
  9
$USERI3
 70
     0
  9
$USERI4
 70
     0
  9
$USERI5
 70
     0
  9
$USERR1
 40
0.0
  9
$USERR2
 40
0.0
  9
$USERR3
 40
0.0
  9
$USERR4
 40
0.0
  9
$USERR5
 40
0.0
  9
$WORLDVIEW
 70
     1
  9
$SHADEDGE
 70
     3
  9
$SHADEDIF
 70
    70
  9
$TILEMODE
 70
     1
  9
$MAXACTVP
 70
    64
  9
$PINSBASE
 10
0.0
 20
0.0
 30
0.0
  9
$PLIMCHECK
 70
     0
  9
$PEXTMIN
 10
1.000000000000000E+20
 20
1.000000000000000E+20
 30
1.000000000000000E+20
  9
$PEXTMAX
 10
-1.000000000000000E+20
 20
-1.000000000000000E+20
 30
-1.000000000000000E+20
  9
$PLIMMIN
 10
0.0
 20
0.0
  9
$PLIMMAX
 10
420.0
 20
297.0
  9
$UNITMODE
 70
     0
  9
$VISRETAIN
 70
     1
  9
$PLINEGEN
 70
     0
  9
$PSLTSCALE
 70
     1
  9
$TREEDEPTH
 70
  3020
  9
$CMLSTYLE
  2
Standard
  9
$CMLJUST
 70
     0
  9
$CMLSCALE
 40
20.0
  9
$PROXYGRAPHICS
 70
     1
  9
$MEASUREMENT
 70
     1
  9
$CELWEIGHT
370
    -1
  9
$ENDCAPS
280
     0
  9
$JOINSTYLE
280
     0
  9
$LWDISPLAY
290
     0
  9
$INSUNITS
 70
     4
  9
$HYPERLINKBASE
  1

  9
$STYLESHEET
  1

  9
$XEDIT
290
     1
  9
$CEPSNTYPE
380
     0
  9
$PSTYLEMODE
290
     1
  9
$FINGERPRINTGUID
  2
{49FE3F04-81A3-4998-868F-06B2EBD9FE1D}
  9
$VERSIONGUID
  2
{FAEB1C32-E019-11D5-929B-00C0DF256EC4}
  9
$EXTNAMES
290
     1
  9
$PSVPSCALE
 40
0.0
  9
$OLESTARTUP
290
     0
  0
ENDSEC
  0
SECTION
  2
CLASSES
  0
CLASS
  1
ACDBDICTIONARYWDFLT
  2
AcDbDictionaryWithDefault
  3
ObjectDBX Classes
 90
        0
280
     0
281
     0
  0
CLASS
  1
VISUALSTYLE
  2
AcDbVisualStyle
  3
ObjectDBX Classes
 90
     4095
280
     0
281
     0
  0
CLASS
  1
MATERIAL
  2
AcDbMaterial
  3
ObjectDBX Classes
 90
     1153
280
     0
281
     0
  0
CLASS
  1
SCALE
  2
AcDbScale
  3
ObjectDBX Classes
 90
     1153
280
     0
281
     0
  0
CLASS
  1
DICTIONARYVAR
  2
AcDbDictionaryVar
  3
ObjectDBX Classes
 90
        0
280
     0
281
     0
  0
CLASS
  1
ACDBPLACEHOLDER
  2
AcDbPlaceHolder
  3
ObjectDBX Classes
 90
        0
280
     0
281
     0
  0
CLASS
  1
LAYOUT
  2
AcDbLayout
  3
ObjectDBX Classes
 90
        0
280
     0
281
     0
  0
ENDSEC
  0
SECTION
  2
TABLES
  0
TABLE
  2
VPORT
  5
8
330
0
100
AcDbSymbolTable
 70
     1
  0
VPORT
  5
29
330
8
100
AcDbSymbolTableRecord
100
AcDbViewportTableRecord
  2
*Active
 70
     0
 10
0.0
 20
0.0
 11
1.0
 21
1.0
 12
11.26
 22
4.5
 13
0.0
 23
0.0
 14
10.0
 24
10.0
 15
10.0
 25
10.0
 16
0.0
 26
0.0
 36
1.0
 17
0.0
 27
0.0
 37
0.0
 40
9.0
 41
2.503333333333333
 42
50.0
 43
0.0
 44
0.0
 50
0.0
 51
0.0
 71
     0
 72
   100
 73
     1
 74
     3
 75
     0
 76
     0
 77
     0
 78
     0
281
     0
 65
     1
110
0.0
120
0.0
130
0.0
111
1.0
121
0.0
131
0.0
112
0.0
122
1.0
132
0.0
 79
     0
146
0.0
  0
ENDTAB
  0
TABLE
  2
LTYPE
  5
5
330
0
100
AcDbSymbolTable
 70
    10
  0
LTYPE
  5
14
330
5
100
AcDbSymbolTableRecord
100
AcDbLinetypeTableRecord
  2
ByBlock
 70
     0
  3

 72
    65
 73
     0
 40
0.0
  0
LTYPE
  5
15
330
5
100
AcDbSymbolTableRecord
100
AcDbLinetypeTableRecord
  2
ByLayer
 70
     0
  3

 72
    65
 73
     0
 40
0.0
  0
LTYPE
  5
16
330
5
100
AcDbSymbolTableRecord
100
AcDbLinetypeTableRecord
  2
Continuous
 70
     0
  3
Solid line
 72
    65
 73
     0
 40
0.0
  0
LTYPE
  5
45
330
5
100
AcDbSymbolTableRecord
100
AcDbLinetypeTableRecord
  2
phl_thick
 70
     0
  3
THICK
 72
    65
 73
     0
 40
0.0
  0
LTYPE
  5
1A8
330
5
100
AcDbSymbolTableRecord
100
AcDbLinetypeTableRecord
  2
NOCUT
 70
     0
  3
THICK
 72
    65
 73
     0
 40
0.0
  0
LTYPE
  5
1B6
330
5
100
AcDbSymbolTableRecord
100
AcDbLinetypeTableRecord
  2
DASH
 70
     0
  3
THIN_DASHED
 72
    65
 73
     2
 40
0.75
 49
0.4
 74
     0
 49
-0.35
 74
     0
  0
LTYPE
  5
1D2
330
5
100
AcDbSymbolTableRecord
100
AcDbLinetypeTableRecord
  2
SK1
 70
     0
  3
THICK
 72
    65
 73
     0
 40
0.0
  0
LTYPE
  5
1DA
330
5
100
AcDbSymbolTableRecord
100
AcDbLinetypeTableRecord
  2
ls_2
 70
     0
  3
THIN
 72
    65
 73
     0
 40
0.0
  0
LTYPE
  5
286
330
5
100
AcDbSymbolTableRecord
100
AcDbLinetypeTableRecord
  2
ls_SK2
 70
     0
  3
THIN
 72
    65
 73
     0
 40
0.0
  0
LTYPE
  5
2C9
330
5
100
AcDbSymbolTableRecord
100
AcDbLinetypeTableRecord
  2
DASH
 70
     0
  3
THIN_DASHED
 72
    65
 73
     2
 40
0.75
 49
0.4
 74
     0
 49
-0.35
 74
     0
  0
LTYPE
  5
436
330
5
100
AcDbSymbolTableRecord
100
AcDbLinetypeTableRecord
  2
LONGDASH_DASH
 70
     0
  3
THIN_DASHDOT
 72
    65
 73
     4
 40
0.85
 49
0.4
 74
     0
 49
-0.2
 74
     0
 49
0.05
 74
     0
 49
-0.2
 74
     0
  0
LTYPE
  5
43A
330
5
100
AcDbSymbolTableRecord
100
AcDbLinetypeTableRecord
  2
ls_SK1
 70
     0
  3
THICK
 72
    65
 73
     0
 40
0.0
  0
ENDTAB
  0
TABLE
  2
LAYER
  5
2
330
0
100
AcDbSymbolTable
 70
     9
  0
LAYER
  5
10
330
2
100
AcDbSymbolTableRecord
100
AcDbLayerTableRecord
  2
0
 70
     0
 62
     7
  6
Continuous
370
    -3
390
F
  0
LAYER
  5
44
330
2
100
AcDbSymbolTableRecord
100
AcDbLayerTableRecord
  2
1
 70
     0
 62
4
  6
CONTINUOUS
370
50
370
    -3
390
F
  0
LAYER
  5
1A7
330
2
100
AcDbSymbolTableRecord
100
AcDbLayerTableRecord
  2
NOCUT
 70
     0
 62
7
  6
CONTINUOUS
370
25
370
    -3
390
F
  0
LAYER
  5
1B5
330
2
100
AcDbSymbolTableRecord
100
AcDbLayerTableRecord
  2
SK3
 70
     0
 62
1
  6
DASH
370
35
370
    -3
390
F
  0
LAYER
  5
1D1
330
2
100
AcDbSymbolTableRecord
100
AcDbLayerTableRecord
  2
SK1
 70
     0
 62
4
  6
CONTINUOUS
370
50
370
    -3
390
F
  0
LAYER
  5
1D9
330
2
100
AcDbSymbolTableRecord
100
AcDbLayerTableRecord
  2
2
 70
     0
 62
7
  6
CONTINUOUS
370
25
370
    -3
390
F
  0
LAYER
  5
285
330
2
100
AcDbSymbolTableRecord
100
AcDbLayerTableRecord
  2
SK2
 70
     0
 62
7
  6
CONTINUOUS
370
25
370
    -3
390
F
  0
LAYER
  5
435
330
2
100
AcDbSymbolTableRecord
100
AcDbLayerTableRecord
  2
4
 70
     0
 62
2
  6
LONGDASH_DASH
370
25
370
    -3
390
F
  0
LAYER
  5
438
330
2
100
AcDbSymbolTableRecord
100
AcDbLayerTableRecord
  2
SK4
 70
     0
 62
2
  6
LONGDASH_DASH
370
25
370
    -3
390
F
  0
ENDTAB
  0
TABLE
  2
STYLE
  5
3
330
0
100
AcDbSymbolTable
 70
     1
  0
STYLE
  5
11
330
3
100
AcDbSymbolTableRecord
100
AcDbTextStyleTableRecord
  2
Standard
 70
     0
 40
0.0
 41
1.0
 50
0.0
 71
     0
 42
2.5
  3
Monospac821 BT
  4

  0
ENDTAB
  0
TABLE
  2
VIEW
  5
6
330
0
100
AcDbSymbolTable
 70
     0
  0
ENDTAB
  0
TABLE
  2
UCS
  5
7
330
0
100
AcDbSymbolTable
 70
     0
  0
ENDTAB
  0
TABLE
  2
APPID
  5
9
330
0
100
AcDbSymbolTable
 70
     2
  0
APPID
  5
12
330
9
100
AcDbSymbolTableRecord
100
AcDbRegAppTableRecord
  2
ACAD
 70
     0
  0
APPID
  5
3F
330
9
100
AcDbSymbolTableRecord
100
AcDbRegAppTableRecord
  2
ccLab
 70
     0
  0
ENDTAB
  0
TABLE
  2
DIMSTYLE
  5
A
330
0
100
AcDbSymbolTable
 70
     1
100
AcDbDimStyleTable
  0
DIMSTYLE
105
27
330
A
100
AcDbSymbolTableRecord
100
AcDbDimStyleTableRecord
  2
ISO-25
 70
     0
 41
2.5
 42
0.625
 43
3.75
 44
1.25
 73
     0
 74
     0
 77
     1
 78
     8
140
2.5
141
2.5
143
0.03937007874016
147
0.625
171
     3
172
     1
271
     2
272
     2
274
     3
278
    44
283
     0
284
     8
340
11
  0
ENDTAB
  0
TABLE
  2
BLOCK_RECORD
  5
1
330
0
100
AcDbSymbolTable
 70
     2
  0
BLOCK_RECORD
  5
1F
330
1
100
AcDbSymbolTableRecord
100
AcDbBlockTableRecord
  2
*Model_Space
340
22
  0
BLOCK_RECORD
  5
1B
330
1
100
AcDbSymbolTableRecord
100
AcDbBlockTableRecord
  2
*Paper_Space
340
1E
  0
BLOCK_RECORD
  5
23
330
1
100
AcDbSymbolTableRecord
100
AcDbBlockTableRecord
  2
*Paper_Space0
340
26
  0
ENDTAB
  0
ENDSEC
  0
SECTION
  2
BLOCKS
  0
BLOCK
  5
20
330
1F
100
AcDbEntity
  8
0
100
AcDbBlockBegin
  2
*Model_Space
 70
     0
 10
0.0
 20
0.0
 30
0.0
  3
*Model_Space
  1

  0
ENDBLK
  5
21
330
1F
100
AcDbEntity
  8
0
100
AcDbBlockEnd
  0
BLOCK
  5
1C
330
1B
100
AcDbEntity
 67
     1
  8
0
100
AcDbBlockBegin
  2
*Paper_Space
 70
     0
 10
0.0
 20
0.0
 30
0.0
  3
*Paper_Space
  1

  0
ENDBLK
  5
1D
330
1B
100
AcDbEntity
 67
     1
  8
0
100
AcDbBlockEnd
  0
BLOCK
  5
24
330
23
100
AcDbEntity
  8
0
100
AcDbBlockBegin
  2
*Paper_Space0
 70
     0
 10
0.0
 20
0.0
 30
0.0
  3
*Paper_Space0
  1

  0
ENDBLK
  5
25
330
23
100
AcDbEntity
  8
0
100
AcDbBlockEnd
  0
ENDSEC
  0
SECTION
  2
ENTITIES
  0
LINE
  5
4AA
330
1F
100
AcDbEntity
  8
1
  6
CONTINUOUS
370
50
 62
4
100
AcDbLine
 10
16.125729
 20
27.059746
 30
0.0
 11
16.125
 21
27.093588
 31
0.0
  0
LINE
  5
4AB
330
1F
100
AcDbEntity
  8
1
  6
CONTINUOUS
370
50
 62
4
100
AcDbLine
 10
2.004762
 20
-0.21715
 30
0.0
 11
2.0
 21
0.0
 31
0.0
  0
LINE
  5
4AC
330
1F
100
AcDbEntity
  8
1
  6
CONTINUOUS
370
50
 62
4
100
AcDbLine
 10
12.0
 20
0.0
 30
0.0
 11
11.9948
 21
0.226936
 31
0.0
  0
LINE
  5
4AD
330
1F
100
AcDbEntity
  8
1
  6
CONTINUOUS
370
50
 62
4
100
AcDbLine
 10
19.875
 20
-26.778023
 30
0.0
 11
19.874067
 21
-26.739237
 31
0.0
  0
LINE
  5
4AE
330
1F
100
AcDbEntity
  8
1
  6
CONTINUOUS
370
50
 62
4
100
AcDbLine
 10
19.875
 20
-26.778023
 30
0.0
 11
19.874067
 21
-26.739237
 31
0.0
  0
LINE
  5
4AF
330
1F
100
AcDbEntity
  8
1
  6
CONTINUOUS
370
50
 62
4
100
AcDbLine
 10
16.127953
 20
27.024899
 30
0.0
 11
16.125729
 21
27.059746
 31
0.0
  0
LINE
  5
4B0
330
1F
100
AcDbEntity
  8
1
  6
CONTINUOUS
370
50
 62
4
100
AcDbLine
 10
2.019197
 20
-0.436719
 30
0.0
 11
2.004762
 21
-0.21715
 31
0.0
  0
LINE
  5
4B1
330
1F
100
AcDbEntity
  8
1
  6
CONTINUOUS
370
50
 62
4
100
AcDbLine
 10
11.9948
 20
0.226936
 30
0.0
 11
11.979031
 21
0.456469
 31
0.0
  0
LINE
  5
4B2
330
1F
100
AcDbEntity
  8
1
  6
CONTINUOUS
370
50
 62
4
100
AcDbLine
 10
19.874067
 20
-26.739237
 30
0.0
 11
19.871218
 21
-26.699219
 31
0.0
  0
LINE
  5
4B3
330
1F
100
AcDbEntity
  8
1
  6
CONTINUOUS
370
50
 62
4
100
AcDbLine
 10
19.874067
 20
-26.739237
 30
0.0
 11
19.871218
 21
-26.699219
 31
0.0
  0
LINE
  5
4B4
330
1F
100
AcDbEntity
  8
1
  6
CONTINUOUS
370
50
 62
4
100
AcDbLine
 10
16.131721
 20
26.989439
 30
0.0
 11
16.127953
 21
27.024899
 31
0.0
  0
LINE
  5
4B5
330
1F
100
AcDbEntity
  8
1
  6
CONTINUOUS
370
50
 62
4
100
AcDbLine
 10
2.043527
 20
-0.657812
 30
0.0
 11
2.019197
 21
-0.436719
 31
0.0
  0
LINE
  5
4B6
330
1F
100
AcDbEntity
  8
1
  6
CONTINUOUS
370
50
 62
4
100
AcDbLine
 10
11.979031
 20
0.456469
 30
0.0
 11
11.952438
 21
0.6875789999999999
 31
0.0
  0
LINE
  5
4B7
330
1F
100
AcDbEntity
  8
1
  6
CONTINUOUS
370
50
 62
4
100
AcDbLine
 10
19.871218
 20
-26.699219
 30
0.0
 11
19.866373
 21
-26.658529
 31
0.0
  0
LINE
  5
4B8
330
1F
100
AcDbEntity
  8
1
  6
CONTINUOUS
370
50
 62
4
100
AcDbLine
 10
19.871218
 20
-26.699219
 30
0.0
 11
19.866373
 21
-26.658529
 31
0.0
  0
LINE
  5
4B9
330
1F
100
AcDbEntity
  8
1
  6
CONTINUOUS
370
50
 62
4
100
AcDbLine
 10
16.137089
 20
26.953753
 30
0.0
 11
16.131721
 21
26.989439
 31
0.0
  0
LINE
  5
4BA
330
1F
100
AcDbEntity
  8
1
  6
CONTINUOUS
370
50
 62
4
100
AcDbLine
 10
2.077975
 20
-0.879535
 30
0.0
 11
2.043527
 21
-0.657812
 31
0.0
  0
LINE
  5
4BB
330
1F
100
AcDbEntity
  8
1
  6
CONTINUOUS
370
50
 62
4
100
AcDbLine
 10
11.952438
 20
0.6875789999999999
 30
0.0
 11
11.91477
 21
0.919244
 31
0.0
  0
LINE
  5
4BC
330
1F
100
AcDbEntity
  8
1
  6
CONTINUOUS
370
50
 62
4
100
AcDbLine
 10
19.866373
 20
-26.658529
 30
0.0
 11
19.859459
 21
-26.617735
 31
0.0
  0
LINE
  5
4BD
330
1F
100
AcDbEntity
  8
1
  6
CONTINUOUS
370
50
 62
4
100
AcDbLine
 10
19.866373
 20
-26.658529
 30
0.0
 11
19.859459
 21
-26.617735
 31
0.0
  0
LINE
  5
4BE
330
1F
100
AcDbEntity
  8
1
  6
CONTINUOUS
370
50
 62
4
100
AcDbLine
 10
16.144102
 20
26.918226
 30
0.0
 11
16.137089
 21
26.953753
 31
0.0
  0
LINE
  5
4BF
330
1F
100
AcDbEntity
  8
1
  6
CONTINUOUS
370
50
 62
4
100
AcDbLine
 10
2.122746
 20
-1.100995
 30
0.0
 11
2.077975
 21
-0.879535
 31
0.0
  0
LINE
  5
4C0
330
1F
100
AcDbEntity
  8
1
  6
CONTINUOUS
370
50
 62
4
100
AcDbLine
 10
11.91477
 20
0.919244
 30
0.0
 11
11.865813
 21
1.150453
 31
0.0
  0
LINE
  5
4C1
330
1F
100
AcDbEntity
  8
1
  6
CONTINUOUS
370
50
 62
4
100
AcDbLine
 10
19.859459
 20
-26.617735
 30
0.0
 11
19.850468
 21
-26.577381
 31
0.0
  0
LINE
  5
4C2
330
1F
100
AcDbEntity
  8
1
  6
CONTINUOUS
370
50
 62
4
100
AcDbLine
 10
19.859459
 20
-26.617735
 30
0.0
 11
19.850468
 21
-26.577381
 31
0.0
  0
LINE
  5
4C3
330
1F
100
AcDbEntity
  8
1
  6
CONTINUOUS
370
50
 62
4
100
AcDbLine
 10
16.152678
 20
26.883224
 30
0.0
 11
16.144102
 21
26.918226
 31
0.0
  0
LINE
  5
4C4
330
1F
100
AcDbEntity
  8
1
  6
CONTINUOUS
370
50
 62
4
100
AcDbLine
 10
2.17783
 20
-1.321346
 30
0.0
 11
2.122746
 21
-1.100995
 31
0.0
  0
LINE
  5
4C5
330
1F
100
AcDbEntity
  8
1
  6
CONTINUOUS
370
50
 62
4
100
AcDbLine
 10
11.865813
 20
1.150453
 30
0.0
 11
11.805634
 21
1.38025
 31
0.0
  0
LINE
  5
4C6
330
1F
100
AcDbEntity
  8
1
  6
CONTINUOUS
370
50
 62
4
100
AcDbLine
 10
19.850468
 20
-26.577381
 30
0.0
 11
19.839626
 21
-26.537975
 31
0.0
  0
LINE
  5
4C7
330
1F
100
AcDbEntity
  8
1
  6
CONTINUOUS
370
50
 62
4
100
AcDbLine
 10
19.850468
 20
-26.577381
 30
0.0
 11
19.839626
 21
-26.537975
 31
0.0
  0
LINE
  5
4C8
330
1F
100
AcDbEntity
  8
1
  6
CONTINUOUS
370
50
 62
4
100
AcDbLine
 10
16.162628
 20
26.849085
 30
0.0
 11
16.152678
 21
26.883224
 31
0.0
  0
LINE
  5
4C9
330
1F
100
AcDbEntity
  8
1
  6
CONTINUOUS
370
50
 62
4
100
AcDbLine
 10
2.243073
 20
-1.539769
 30
0.0
 11
2.17783
 21
-1.321346
 31
0.0
  0
LINE
  5
4CA
330
1F
100
AcDbEntity
  8
1
  6
CONTINUOUS
370
50
 62
4
100
AcDbLine
 10
11.805634
 20
1.38025
 30
0.0
 11
11.734411
 21
1.607704
 31
0.0
  0
LINE
  5
4CB
330
1F
100
AcDbEntity
  8
1
  6
CONTINUOUS
370
50
 62
4
100
AcDbLine
 10
19.839626
 20
-26.537975
 30
0.0
 11
19.827227
 21
-26.5
 31
0.0
  0
LINE
  5
4CC
330
1F
100
AcDbEntity
  8
1
  6
CONTINUOUS
370
50
 62
4
100
AcDbLine
 10
19.839626
 20
-26.537975
 30
0.0
 11
19.827227
 21
-26.5
 31
0.0
  0
LINE
  5
4CD
330
1F
100
AcDbEntity
  8
1
  6
CONTINUOUS
370
50
 62
4
100
AcDbLine
 10
16.173765
 20
26.816154
 30
0.0
 11
16.162628
 21
26.849085
 31
0.0
  0
LINE
  5
4CE
330
1F
100
AcDbEntity
  8
1
  6
CONTINUOUS
370
50
 62
4
100
AcDbLine
 10
2.318319
 20
-1.755447
 30
0.0
 11
2.243073
 21
-1.539769
 31
0.0
  0
LINE
  5
4CF
330
1F
100
AcDbEntity
  8
1
  6
CONTINUOUS
370
50
 62
4
100
AcDbLine
 10
11.734411
 20
1.607704
 30
0.0
 11
11.652325
 21
1.831881
 31
0.0
  0
LINE
  5
4D0
330
1F
100
AcDbEntity
  8
1
  6
CONTINUOUS
370
50
 62
4
100
AcDbLine
 10
16.185913
 20
26.784737
 30
0.0
 11
16.173765
 21
26.816154
 31
0.0
  0
LINE
  5
4D1
330
1F
100
AcDbEntity
  8
1
  6
CONTINUOUS
370
50
 62
4
100
AcDbLine
 10
2.40341
 20
-1.967568
 30
0.0
 11
2.318319
 21
-1.755447
 31
0.0
  0
LINE
  5
4D2
330
1F
100
AcDbEntity
  8
1
  6
CONTINUOUS
370
50
 62
4
100
AcDbLine
 10
11.652325
 20
1.831881
 30
0.0
 11
11.559555
 21
2.05189
 31
0.0
  0
LINE
  5
4D3
330
1F
100
AcDbEntity
  8
1
  6
CONTINUOUS
370
50
 62
4
100
AcDbLine
 10
16.199575
 20
26.753538
 30
0.0
 11
16.185913
 21
26.784737
 31
0.0
  0
LINE
  5
4D4
330
1F
100
AcDbEntity
  8
1
  6
CONTINUOUS
370
50
 62
4
100
AcDbLine
 10
2.498133
 20
-2.175466
 30
0.0
 11
2.40341
 21
-1.967568
 31
0.0
  0
LINE
  5
4D5
330
1F
100
AcDbEntity
  8
1
  6
CONTINUOUS
370
50
 62
4
100
AcDbLine
 10
11.559555
 20
2.05189
 30
0.0
 11
11.456445
 21
2.267017
 31
0.0
  0
LINE
  5
4D6
330
1F
100
AcDbEntity
  8
1
  6
CONTINUOUS
370
50
 62
4
100
AcDbLine
 10
16.215015
 20
26.722033
 30
0.0
 11
16.199575
 21
26.753538
 31
0.0
  0
LINE
  5
4D7
330
1F
100
AcDbEntity
  8
1
  6
CONTINUOUS
370
50
 62
4
100
AcDbLine
 10
2.602052
 20
-2.378496
 30
0.0
 11
2.498133
 21
-2.175466
 31
0.0
  0
LINE
  5
4D8
330
1F
100
AcDbEntity
  8
1
  6
CONTINUOUS
370
50
 62
4
100
AcDbLine
 10
11.456445
 20
2.267017
 30
0.0
 11
11.343529
 21
2.476498
 31
0.0
  0
LINE
  5
4D9
330
1F
100
AcDbEntity
  8
1
  6
CONTINUOUS
370
50
 62
4
100
AcDbLine
 10
16.232138
 20
26.69062
 30
0.0
 11
16.215015
 21
26.722033
 31
0.0
  0
LINE
  5
4DA
330
1F
100
AcDbEntity
  8
1
  6
CONTINUOUS
370
50
 62
4
100
AcDbLine
 10
20.081068
 20
-27.835709
 30
0.0
 11
19.875
 21
-27.460354
 31
0.0
  0
LINE
  5
4DB
330
1F
100
AcDbEntity
  8
1
  6
CONTINUOUS
370
50
 62
4
100
AcDbLine
 10
20.081068
 20
-27.835709
 30
0.0
 11
19.875
 21
-27.460354
 31
0.0
  0
LINE
  5
4DC
330
1F
100
AcDbEntity
  8
1
  6
CONTINUOUS
370
50
 62
4
100
AcDbLine
 10
20.289907
 20
-28.215624
 30
0.0
 11
20.081068
 21
-27.835709
 31
0.0
  0
LINE
  5
4DD
330
1F
100
AcDbEntity
  8
1
  6
CONTINUOUS
370
50
 62
4
100
AcDbLine
 10
20.289907
 20
-28.215624
 30
0.0
 11
20.081068
 21
-27.835709
 31
0.0
  0
LINE
  5
4DE
330
1F
100
AcDbEntity
  8
1
  6
CONTINUOUS
370
50
 62
4
100
AcDbLine
 10
20.50157
 20
-28.600193
 30
0.0
 11
20.289907
 21
-28.215624
 31
0.0
  0
LINE
  5
4DF
330
1F
100
AcDbEntity
  8
1
  6
CONTINUOUS
370
50
 62
4
100
AcDbLine
 10
20.50157
 20
-28.600193
 30
0.0
 11
20.289907
 21
-28.215624
 31
0.0
  0
LINE
  5
4E0
330
1F
100
AcDbEntity
  8
1
  6
CONTINUOUS
370
50
 62
4
100
AcDbLine
 10
20.716105
 20
-28.989508
 30
0.0
 11
20.50157
 21
-28.600193
 31
0.0
  0
LINE
  5
4E1
330
1F
100
AcDbEntity
  8
1
  6
CONTINUOUS
370
50
 62
4
100
AcDbLine
 10
20.716105
 20
-28.989508
 30
0.0
 11
20.50157
 21
-28.600193
 31
0.0
  0
LINE
  5
4E2
330
1F
100
AcDbEntity
  8
1
  6
CONTINUOUS
370
50
 62
4
100
AcDbLine
 10
20.933567
 20
-29.383665
 30
0.0
 11
20.716105
 21
-28.989508
 31
0.0
  0
LINE
  5
4E3
330
1F
100
AcDbEntity
  8
1
  6
CONTINUOUS
370
50
 62
4
100
AcDbLine
 10
20.933567
 20
-29.383665
 30
0.0
 11
20.716105
 21
-28.989508
 31
0.0
  0
LINE
  5
4E4
330
1F
100
AcDbEntity
  8
1
  6
CONTINUOUS
370
50
 62
4
100
AcDbLine
 10
21.154015
 20
-29.782768
 30
0.0
 11
20.933567
 21
-29.383665
 31
0.0
  0
LINE
  5
4E5
330
1F
100
AcDbEntity
  8
1
  6
CONTINUOUS
370
50
 62
4
100
AcDbLine
 10
21.154015
 20
-29.782768
 30
0.0
 11
20.933567
 21
-29.383665
 31
0.0
  0
LINE
  5
4E6
330
1F
100
AcDbEntity
  8
1
  6
CONTINUOUS
370
50
 62
4
100
AcDbLine
 10
21.377499
 20
-30.186918
 30
0.0
 11
21.154015
 21
-29.782768
 31
0.0
  0
LINE
  5
4E7
330
1F
100
AcDbEntity
  8
1
  6
CONTINUOUS
370
50
 62
4
100
AcDbLine
 10
21.377499
 20
-30.186918
 30
0.0
 11
21.154015
 21
-29.782768
 31
0.0
  0
LINE
  5
4E8
330
1F
100
AcDbEntity
  8
1
  6
CONTINUOUS
370
50
 62
4
100
AcDbLine
 10
16.125
 20
27.768166
 30
0.0
 11
15.918759
 21
28.139727
 31
0.0
  0
LINE
  5
4E9
330
1F
100
AcDbEntity
  8
1
  6
CONTINUOUS
370
50
 62
4
100
AcDbLine
 10
15.918759
 20
28.139727
 30
0.0
 11
15.709803
 21
28.515804
 31
0.0
  0
LINE
  5
4EA
330
1F
100
AcDbEntity
  8
1
  6
CONTINUOUS
370
50
 62
4
100
AcDbLine
 10
15.709803
 20
28.515804
 30
0.0
 11
15.498082
 21
28.896492
 31
0.0
  0
LINE
  5
4EB
330
1F
100
AcDbEntity
  8
1
  6
CONTINUOUS
370
50
 62
4
100
AcDbLine
 10
15.498082
 20
28.896492
 30
0.0
 11
15.283545
 21
29.281879
 31
0.0
  0
LINE
  5
4EC
330
1F
100
AcDbEntity
  8
1
  6
CONTINUOUS
370
50
 62
4
100
AcDbLine
 10
15.283545
 20
29.281879
 30
0.0
 11
15.066137
 21
29.67206
 31
0.0
  0
LINE
  5
4ED
330
1F
100
AcDbEntity
  8
1
  6
CONTINUOUS
370
50
 62
4
100
AcDbLine
 10
15.066137
 20
29.67206
 30
0.0
 11
14.845808
 21
30.067133
 31
0.0
  0
LINE
  5
4EE
330
1F
100
AcDbEntity
  8
1
  6
CONTINUOUS
370
50
 62
4
100
AcDbLine
 10
14.845808
 20
30.067133
 30
0.0
 11
14.622501
 21
30.467196
 31
0.0
  0
LINE
  5
4EF
330
1F
100
AcDbEntity
  8
1
  6
CONTINUOUS
370
50
 62
4
100
AcDbLine
 10
2.714692
 20
-2.575978
 30
0.0
 11
2.602052
 21
-2.378496
 31
0.0
  0
LINE
  5
4F0
330
1F
100
AcDbEntity
  8
1
  6
CONTINUOUS
370
50
 62
4
100
AcDbLine
 10
11.343529
 20
2.476498
 30
0.0
 11
11.221349
 21
2.679559
 31
0.0
  0
LINE
  5
4F1
330
1F
100
AcDbEntity
  8
1
  6
CONTINUOUS
370
50
 62
4
100
AcDbLine
 10
16.250849
 20
26.659704
 30
0.0
 11
16.232138
 21
26.69062
 31
0.0
  0
LINE
  5
4F2
330
1F
100
AcDbEntity
  8
1
  6
CONTINUOUS
370
50
 62
4
100
AcDbLine
 10
2.835577
 20
-2.767232
 30
0.0
 11
2.714692
 21
-2.575978
 31
0.0
  0
LINE
  5
4F3
330
1F
100
AcDbEntity
  8
1
  6
CONTINUOUS
370
50
 62
4
100
AcDbLine
 10
11.221349
 20
2.679559
 30
0.0
 11
11.090452
 21
2.875426
 31
0.0
  0
LINE
  5
4F4
330
1F
100
AcDbEntity
  8
1
  6
CONTINUOUS
370
50
 62
4
100
AcDbLine
 10
16.271029
 20
26.629665
 30
0.0
 11
16.250849
 21
26.659704
 31
0.0
  0
LINE
  5
4F5
330
1F
100
AcDbEntity
  8
1
  6
CONTINUOUS
370
50
 62
4
100
AcDbLine
 10
2.9642
 20
-2.951603
 30
0.0
 11
2.835577
 21
-2.767232
 31
0.0
  0
LINE
  5
4F6
330
1F
100
AcDbEntity
  8
1
  6
CONTINUOUS
370
50
 62
4
100
AcDbLine
 10
11.090452
 20
2.875426
 30
0.0
 11
10.951539
 21
3.063434
 31
0.0
  0
LINE
  5
4F7
330
1F
100
AcDbEntity
  8
1
  6
CONTINUOUS
370
50
 62
4
100
AcDbLine
 10
16.292427
 20
26.600805
 30
0.0
 11
16.271029
 21
26.629665
 31
0.0
  0
LINE
  5
4F8
330
1F
100
AcDbEntity
  8
1
  6
CONTINUOUS
370
50
 62
4
100
AcDbLine
 10
3.099847
 20
-3.128572
 30
0.0
 11
2.9642
 21
-2.951603
 31
0.0
  0
LINE
  5
4F9
330
1F
100
AcDbEntity
  8
1
  6
CONTINUOUS
370
50
 62
4
100
AcDbLine
 10
16.314724
 20
26.573381
 30
0.0
 11
16.292427
 21
26.600805
 31
0.0
  0
LINE
  5
4FA
330
1F
100
AcDbEntity
  8
1
  6
CONTINUOUS
370
50
 62
4
100
AcDbLine
 10
10.951539
 20
3.063434
 30
0.0
 11
10.8055
 21
3.243044
 31
0.0
  0
LINE
  5
4FB
330
1F
100
AcDbEntity
  8
1
  6
CONTINUOUS
370
50
 62
4
100
AcDbLine
 10
3.241725
 20
-3.297674
 30
0.0
 11
3.099847
 21
-3.128572
 31
0.0
  0
LINE
  5
4FC
330
1F
100
AcDbEntity
  8
1
  6
CONTINUOUS
370
50
 62
4
100
AcDbLine
 10
16.33761
 20
26.547647
 30
0.0
 11
16.314724
 21
26.573381
 31
0.0
  0
LINE
  5
4FD
330
1F
100
AcDbEntity
  8
1
  6
CONTINUOUS
370
50
 62
4
100
AcDbLine
 10
10.8055
 20
3.243044
 30
0.0
 11
10.653239
 21
3.413728
 31
0.0
  0
LINE
  5
4FE
330
1F
100
AcDbEntity
  8
1
  6
CONTINUOUS
370
50
 62
4
100
AcDbLine
 10
3.389044
 20
-3.458446
 30
0.0
 11
3.241725
 21
-3.297674
 31
0.0
  0
LINE
  5
4FF
330
1F
100
AcDbEntity
  8
1
  6
CONTINUOUS
370
50
 62
4
100
AcDbLine
 10
26.0
 20
29.949959
 30
0.0
 11
25.929094
 21
30.023344
 31
0.0
  0
LINE
  5
500
330
1F
100
AcDbEntity
  8
1
  6
CONTINUOUS
370
50
 62
4
100
AcDbLine
 10
25.929094
 20
30.023344
 30
0.0
 11
25.858015
 21
30.096897
 31
0.0
  0
LINE
  5
501
330
1F
100
AcDbEntity
  8
1
  6
CONTINUOUS
370
50
 62
4
100
AcDbLine
 10
25.858015
 20
30.096897
 30
0.0
 11
25.786762
 21
30.170618
 31
0.0
  0
LINE
  5
502
330
1F
100
AcDbEntity
  8
1
  6
CONTINUOUS
370
50
 62
4
100
AcDbLine
 10
25.786762
 20
30.170618
 30
0.0
 11
25.715334
 21
30.244509
 31
0.0
  0
LINE
  5
503
330
1F
100
AcDbEntity
  8
1
  6
CONTINUOUS
370
50
 62
4
100
AcDbLine
 10
25.715334
 20
30.244509
 30
0.0
 11
25.643732
 21
30.318567
 31
0.0
  0
LINE
  5
504
330
1F
100
AcDbEntity
  8
1
  6
CONTINUOUS
370
50
 62
4
100
AcDbLine
 10
25.643732
 20
30.318567
 30
0.0
 11
25.571955
 21
30.392796
 31
0.0
  0
LINE
  5
505
330
1F
100
AcDbEntity
  8
1
  6
CONTINUOUS
370
50
 62
4
100
AcDbLine
 10
25.571955
 20
30.392796
 30
0.0
 11
25.5
 21
30.467196
 31
0.0
  0
LINE
  5
506
330
1F
100
AcDbEntity
  8
1
  6
CONTINUOUS
370
50
 62
4
100
AcDbLine
 10
16.361017
 20
26.523609
 30
0.0
 11
16.33761
 21
26.547647
 31
0.0
  0
LINE
  5
507
330
1F
100
AcDbEntity
  8
1
  6
CONTINUOUS
370
50
 62
4
100
AcDbLine
 10
10.653239
 20
3.413728
 30
0.0
 11
10.495497
 21
3.575116
 31
0.0
  0
LINE
  5
508
330
1F
100
AcDbEntity
  8
1
  6
CONTINUOUS
370
50
 62
4
100
AcDbLine
 10
3.541614
 20
-3.611013
 30
0.0
 11
3.389044
 21
-3.458446
 31
0.0
  0
LINE
  5
509
330
1F
100
AcDbEntity
  8
1
  6
CONTINUOUS
370
50
 62
4
100
AcDbLine
 10
16.386133
 20
26.5
 30
0.0
 11
16.361017
 21
26.523609
 31
0.0
  0
LINE
  5
50A
330
1F
100
AcDbEntity
  8
1
  6
CONTINUOUS
370
50
 62
4
100
AcDbLine
 10
10.495497
 20
3.575116
 30
0.0
 11
10.329473
 21
3.730146
 31
0.0
  0
LINE
  5
50B
330
1F
100
AcDbEntity
  8
1
  6
CONTINUOUS
370
50
 62
4
100
AcDbLine
 10
3.702388
 20
-3.758329
 30
0.0
 11
3.541614
 21
-3.611013
 31
0.0
  0
LINE
  5
50C
330
1F
100
AcDbEntity
  8
1
  6
CONTINUOUS
370
50
 62
4
100
AcDbLine
 10
10.329473
 20
3.730146
 30
0.0
 11
10.154259
 21
3.879405
 31
0.0
  0
LINE
  5
50D
330
1F
100
AcDbEntity
  8
1
  6
CONTINUOUS
370
50
 62
4
100
AcDbLine
 10
3.871491
 20
-3.900203
 30
0.0
 11
3.702388
 21
-3.758329
 31
0.0
  0
LINE
  5
50E
330
1F
100
AcDbEntity
  8
1
  6
CONTINUOUS
370
50
 62
4
100
AcDbLine
 10
10.154259
 20
3.879405
 30
0.0
 11
9.970385
 21
4.021989
 31
0.0
  0
LINE
  5
50F
330
1F
100
AcDbEntity
  8
1
  6
CONTINUOUS
370
50
 62
4
100
AcDbLine
 10
4.048459
 20
-4.035845
 30
0.0
 11
3.871491
 21
-3.900203
 31
0.0
  0
LINE
  5
510
330
1F
100
AcDbEntity
  8
1
  6
CONTINUOUS
370
50
 62
4
100
AcDbLine
 10
9.970385
 20
4.021989
 30
0.0
 11
9.778378
 21
4.156995
 31
0.0
  0
LINE
  5
511
330
1F
100
AcDbEntity
  8
1
  6
CONTINUOUS
370
50
 62
4
100
AcDbLine
 10
4.232826999999999
 20
-4.164461999999999
 30
0.0
 11
4.048459
 21
-4.035845
 31
0.0
  0
LINE
  5
512
330
1F
100
AcDbEntity
  8
1
  6
CONTINUOUS
370
50
 62
4
100
AcDbLine
 10
9.778378
 20
4.156995
 30
0.0
 11
9.578823
 21
4.283596999999999
 31
0.0
  0
LINE
  5
513
330
1F
100
AcDbEntity
  8
1
  6
CONTINUOUS
370
50
 62
4
100
AcDbLine
 10
4.424079
 20
-4.285342
 30
0.0
 11
4.232826999999999
 21
-4.164461999999999
 31
0.0
  0
LINE
  5
514
330
1F
100
AcDbEntity
  8
1
  6
CONTINUOUS
370
50
 62
4
100
AcDbLine
 10
4.621556
 20
-4.397976
 30
0.0
 11
4.424079
 21
-4.285342
 31
0.0
  0
LINE
  5
515
330
1F
100
AcDbEntity
  8
1
  6
CONTINUOUS
370
50
 62
4
100
AcDbLine
 10
9.578823
 20
4.283596999999999
 30
0.0
 11
9.37246
 21
4.401206
 31
0.0
  0
LINE
  5
516
330
1F
100
AcDbEntity
  8
1
  6
CONTINUOUS
370
50
 62
4
100
AcDbLine
 10
4.824580999999999
 20
-4.501888999999999
 30
0.0
 11
4.621556
 21
-4.397976
 31
0.0
  0
LINE
  5
517
330
1F
100
AcDbEntity
  8
1
  6
CONTINUOUS
370
50
 62
4
100
AcDbLine
 10
9.37246
 20
4.401206
 30
0.0
 11
9.160065
 21
4.509281
 31
0.0
  0
LINE
  5
518
330
1F
100
AcDbEntity
  8
1
  6
CONTINUOUS
370
50
 62
4
100
AcDbLine
 10
5.032473
 20
-4.596607
 30
0.0
 11
4.824580999999999
 21
-4.501888999999999
 31
0.0
  0
LINE
  5
519
330
1F
100
AcDbEntity
  8
1
  6
CONTINUOUS
370
50
 62
4
100
AcDbLine
 10
9.160065
 20
4.509281
 30
0.0
 11
8.942411
 21
4.607279999999999
 31
0.0
  0
LINE
  5
51A
330
1F
100
AcDbEntity
  8
1
  6
CONTINUOUS
370
50
 62
4
100
AcDbLine
 10
5.244587
 20
-4.681693999999999
 30
0.0
 11
5.032473
 21
-4.596607
 31
0.0
  0
LINE
  5
51B
330
1F
100
AcDbEntity
  8
1
  6
CONTINUOUS
370
50
 62
4
100
AcDbLine
 10
8.942411
 20
4.607279999999999
 30
0.0
 11
8.720227
 21
4.694726999999999
 31
0.0
  0
LINE
  5
51C
330
1F
100
AcDbEntity
  8
1
  6
CONTINUOUS
370
50
 62
4
100
AcDbLine
 10
5.460258
 20
-4.756936
 30
0.0
 11
5.244587
 21
-4.681693999999999
 31
0.0
  0
LINE
  5
51D
330
1F
100
AcDbEntity
  8
1
  6
CONTINUOUS
370
50
 62
4
100
AcDbLine
 10
8.720227
 20
4.694726999999999
 30
0.0
 11
8.494302
 21
4.7714
 31
0.0
  0
LINE
  5
51E
330
1F
100
AcDbEntity
  8
1
  6
CONTINUOUS
370
50
 62
4
100
AcDbLine
 10
5.678675
 20
-4.822176
 30
0.0
 11
5.460258
 21
-4.756936
 31
0.0
  0
LINE
  5
51F
330
1F
100
AcDbEntity
  8
1
  6
CONTINUOUS
370
50
 62
4
100
AcDbLine
 10
8.494302
 20
4.7714
 30
0.0
 11
8.265566999999999
 21
4.83712
 31
0.0
  0
LINE
  5
520
330
1F
100
AcDbEntity
  8
1
  6
CONTINUOUS
370
50
 62
4
100
AcDbLine
 10
5.009161
 20
31.497662
 30
0.0
 11
4.999999
 21
31.5
 31
0.0
  0
LINE
  5
521
330
1F
100
AcDbEntity
  8
1
  6
CONTINUOUS
370
50
 62
4
100
AcDbLine
 10
5.036947
 20
31.490614
 30
0.0
 11
5.009161
 21
31.497662
 31
0.0
  0
LINE
  5
522
330
1F
100
AcDbEntity
  8
1
  6
CONTINUOUS
370
50
 62
4
100
AcDbLine
 10
5.083804
 20
31.478807
 30
0.0
 11
5.036947
 21
31.490614
 31
0.0
  0
LINE
  5
523
330
1F
100
AcDbEntity
  8
1
  6
CONTINUOUS
370
50
 62
4
100
AcDbLine
 10
5.150174
 20
31.462194
 30
0.0
 11
5.083804
 21
31.478807
 31
0.0
  0
LINE
  5
524
330
1F
100
AcDbEntity
  8
1
  6
CONTINUOUS
370
50
 62
4
100
AcDbLine
 10
5.89902
 20
-4.877257999999999
 30
0.0
 11
5.678675
 21
-4.822176
 31
0.0
  0
LINE
  5
525
330
1F
100
AcDbEntity
  8
1
  6
CONTINUOUS
370
50
 62
4
100
AcDbLine
 10
5.236363
 20
31.44079
 30
0.0
 11
5.150174
 21
31.462194
 31
0.0
  0
LINE
  5
526
330
1F
100
AcDbEntity
  8
1
  6
CONTINUOUS
370
50
 62
4
100
AcDbLine
 10
5.342143
 20
31.414829
 30
0.0
 11
5.236363
 21
31.44079
 31
0.0
  0
LINE
  5
527
330
1F
100
AcDbEntity
  8
1
  6
CONTINUOUS
370
50
 62
4
100
AcDbLine
 10
5.467162999999999
 20
31.384598
 30
0.0
 11
5.342143
 21
31.414829
 31
0.0
  0
LINE
  5
528
330
1F
100
AcDbEntity
  8
1
  6
CONTINUOUS
370
50
 62
4
100
AcDbLine
 10
5.611072999999999
 20
31.350378
 30
0.0
 11
5.467162999999999
 21
31.384598
 31
0.0
  0
LINE
  5
529
330
1F
100
AcDbEntity
  8
1
  6
CONTINUOUS
370
50
 62
4
100
AcDbLine
 10
8.265566999999999
 20
4.83712
 30
0.0
 11
8.034953
 21
4.891708
 31
0.0
  0
LINE
  5
52A
330
1F
100
AcDbEntity
  8
1
  6
CONTINUOUS
370
50
 62
4
100
AcDbLine
 10
5.773474999999999
 20
31.312498
 30
0.0
 11
5.611072999999999
 21
31.350378
 31
0.0
  0
LINE
  5
52B
330
1F
100
AcDbEntity
  8
1
  6
CONTINUOUS
370
50
 62
4
100
AcDbLine
 10
5.953537
 20
31.271431
 30
0.0
 11
5.773474999999999
 21
31.312498
 31
0.0
  0
LINE
  5
52C
330
1F
100
AcDbEntity
  8
1
  6
CONTINUOUS
370
50
 62
4
100
AcDbLine
 10
6.150252
 20
31.227695
 30
0.0
 11
5.953537
 21
31.271431
 31
0.0
  0
LINE
  5
52D
330
1F
100
AcDbEntity
  8
1
  6
CONTINUOUS
370
50
 62
4
100
AcDbLine
 10
6.362616999999999
 20
31.181803
 30
0.0
 11
6.150252
 21
31.227695
 31
0.0
  0
LINE
  5
52E
330
1F
100
AcDbEntity
  8
1
  6
CONTINUOUS
370
50
 62
4
100
AcDbLine
 10
6.589528
 20
31.134304
 30
0.0
 11
6.362616999999999
 21
31.181803
 31
0.0
  0
LINE
  5
52F
330
1F
100
AcDbEntity
  8
1
  6
CONTINUOUS
370
50
 62
4
100
AcDbLine
 10
6.120476
 20
-4.922027
 30
0.0
 11
5.89902
 21
-4.877257999999999
 31
0.0
  0
LINE
  5
530
330
1F
100
AcDbEntity
  8
1
  6
CONTINUOUS
370
50
 62
4
100
AcDbLine
 10
6.829447999999999
 20
31.085804
 30
0.0
 11
6.589528
 21
31.134304
 31
0.0
  0
LINE
  5
531
330
1F
100
AcDbEntity
  8
1
  6
CONTINUOUS
370
50
 62
4
100
AcDbLine
 10
7.080721
 20
31.036892
 30
0.0
 11
6.829447999999999
 21
31.085804
 31
0.0
  0
LINE
  5
532
330
1F
100
AcDbEntity
  8
1
  6
CONTINUOUS
370
50
 62
4
100
AcDbLine
 10
8.034953
 20
4.891708
 30
0.0
 11
7.803396999999999
 21
4.935006
 31
0.0
  0
LINE
  5
533
330
1F
100
AcDbEntity
  8
1
  6
CONTINUOUS
370
50
 62
4
100
AcDbLine
 10
7.341693999999999
 20
30.988165
 30
0.0
 11
7.080721
 21
31.036892
 31
0.0
  0
LINE
  5
534
330
1F
100
AcDbEntity
  8
1
  6
CONTINUOUS
370
50
 62
4
100
AcDbLine
 10
7.615374
 20
30.939365
 30
0.0
 11
7.341693999999999
 21
30.988165
 31
0.0
  0
LINE
  5
535
330
1F
100
AcDbEntity
  8
1
  6
CONTINUOUS
370
50
 62
4
100
AcDbLine
 10
7.905335999999999
 20
30.890224
 30
0.0
 11
7.615374
 21
30.939365
 31
0.0
  0
LINE
  5
536
330
1F
100
AcDbEntity
  8
1
  6
CONTINUOUS
370
50
 62
4
100
AcDbLine
 10
8.210628999999999
 20
30.841341
 30
0.0
 11
7.905335999999999
 21
30.890224
 31
0.0
  0
LINE
  5
537
330
1F
100
AcDbEntity
  8
1
  6
CONTINUOUS
370
50
 62
4
100
AcDbLine
 10
6.342194
 20
-4.956474
 30
0.0
 11
6.120476
 21
-4.922027
 31
0.0
  0
LINE
  5
538
330
1F
100
AcDbEntity
  8
1
  6
CONTINUOUS
370
50
 62
4
100
AcDbLine
 10
8.5303
 20
30.793314
 30
0.0
 11
8.210628999999999
 21
30.841341
 31
0.0
  0
LINE
  5
539
330
1F
100
AcDbEntity
  8
1
  6
CONTINUOUS
370
50
 62
4
100
AcDbLine
 10
8.863321
 20
30.746759
 30
0.0
 11
8.5303
 21
30.793314
 31
0.0
  0
LINE
  5
53A
330
1F
100
AcDbEntity
  8
1
  6
CONTINUOUS
370
50
 62
4
100
AcDbLine
 10
7.803396999999999
 20
4.935006
 30
0.0
 11
7.571885999999999
 21
4.967104
 31
0.0
  0
LINE
  5
53B
330
1F
100
AcDbEntity
  8
1
  6
CONTINUOUS
370
50
 62
4
100
AcDbLine
 10
9.208368
 20
30.702255
 30
0.0
 11
8.863321
 21
30.746759
 31
0.0
  0
LINE
  5
53C
330
1F
100
AcDbEntity
  8
1
  6
CONTINUOUS
370
50
 62
4
100
AcDbLine
 10
9.564043
 20
30.660349
 30
0.0
 11
9.208368
 21
30.702255
 31
0.0
  0
LINE
  5
53D
330
1F
100
AcDbEntity
  8
1
  6
CONTINUOUS
370
50
 62
4
100
AcDbLine
 10
6.563283999999999
 20
-4.980803
 30
0.0
 11
6.342194
 21
-4.956474
 31
0.0
  0
LINE
  5
53E
330
1F
100
AcDbEntity
  8
1
  6
CONTINUOUS
370
50
 62
4
100
AcDbLine
 10
9.928946999999999
 20
30.621582
 30
0.0
 11
9.564043
 21
30.660349
 31
0.0
  0
LINE
  5
53F
330
1F
100
AcDbEntity
  8
1
  6
CONTINUOUS
370
50
 62
4
100
AcDbLine
 10
10.301785
 20
30.586472
 30
0.0
 11
9.928946999999999
 21
30.621582
 31
0.0
  0
LINE
  5
540
330
1F
100
AcDbEntity
  8
1
  6
CONTINUOUS
370
50
 62
4
100
AcDbLine
 10
7.571885999999999
 20
4.967104
 30
0.0
 11
7.34144
 21
4.988252999999999
 31
0.0
  0
LINE
  5
541
330
1F
100
AcDbEntity
  8
1
  6
CONTINUOUS
370
50
 62
4
100
AcDbLine
 10
10.681067
 20
30.555372
 30
0.0
 11
10.301785
 21
30.586472
 31
0.0
  0
LINE
  5
542
330
1F
100
AcDbEntity
  8
1
  6
CONTINUOUS
370
50
 62
4
100
AcDbLine
 10
11.065089
 20
30.528606
 30
0.0
 11
10.681067
 21
30.555372
 31
0.0
  0
LINE
  5
543
330
1F
100
AcDbEntity
  8
1
  6
CONTINUOUS
370
50
 62
4
100
AcDbLine
 10
6.782851
 20
-4.995238
 30
0.0
 11
6.563283999999999
 21
-4.980803
 31
0.0
  0
LINE
  5
544
330
1F
100
AcDbEntity
  8
1
  6
CONTINUOUS
370
50
 62
4
100
AcDbLine
 10
11.452154
 20
30.506489
 30
0.0
 11
11.065089
 21
30.528606
 31
0.0
  0
LINE
  5
545
330
1F
100
AcDbEntity
  8
1
  6
CONTINUOUS
370
50
 62
4
100
AcDbLine
 10
85.0
 20
9.25
 30
0.0
 11
29.006405
 21
12.1845
 31
0.0
  0
LINE
  5
546
330
1F
100
AcDbEntity
  8
1
  6
CONTINUOUS
370
50
 62
4
100
AcDbLine
 10
7.34144
 20
4.988252999999999
 30
0.0
 11
7.11308
 21
4.998705
 31
0.0
  0
LINE
  5
547
330
1F
100
AcDbEntity
  8
1
  6
CONTINUOUS
370
50
 62
4
100
AcDbLine
 10
11.840532
 20
30.489285
 30
0.0
 11
11.452154
 21
30.506489
 31
0.0
  0
LINE
  5
548
330
1F
100
AcDbEntity
  8
1
  6
CONTINUOUS
370
50
 62
4
100
AcDbLine
 10
12.228383
 20
30.47703
 30
0.0
 11
11.840532
 21
30.489285
 31
0.0
  0
LINE
  5
549
330
1F
100
AcDbEntity
  8
1
  6
CONTINUOUS
370
50
 62
4
100
AcDbLine
 10
7.0
 20
-5.0
 30
0.0
 11
6.782851
 21
-4.995238
 31
0.0
  0
LINE
  5
54A
330
1F
100
AcDbEntity
  8
1
  6
CONTINUOUS
370
50
 62
4
100
AcDbLine
 10
12.613831
 20
30.469679
 30
0.0
 11
12.228383
 21
30.47703
 31
0.0
  0
LINE
  5
54B
330
1F
100
AcDbEntity
  8
1
  6
CONTINUOUS
370
50
 62
4
100
AcDbLine
 10
12.995
 20
30.467196
 30
0.0
 11
12.613831
 21
30.469679
 31
0.0
  0
LINE
  5
54C
330
1F
100
AcDbEntity
  8
1
  6
CONTINUOUS
370
50
 62
4
100
AcDbLine
 10
0.0
 20
-31.5
 30
0.0
 11
5.0
 21
-31.5
 31
0.0
  0
LINE
  5
54D
330
1F
100
AcDbEntity
  8
1
  6
CONTINUOUS
370
50
 62
4
100
AcDbLine
 10
21.377499
 20
-30.186918
 30
0.0
 11
25.5
 21
-30.186918
 31
0.0
  0
LINE
  5
54E
330
1F
100
AcDbEntity
  8
1
  6
CONTINUOUS
370
50
 62
4
100
AcDbLine
 10
13.0
 20
-30.186918
 30
0.0
 11
14.622501
 21
-30.186918
 31
0.0
  0
LINE
  5
54F
330
1F
100
AcDbEntity
  8
1
  6
CONTINUOUS
370
50
 62
4
100
AcDbLine
 10
13.0
 20
-30.186918
 30
0.0
 11
14.622501
 21
-30.186918
 31
0.0
  0
LINE
  5
550
330
1F
100
AcDbEntity
  8
1
  6
CONTINUOUS
370
50
 62
4
100
AcDbLine
 10
16.172773
 20
-26.5
 30
0.0
 11
19.827227
 21
-26.5
 31
0.0
  0
LINE
  5
551
330
1F
100
AcDbEntity
  8
1
  6
CONTINUOUS
370
50
 62
4
100
AcDbLine
 10
29.0
 20
-12.1845
 30
0.0
 11
29.006405
 21
-12.1845
 31
0.0
  0
LINE
  5
552
330
1F
100
AcDbEntity
  8
1
  6
CONTINUOUS
370
50
 62
4
100
AcDbLine
 10
6.88692
 20
4.998705
 30
0.0
 11
7.11308
 21
4.998705
 31
0.0
  0
LINE
  5
553
330
1F
100
AcDbEntity
  8
1
  6
CONTINUOUS
370
50
 62
4
100
AcDbLine
 10
29.0
 20
12.1845
 30
0.0
 11
29.006405
 21
12.1845
 31
0.0
  0
LINE
  5
554
330
1F
100
AcDbEntity
  8
1
  6
CONTINUOUS
370
50
 62
4
100
AcDbLine
 10
16.386133
 20
26.5
 30
0.0
 11
19.613867
 21
26.5
 31
0.0
  0
LINE
  5
555
330
1F
100
AcDbEntity
  8
1
  6
CONTINUOUS
370
50
 62
4
100
AcDbLine
 10
21.377499
 20
30.467196
 30
0.0
 11
25.5
 21
30.467196
 31
0.0
  0
LINE
  5
556
330
1F
100
AcDbEntity
  8
1
  6
CONTINUOUS
370
50
 62
4
100
AcDbLine
 10
12.995
 20
30.467196
 30
0.0
 11
14.622501
 21
30.467196
 31
0.0
  0
LINE
  5
557
330
1F
100
AcDbEntity
  8
1
  6
CONTINUOUS
370
50
 62
4
100
AcDbLine
 10
0.0
 20
31.5
 30
0.0
 11
4.999999
 21
31.5
 31
0.0
  0
LINE
  5
558
330
1F
100
AcDbEntity
  8
1
  6
CONTINUOUS
370
50
 62
4
100
AcDbLine
 10
12.650923
 20
-30.189224
 30
0.0
 11
13.0
 21
-30.186918
 31
0.0
  0
LINE
  5
559
330
1F
100
AcDbEntity
  8
1
  6
CONTINUOUS
370
50
 62
4
100
AcDbLine
 10
12.298173
 20
-30.196167
 30
0.0
 11
12.650923
 21
-30.189224
 31
0.0
  0
LINE
  5
55A
330
1F
100
AcDbEntity
  8
1
  6
CONTINUOUS
370
50
 62
4
100
AcDbLine
 10
7.0
 20
-5.0
 30
0.0
 11
7.217149
 21
-4.995238
 31
0.0
  0
LINE
  5
55B
330
1F
100
AcDbEntity
  8
1
  6
CONTINUOUS
370
50
 62
4
100
AcDbLine
 10
11.943189
 20
-30.207785
 30
0.0
 11
12.298173
 21
-30.196167
 31
0.0
  0
LINE
  5
55C
330
1F
100
AcDbEntity
  8
1
  6
CONTINUOUS
370
50
 62
4
100
AcDbLine
 10
6.65856
 20
4.988252999999999
 30
0.0
 11
6.88692
 21
4.998705
 31
0.0
  0
LINE
  5
55D
330
1F
100
AcDbEntity
  8
1
  6
CONTINUOUS
370
50
 62
4
100
AcDbLine
 10
11.587412
 20
-30.224117
 30
0.0
 11
11.943189
 21
-30.207785
 31
0.0
  0
LINE
  5
55E
330
1F
100
AcDbEntity
  8
1
  6
CONTINUOUS
370
50
 62
4
100
AcDbLine
 10
29.006405
 20
-12.1845
 30
0.0
 11
85.0
 21
-9.25
 31
0.0
  0
LINE
  5
55F
330
1F
100
AcDbEntity
  8
1
  6
CONTINUOUS
370
50
 62
4
100
AcDbLine
 10
11.232275
 20
-30.245186
 30
0.0
 11
11.587412
 21
-30.224117
 31
0.0
  0
LINE
  5
560
330
1F
100
AcDbEntity
  8
1
  6
CONTINUOUS
370
50
 62
4
100
AcDbLine
 10
7.217149
 20
-4.995238
 30
0.0
 11
7.436716
 21
-4.980803
 31
0.0
  0
LINE
  5
561
330
1F
100
AcDbEntity
  8
1
  6
CONTINUOUS
370
50
 62
4
100
AcDbLine
 10
10.879133
 20
-30.270842
 30
0.0
 11
11.232275
 21
-30.245186
 31
0.0
  0
LINE
  5
562
330
1F
100
AcDbEntity
  8
1
  6
CONTINUOUS
370
50
 62
4
100
AcDbLine
 10
10.529291
 20
-30.300825
 30
0.0
 11
10.879133
 21
-30.270842
 31
0.0
  0
LINE
  5
563
330
1F
100
AcDbEntity
  8
1
  6
CONTINUOUS
370
50
 62
4
100
AcDbLine
 10
6.428114
 20
4.967104
 30
0.0
 11
6.65856
 21
4.988252999999999
 31
0.0
  0
LINE
  5
564
330
1F
100
AcDbEntity
  8
1
  6
CONTINUOUS
370
50
 62
4
100
AcDbLine
 10
10.184052
 20
-30.334875
 30
0.0
 11
10.529291
 21
-30.300825
 31
0.0
  0
LINE
  5
565
330
1F
100
AcDbEntity
  8
1
  6
CONTINUOUS
370
50
 62
4
100
AcDbLine
 10
7.436716
 20
-4.980803
 30
0.0
 11
7.657806
 21
-4.956474
 31
0.0
  0
LINE
  5
566
330
1F
100
AcDbEntity
  8
1
  6
CONTINUOUS
370
50
 62
4
100
AcDbLine
 10
9.844707
 20
-30.372736
 30
0.0
 11
10.184052
 21
-30.334875
 31
0.0
  0
LINE
  5
567
330
1F
100
AcDbEntity
  8
1
  6
CONTINUOUS
370
50
 62
4
100
AcDbLine
 10
9.512304
 20
-30.414078
 30
0.0
 11
9.844707
 21
-30.372736
 31
0.0
  0
LINE
  5
568
330
1F
100
AcDbEntity
  8
1
  6
CONTINUOUS
370
50
 62
4
100
AcDbLine
 10
9.187852
 20
-30.458466
 30
0.0
 11
9.512304
 21
-30.414078
 31
0.0
  0
LINE
  5
569
330
1F
100
AcDbEntity
  8
1
  6
CONTINUOUS
370
50
 62
4
100
AcDbLine
 10
6.196603
 20
4.935006
 30
0.0
 11
6.428114
 21
4.967104
 31
0.0
  0
LINE
  5
56A
330
1F
100
AcDbEntity
  8
1
  6
CONTINUOUS
370
50
 62
4
100
AcDbLine
 10
8.872415
 20
-30.505447
 30
0.0
 11
9.187852
 21
-30.458466
 31
0.0
  0
LINE
  5
56B
330
1F
100
AcDbEntity
  8
1
  6
CONTINUOUS
370
50
 62
4
100
AcDbLine
 10
7.657806
 20
-4.956474
 30
0.0
 11
7.879524
 21
-4.922027
 31
0.0
  0
LINE
  5
56C
330
1F
100
AcDbEntity
  8
1
  6
CONTINUOUS
370
50
 62
4
100
AcDbLine
 10
8.56706
 20
-30.554573
 30
0.0
 11
8.872415
 21
-30.505447
 31
0.0
  0
LINE
  5
56D
330
1F
100
AcDbEntity
  8
1
  6
CONTINUOUS
370
50
 62
4
100
AcDbLine
 10
8.272813
 20
-30.60537
 30
0.0
 11
8.56706
 21
-30.554573
 31
0.0
  0
LINE
  5
56E
330
1F
100
AcDbEntity
  8
1
  6
CONTINUOUS
370
50
 62
4
100
AcDbLine
 10
7.990479
 20
-30.65732
 30
0.0
 11
8.272813
 21
-30.60537
 31
0.0
  0
LINE
  5
56F
330
1F
100
AcDbEntity
  8
1
  6
CONTINUOUS
370
50
 62
4
100
AcDbLine
 10
5.965046999999999
 20
4.891708
 30
0.0
 11
6.196603
 21
4.935006
 31
0.0
  0
LINE
  5
570
330
1F
100
AcDbEntity
  8
1
  6
CONTINUOUS
370
50
 62
4
100
AcDbLine
 10
7.720784
 20
-30.709917
 30
0.0
 11
7.990479
 21
-30.65732
 31
0.0
  0
LINE
  5
571
330
1F
100
AcDbEntity
  8
1
  6
CONTINUOUS
370
50
 62
4
100
AcDbLine
 10
7.879524
 20
-4.922027
 30
0.0
 11
8.10098
 21
-4.877257999999999
 31
0.0
  0
LINE
  5
572
330
1F
100
AcDbEntity
  8
1
  6
CONTINUOUS
370
50
 62
4
100
AcDbLine
 10
7.464447
 20
-30.762659
 30
0.0
 11
7.720784
 21
-30.709917
 31
0.0
  0
LINE
  5
573
330
1F
100
AcDbEntity
  8
1
  6
CONTINUOUS
370
50
 62
4
100
AcDbLine
 10
7.221215
 20
-30.81526
 30
0.0
 11
7.464447
 21
-30.762659
 31
0.0
  0
LINE
  5
574
330
1F
100
AcDbEntity
  8
1
  6
CONTINUOUS
370
50
 62
4
100
AcDbLine
 10
6.986288
 20
-30.868502
 30
0.0
 11
7.221215
 21
-30.81526
 31
0.0
  0
LINE
  5
575
330
1F
100
AcDbEntity
  8
1
  6
CONTINUOUS
370
50
 62
4
100
AcDbLine
 10
5.734433999999999
 20
4.83712
 30
0.0
 11
5.965046999999999
 21
4.891708
 31
0.0
  0
LINE
  5
576
330
1F
100
AcDbEntity
  8
1
  6
CONTINUOUS
370
50
 62
4
100
AcDbLine
 10
6.759971999999999
 20
-30.922117
 30
0.0
 11
6.986288
 21
-30.868502
 31
0.0
  0
LINE
  5
577
330
1F
100
AcDbEntity
  8
1
  6
CONTINUOUS
370
50
 62
4
100
AcDbLine
 10
6.543524
 20
-30.975624
 30
0.0
 11
6.759971999999999
 21
-30.922117
 31
0.0
  0
LINE
  5
578
330
1F
100
AcDbEntity
  8
1
  6
CONTINUOUS
370
50
 62
4
100
AcDbLine
 10
8.10098
 20
-4.877257999999999
 30
0.0
 11
8.321323999999999
 21
-4.822176
 31
0.0
  0
LINE
  5
579
330
1F
100
AcDbEntity
  8
1
  6
CONTINUOUS
370
50
 62
4
100
AcDbLine
 10
6.338198999999999
 20
-31.028545
 30
0.0
 11
6.543524
 21
-30.975624
 31
0.0
  0
LINE
  5
57A
330
1F
100
AcDbEntity
  8
1
  6
CONTINUOUS
370
50
 62
4
100
AcDbLine
 10
6.145125999999999
 20
-31.080391
 30
0.0
 11
6.338198999999999
 21
-31.028545
 31
0.0
  0
LINE
  5
57B
330
1F
100
AcDbEntity
  8
1
  6
CONTINUOUS
370
50
 62
4
100
AcDbLine
 10
5.965123999999999
 20
-31.130713
 30
0.0
 11
6.145125999999999
 21
-31.080391
 31
0.0
  0
LINE
  5
57C
330
1F
100
AcDbEntity
  8
1
  6
CONTINUOUS
370
50
 62
4
100
AcDbLine
 10
5.505698
 20
4.7714
 30
0.0
 11
5.734433999999999
 21
4.83712
 31
0.0
  0
LINE
  5
57D
330
1F
100
AcDbEntity
  8
1
  6
CONTINUOUS
370
50
 62
4
100
AcDbLine
 10
5.798956
 20
-31.179085
 30
0.0
 11
5.965123999999999
 21
-31.130713
 31
0.0
  0
LINE
  5
57E
330
1F
100
AcDbEntity
  8
1
  6
CONTINUOUS
370
50
 62
4
100
AcDbLine
 10
8.321323999999999
 20
-4.822176
 30
0.0
 11
8.539742
 21
-4.756936
 31
0.0
  0
LINE
  5
57F
330
1F
100
AcDbEntity
  8
1
  6
CONTINUOUS
370
50
 62
4
100
AcDbLine
 10
5.647391
 20
-31.22508
 30
0.0
 11
5.798956
 21
-31.179085
 31
0.0
  0
LINE
  5
580
330
1F
100
AcDbEntity
  8
1
  6
CONTINUOUS
370
50
 62
4
100
AcDbLine
 10
5.511132
 20
-31.268284
 30
0.0
 11
5.647391
 21
-31.22508
 31
0.0
  0
LINE
  5
581
330
1F
100
AcDbEntity
  8
1
  6
CONTINUOUS
370
50
 62
4
100
AcDbLine
 10
5.390542
 20
-31.308392
 30
0.0
 11
5.511132
 21
-31.268284
 31
0.0
  0
LINE
  5
582
330
1F
100
AcDbEntity
  8
1
  6
CONTINUOUS
370
50
 62
4
100
AcDbLine
 10
5.279773
 20
4.694726999999999
 30
0.0
 11
5.505698
 21
4.7714
 31
0.0
  0
LINE
  5
583
330
1F
100
AcDbEntity
  8
1
  6
CONTINUOUS
370
50
 62
4
100
AcDbLine
 10
8.539742
 20
-4.756936
 30
0.0
 11
8.755412999999999
 21
-4.681693999999999
 31
0.0
  0
LINE
  5
584
330
1F
100
AcDbEntity
  8
1
  6
CONTINUOUS
370
50
 62
4
100
AcDbLine
 10
5.285894
 20
-31.345144
 30
0.0
 11
5.390542
 21
-31.308392
 31
0.0
  0
LINE
  5
585
330
1F
100
AcDbEntity
  8
1
  6
CONTINUOUS
370
50
 62
4
100
AcDbLine
 10
5.197464999999999
 20
-31.378283
 30
0.0
 11
5.285894
 21
-31.345144
 31
0.0
  0
LINE
  5
586
330
1F
100
AcDbEntity
  8
1
  6
CONTINUOUS
370
50
 62
4
100
AcDbLine
 10
5.057589
 20
4.607279999999999
 30
0.0
 11
5.279773
 21
4.694726999999999
 31
0.0
  0
LINE
  5
587
330
1F
100
AcDbEntity
  8
1
  6
CONTINUOUS
370
50
 62
4
100
AcDbLine
 10
8.755412999999999
 20
-4.681693999999999
 30
0.0
 11
8.967527
 21
-4.596607
 31
0.0
  0
LINE
  5
588
330
1F
100
AcDbEntity
  8
1
  6
CONTINUOUS
370
50
 62
4
100
AcDbLine
 10
5.125525
 20
-31.407549
 30
0.0
 11
5.197464999999999
 21
-31.378283
 31
0.0
  0
LINE
  5
589
330
1F
100
AcDbEntity
  8
1
  6
CONTINUOUS
370
50
 62
4
100
AcDbLine
 10
4.839935
 20
4.509281
 30
0.0
 11
5.057589
 21
4.607279999999999
 31
0.0
  0
LINE
  5
58A
330
1F
100
AcDbEntity
  8
1
  6
CONTINUOUS
370
50
 62
4
100
AcDbLine
 10
5.070119
 20
-31.432781
 30
0.0
 11
5.125525
 21
-31.407549
 31
0.0
  0
LINE
  5
58B
330
1F
100
AcDbEntity
  8
1
  6
CONTINUOUS
370
50
 62
4
100
AcDbLine
 10
8.967527
 20
-4.596607
 30
0.0
 11
9.175419999999999
 21
-4.501888999999999
 31
0.0
  0
LINE
  5
58C
330
1F
100
AcDbEntity
  8
1
  6
CONTINUOUS
370
50
 62
4
100
AcDbLine
 10
4.62754
 20
4.401206
 30
0.0
 11
4.839935
 21
4.509281
 31
0.0
  0
LINE
  5
58D
330
1F
100
AcDbEntity
  8
1
  6
CONTINUOUS
370
50
 62
4
100
AcDbLine
 10
9.175419999999999
 20
-4.501888999999999
 30
0.0
 11
9.378444
 21
-4.397976
 31
0.0
  0
LINE
  5
58E
330
1F
100
AcDbEntity
  8
1
  6
CONTINUOUS
370
50
 62
4
100
AcDbLine
 10
5.030946
 20
-31.45396
 30
0.0
 11
5.070119
 21
-31.432781
 31
0.0
  0
LINE
  5
58F
330
1F
100
AcDbEntity
  8
1
  6
CONTINUOUS
370
50
 62
4
100
AcDbLine
 10
4.421177
 20
4.283596999999999
 30
0.0
 11
4.62754
 21
4.401206
 31
0.0
  0
LINE
  5
590
330
1F
100
AcDbEntity
  8
1
  6
CONTINUOUS
370
50
 62
4
100
AcDbLine
 10
9.378444
 20
-4.397976
 30
0.0
 11
9.575921
 21
-4.285342
 31
0.0
  0
LINE
  5
591
330
1F
100
AcDbEntity
  8
1
  6
CONTINUOUS
370
50
 62
4
100
AcDbLine
 10
9.575921
 20
-4.285342
 30
0.0
 11
9.767173
 21
-4.164461999999999
 31
0.0
  0
LINE
  5
592
330
1F
100
AcDbEntity
  8
1
  6
CONTINUOUS
370
50
 62
4
100
AcDbLine
 10
4.221621
 20
4.156995
 30
0.0
 11
4.421177
 21
4.283596999999999
 31
0.0
  0
LINE
  5
593
330
1F
100
AcDbEntity
  8
1
  6
CONTINUOUS
370
50
 62
4
100
AcDbLine
 10
9.767173
 20
-4.164461999999999
 30
0.0
 11
9.951540999999999
 21
-4.035845
 31
0.0
  0
LINE
  5
594
330
1F
100
AcDbEntity
  8
1
  6
CONTINUOUS
370
50
 62
4
100
AcDbLine
 10
4.029615
 20
4.021989
 30
0.0
 11
4.221621
 21
4.156995
 31
0.0
  0
LINE
  5
595
330
1F
100
AcDbEntity
  8
1
  6
CONTINUOUS
370
50
 62
4
100
AcDbLine
 10
5.007682
 20
-31.471077
 30
0.0
 11
5.030946
 21
-31.45396
 31
0.0
  0
LINE
  5
596
330
1F
100
AcDbEntity
  8
1
  6
CONTINUOUS
370
50
 62
4
100
AcDbLine
 10
9.951540999999999
 20
-4.035845
 30
0.0
 11
10.12851
 21
-3.900203
 31
0.0
  0
LINE
  5
597
330
1F
100
AcDbEntity
  8
1
  6
CONTINUOUS
370
50
 62
4
100
AcDbLine
 10
3.845741
 20
3.879405
 30
0.0
 11
4.029615
 21
4.021989
 31
0.0
  0
LINE
  5
598
330
1F
100
AcDbEntity
  8
1
  6
CONTINUOUS
370
50
 62
4
100
AcDbLine
 10
10.12851
 20
-3.900203
 30
0.0
 11
10.297612
 21
-3.758329
 31
0.0
  0
LINE
  5
599
330
1F
100
AcDbEntity
  8
1
  6
CONTINUOUS
370
50
 62
4
100
AcDbLine
 10
3.670527
 20
3.730146
 30
0.0
 11
3.845741
 21
3.879405
 31
0.0
  0
LINE
  5
59A
330
1F
100
AcDbEntity
  8
1
  6
CONTINUOUS
370
50
 62
4
100
AcDbLine
 10
10.297612
 20
-3.758329
 30
0.0
 11
10.458386
 21
-3.611013
 31
0.0
  0
LINE
  5
59B
330
1F
100
AcDbEntity
  8
1
  6
CONTINUOUS
370
50
 62
4
100
AcDbLine
 10
19.618128
 20
26.503908
 30
0.0
 11
19.62237
 21
26.507797
 31
0.0
  0
LINE
  5
59C
330
1F
100
AcDbEntity
  8
1
  6
CONTINUOUS
370
50
 62
4
100
AcDbLine
 10
19.613867
 20
26.5
 30
0.0
 11
19.618128
 21
26.503908
 31
0.0
  0
LINE
  5
59D
330
1F
100
AcDbEntity
  8
1
  6
CONTINUOUS
370
50
 62
4
100
AcDbLine
 10
19.62237
 20
26.507797
 30
0.0
 11
19.626562
 21
26.511698
 31
0.0
  0
LINE
  5
59E
330
1F
100
AcDbEntity
  8
1
  6
CONTINUOUS
370
50
 62
4
100
AcDbLine
 10
3.504503
 20
3.575116
 30
0.0
 11
3.670527
 21
3.730146
 31
0.0
  0
LINE
  5
59F
330
1F
100
AcDbEntity
  8
1
  6
CONTINUOUS
370
50
 62
4
100
AcDbLine
 10
19.613867
 20
26.5
 30
0.0
 11
19.638983
 21
26.523609
 31
0.0
  0
LINE
  5
5A0
330
1F
100
AcDbEntity
  8
1
  6
CONTINUOUS
370
50
 62
4
100
AcDbLine
 10
19.626562
 20
26.511698
 30
0.0
 11
19.630703
 21
26.51561
 31
0.0
  0
LINE
  5
5A1
330
1F
100
AcDbEntity
  8
1
  6
CONTINUOUS
370
50
 62
4
100
AcDbLine
 10
19.630703
 20
26.51561
 30
0.0
 11
19.634792
 21
26.519531
 31
0.0
  0
LINE
  5
5A2
330
1F
100
AcDbEntity
  8
1
  6
CONTINUOUS
370
50
 62
4
100
AcDbLine
 10
19.634792
 20
26.519531
 30
0.0
 11
19.638828
 21
26.523458
 31
0.0
  0
LINE
  5
5A3
330
1F
100
AcDbEntity
  8
1
  6
CONTINUOUS
370
50
 62
4
100
AcDbLine
 10
10.458386
 20
-3.611013
 30
0.0
 11
10.610956
 21
-3.458446
 31
0.0
  0
LINE
  5
5A4
330
1F
100
AcDbEntity
  8
1
  6
CONTINUOUS
370
50
 62
4
100
AcDbLine
 10
3.346761
 20
3.413728
 30
0.0
 11
3.504503
 21
3.575116
 31
0.0
  0
LINE
  5
5A5
330
1F
100
AcDbEntity
  8
1
  6
CONTINUOUS
370
50
 62
4
100
AcDbLine
 10
19.638983
 20
26.523609
 30
0.0
 11
19.66239
 21
26.547647
 31
0.0
  0
LINE
  5
5A6
330
1F
100
AcDbEntity
  8
1
  6
CONTINUOUS
370
50
 62
4
100
AcDbLine
 10
25.5
 20
-30.186918
 30
0.0
 11
25.571964
 21
-30.111816
 31
0.0
  0
LINE
  5
5A7
330
1F
100
AcDbEntity
  8
1
  6
CONTINUOUS
370
50
 62
4
100
AcDbLine
 10
25.571964
 20
-30.111816
 30
0.0
 11
25.643749
 21
-30.036886
 31
0.0
  0
LINE
  5
5A8
330
1F
100
AcDbEntity
  8
1
  6
CONTINUOUS
370
50
 62
4
100
AcDbLine
 10
25.643749
 20
-30.036886
 30
0.0
 11
25.715355
 21
-29.962128
 31
0.0
  0
LINE
  5
5A9
330
1F
100
AcDbEntity
  8
1
  6
CONTINUOUS
370
50
 62
4
100
AcDbLine
 10
25.715355
 20
-29.962128
 30
0.0
 11
25.786781
 21
-29.887539
 31
0.0
  0
LINE
  5
5AA
330
1F
100
AcDbEntity
  8
1
  6
CONTINUOUS
370
50
 62
4
100
AcDbLine
 10
25.786781
 20
-29.887539
 30
0.0
 11
25.858032
 21
-29.813122
 31
0.0
  0
LINE
  5
5AB
330
1F
100
AcDbEntity
  8
1
  6
CONTINUOUS
370
50
 62
4
100
AcDbLine
 10
25.858032
 20
-29.813122
 30
0.0
 11
25.929104
 21
-29.738873
 31
0.0
  0
LINE
  5
5AC
330
1F
100
AcDbEntity
  8
1
  6
CONTINUOUS
370
50
 62
4
100
AcDbLine
 10
25.929104
 20
-29.738873
 30
0.0
 11
26.0
 21
-29.664793
 31
0.0
  0
LINE
  5
5AD
330
1F
100
AcDbEntity
  8
1
  6
CONTINUOUS
370
50
 62
4
100
AcDbLine
 10
10.610956
 20
-3.458446
 30
0.0
 11
10.758274
 21
-3.297674
 31
0.0
  0
LINE
  5
5AE
330
1F
100
AcDbEntity
  8
1
  6
CONTINUOUS
370
50
 62
4
100
AcDbLine
 10
3.1945
 20
3.243044
 30
0.0
 11
3.346761
 21
3.413728
 31
0.0
  0
LINE
  5
5AF
330
1F
100
AcDbEntity
  8
1
  6
CONTINUOUS
370
50
 62
4
100
AcDbLine
 10
19.66239
 20
26.547647
 30
0.0
 11
19.685276
 21
26.573381
 31
0.0
  0
LINE
  5
5B0
330
1F
100
AcDbEntity
  8
1
  6
CONTINUOUS
370
50
 62
4
100
AcDbLine
 10
10.758274
 20
-3.297674
 30
0.0
 11
10.900153
 21
-3.128572
 31
0.0
  0
LINE
  5
5B1
330
1F
100
AcDbEntity
  8
1
  6
CONTINUOUS
370
50
 62
4
100
AcDbLine
 10
3.048461
 20
3.063434
 30
0.0
 11
3.1945
 21
3.243044
 31
0.0
  0
LINE
  5
5B2
330
1F
100
AcDbEntity
  8
1
  6
CONTINUOUS
370
50
 62
4
100
AcDbLine
 10
19.685276
 20
26.573381
 30
0.0
 11
19.707573
 21
26.600805
 31
0.0
  0
LINE
  5
5B3
330
1F
100
AcDbEntity
  8
1
  6
CONTINUOUS
370
50
 62
4
100
AcDbLine
 10
10.900153
 20
-3.128572
 30
0.0
 11
11.0358
 21
-2.951603
 31
0.0
  0
LINE
  5
5B4
330
1F
100
AcDbEntity
  8
1
  6
CONTINUOUS
370
50
 62
4
100
AcDbLine
 10
19.707573
 20
26.600805
 30
0.0
 11
19.728971
 21
26.629665
 31
0.0
  0
LINE
  5
5B5
330
1F
100
AcDbEntity
  8
1
  6
CONTINUOUS
370
50
 62
4
100
AcDbLine
 10
2.909548
 20
2.875426
 30
0.0
 11
3.048461
 21
3.063434
 31
0.0
  0
LINE
  5
5B6
330
1F
100
AcDbEntity
  8
1
  6
CONTINUOUS
370
50
 62
4
100
AcDbLine
 10
11.0358
 20
-2.951603
 30
0.0
 11
11.164422
 21
-2.767232
 31
0.0
  0
LINE
  5
5B7
330
1F
100
AcDbEntity
  8
1
  6
CONTINUOUS
370
50
 62
4
100
AcDbLine
 10
19.728971
 20
26.629665
 30
0.0
 11
19.749151
 21
26.659704
 31
0.0
  0
LINE
  5
5B8
330
1F
100
AcDbEntity
  8
1
  6
CONTINUOUS
370
50
 62
4
100
AcDbLine
 10
2.778651
 20
2.679559
 30
0.0
 11
2.909548
 21
2.875426
 31
0.0
  0
LINE
  5
5B9
330
1F
100
AcDbEntity
  8
1
  6
CONTINUOUS
370
50
 62
4
100
AcDbLine
 10
11.164422
 20
-2.767232
 30
0.0
 11
11.285308
 21
-2.575978
 31
0.0
  0
LINE
  5
5BA
330
1F
100
AcDbEntity
  8
1
  6
CONTINUOUS
370
50
 62
4
100
AcDbLine
 10
19.749151
 20
26.659704
 30
0.0
 11
19.767862
 21
26.69062
 31
0.0
  0
LINE
  5
5BB
330
1F
100
AcDbEntity
  8
1
  6
CONTINUOUS
370
50
 62
4
100
AcDbLine
 10
2.656471
 20
2.476498
 30
0.0
 11
2.778651
 21
2.679559
 31
0.0
  0
LINE
  5
5BC
330
1F
100
AcDbEntity
  8
1
  6
CONTINUOUS
370
50
 62
4
100
AcDbLine
 10
5.0
 20
-31.484123
 30
0.0
 11
5.007682
 21
-31.471077
 31
0.0
  0
LINE
  5
5BD
330
1F
100
AcDbEntity
  8
1
  6
CONTINUOUS
370
50
 62
4
100
AcDbLine
 10
11.285308
 20
-2.575978
 30
0.0
 11
11.397947
 21
-2.378496
 31
0.0
  0
LINE
  5
5BE
330
1F
100
AcDbEntity
  8
1
  6
CONTINUOUS
370
50
 62
4
100
AcDbLine
 10
21.154192
 20
30.067133
 30
0.0
 11
21.377499
 21
30.467196
 31
0.0
  0
LINE
  5
5BF
330
1F
100
AcDbEntity
  8
1
  6
CONTINUOUS
370
50
 62
4
100
AcDbLine
 10
21.154192
 20
30.067133
 30
0.0
 11
21.377499
 21
30.467196
 31
0.0
  0
LINE
  5
5C0
330
1F
100
AcDbEntity
  8
1
  6
CONTINUOUS
370
50
 62
4
100
AcDbLine
 10
20.933863
 20
29.67206
 30
0.0
 11
21.154192
 21
30.067133
 31
0.0
  0
LINE
  5
5C1
330
1F
100
AcDbEntity
  8
1
  6
CONTINUOUS
370
50
 62
4
100
AcDbLine
 10
20.933863
 20
29.67206
 30
0.0
 11
21.154192
 21
30.067133
 31
0.0
  0
LINE
  5
5C2
330
1F
100
AcDbEntity
  8
1
  6
CONTINUOUS
370
50
 62
4
100
AcDbLine
 10
20.716455
 20
29.281879
 30
0.0
 11
20.933863
 21
29.67206
 31
0.0
  0
LINE
  5
5C3
330
1F
100
AcDbEntity
  8
1
  6
CONTINUOUS
370
50
 62
4
100
AcDbLine
 10
20.716455
 20
29.281879
 30
0.0
 11
20.933863
 21
29.67206
 31
0.0
  0
LINE
  5
5C4
330
1F
100
AcDbEntity
  8
1
  6
CONTINUOUS
370
50
 62
4
100
AcDbLine
 10
20.501919
 20
28.896492
 30
0.0
 11
20.716455
 21
29.281879
 31
0.0
  0
LINE
  5
5C5
330
1F
100
AcDbEntity
  8
1
  6
CONTINUOUS
370
50
 62
4
100
AcDbLine
 10
20.501919
 20
28.896492
 30
0.0
 11
20.716455
 21
29.281879
 31
0.0
  0
LINE
  5
5C6
330
1F
100
AcDbEntity
  8
1
  6
CONTINUOUS
370
50
 62
4
100
AcDbLine
 10
20.290197
 20
28.515804
 30
0.0
 11
20.501919
 21
28.896492
 31
0.0
  0
LINE
  5
5C7
330
1F
100
AcDbEntity
  8
1
  6
CONTINUOUS
370
50
 62
4
100
AcDbLine
 10
20.290197
 20
28.515804
 30
0.0
 11
20.501919
 21
28.896492
 31
0.0
  0
LINE
  5
5C8
330
1F
100
AcDbEntity
  8
1
  6
CONTINUOUS
370
50
 62
4
100
AcDbLine
 10
20.081242
 20
28.139727
 30
0.0
 11
20.290197
 21
28.515804
 31
0.0
  0
LINE
  5
5C9
330
1F
100
AcDbEntity
  8
1
  6
CONTINUOUS
370
50
 62
4
100
AcDbLine
 10
20.081242
 20
28.139727
 30
0.0
 11
20.290197
 21
28.515804
 31
0.0
  0
LINE
  5
5CA
330
1F
100
AcDbEntity
  8
1
  6
CONTINUOUS
370
50
 62
4
100
AcDbLine
 10
19.875
 20
27.768166
 30
0.0
 11
20.081242
 21
28.139727
 31
0.0
  0
LINE
  5
5CB
330
1F
100
AcDbEntity
  8
1
  6
CONTINUOUS
370
50
 62
4
100
AcDbLine
 10
19.875
 20
27.768166
 30
0.0
 11
20.081242
 21
28.139727
 31
0.0
  0
LINE
  5
5CC
330
1F
100
AcDbEntity
  8
1
  6
CONTINUOUS
370
50
 62
4
100
AcDbLine
 10
14.622501
 20
-30.186918
 30
0.0
 11
14.845986
 21
-29.782768
 31
0.0
  0
LINE
  5
5CD
330
1F
100
AcDbEntity
  8
1
  6
CONTINUOUS
370
50
 62
4
100
AcDbLine
 10
14.845986
 20
-29.782768
 30
0.0
 11
15.066432
 21
-29.383665
 31
0.0
  0
LINE
  5
5CE
330
1F
100
AcDbEntity
  8
1
  6
CONTINUOUS
370
50
 62
4
100
AcDbLine
 10
15.066432
 20
-29.383665
 30
0.0
 11
15.283895
 21
-28.989508
 31
0.0
  0
LINE
  5
5CF
330
1F
100
AcDbEntity
  8
1
  6
CONTINUOUS
370
50
 62
4
100
AcDbLine
 10
15.283895
 20
-28.989508
 30
0.0
 11
15.498431
 21
-28.600193
 31
0.0
  0
LINE
  5
5D0
330
1F
100
AcDbEntity
  8
1
  6
CONTINUOUS
370
50
 62
4
100
AcDbLine
 10
15.498431
 20
-28.600193
 30
0.0
 11
15.710093
 21
-28.215624
 31
0.0
  0
LINE
  5
5D1
330
1F
100
AcDbEntity
  8
1
  6
CONTINUOUS
370
50
 62
4
100
AcDbLine
 10
15.710093
 20
-28.215624
 30
0.0
 11
15.918932
 21
-27.835709
 31
0.0
  0
LINE
  5
5D2
330
1F
100
AcDbEntity
  8
1
  6
CONTINUOUS
370
50
 62
4
100
AcDbLine
 10
15.918932
 20
-27.835709
 30
0.0
 11
16.125
 21
-27.460354
 31
0.0
  0
LINE
  5
5D3
330
1F
100
AcDbEntity
  8
1
  6
CONTINUOUS
370
50
 62
4
100
AcDbLine
 10
19.767862
 20
26.69062
 30
0.0
 11
19.784985
 21
26.722033
 31
0.0
  0
LINE
  5
5D4
330
1F
100
AcDbEntity
  8
1
  6
CONTINUOUS
370
50
 62
4
100
AcDbLine
 10
2.543555
 20
2.267017
 30
0.0
 11
2.656471
 21
2.476498
 31
0.0
  0
LINE
  5
5D5
330
1F
100
AcDbEntity
  8
1
  6
CONTINUOUS
370
50
 62
4
100
AcDbLine
 10
11.397947
 20
-2.378496
 30
0.0
 11
11.501867
 21
-2.175466
 31
0.0
  0
LINE
  5
5D6
330
1F
100
AcDbEntity
  8
1
  6
CONTINUOUS
370
50
 62
4
100
AcDbLine
 10
19.784985
 20
26.722033
 30
0.0
 11
19.800425
 21
26.753538
 31
0.0
  0
LINE
  5
5D7
330
1F
100
AcDbEntity
  8
1
  6
CONTINUOUS
370
50
 62
4
100
AcDbLine
 10
2.440445
 20
2.05189
 30
0.0
 11
2.543555
 21
2.267017
 31
0.0
  0
LINE
  5
5D8
330
1F
100
AcDbEntity
  8
1
  6
CONTINUOUS
370
50
 62
4
100
AcDbLine
 10
11.501867
 20
-2.175466
 30
0.0
 11
11.59659
 21
-1.967568
 31
0.0
  0
LINE
  5
5D9
330
1F
100
AcDbEntity
  8
1
  6
CONTINUOUS
370
50
 62
4
100
AcDbLine
 10
19.800425
 20
26.753538
 30
0.0
 11
19.814087
 21
26.784737
 31
0.0
  0
LINE
  5
5DA
330
1F
100
AcDbEntity
  8
1
  6
CONTINUOUS
370
50
 62
4
100
AcDbLine
 10
2.347675
 20
1.831881
 30
0.0
 11
2.440445
 21
2.05189
 31
0.0
  0
LINE
  5
5DB
330
1F
100
AcDbEntity
  8
1
  6
CONTINUOUS
370
50
 62
4
100
AcDbLine
 10
11.59659
 20
-1.967568
 30
0.0
 11
11.681682
 21
-1.755447
 31
0.0
  0
LINE
  5
5DC
330
1F
100
AcDbEntity
  8
1
  6
CONTINUOUS
370
50
 62
4
100
AcDbLine
 10
19.814087
 20
26.784737
 30
0.0
 11
19.826235
 21
26.816154
 31
0.0
  0
LINE
  5
5DD
330
1F
100
AcDbEntity
  8
1
  6
CONTINUOUS
370
50
 62
4
100
AcDbLine
 10
2.265589
 20
1.607704
 30
0.0
 11
2.347675
 21
1.831881
 31
0.0
  0
LINE
  5
5DE
330
1F
100
AcDbEntity
  8
1
  6
CONTINUOUS
370
50
 62
4
100
AcDbLine
 10
11.681682
 20
-1.755447
 30
0.0
 11
11.756927
 21
-1.539769
 31
0.0
  0
LINE
  5
5DF
330
1F
100
AcDbEntity
  8
1
  6
CONTINUOUS
370
50
 62
4
100
AcDbLine
 10
19.826235
 20
26.816154
 30
0.0
 11
19.837372
 21
26.849085
 31
0.0
  0
LINE
  5
5E0
330
1F
100
AcDbEntity
  8
1
  6
CONTINUOUS
370
50
 62
4
100
AcDbLine
 10
16.160374
 20
-26.537975
 30
0.0
 11
16.172773
 21
-26.5
 31
0.0
  0
LINE
  5
5E1
330
1F
100
AcDbEntity
  8
1
  6
CONTINUOUS
370
50
 62
4
100
AcDbLine
 10
2.194366
 20
1.38025
 30
0.0
 11
2.265589
 21
1.607704
 31
0.0
  0
LINE
  5
5E2
330
1F
100
AcDbEntity
  8
1
  6
CONTINUOUS
370
50
 62
4
100
AcDbLine
 10
11.756927
 20
-1.539769
 30
0.0
 11
11.82217
 21
-1.321346
 31
0.0
  0
LINE
  5
5E3
330
1F
100
AcDbEntity
  8
1
  6
CONTINUOUS
370
50
 62
4
100
AcDbLine
 10
19.837372
 20
26.849085
 30
0.0
 11
19.847322
 21
26.883224
 31
0.0
  0
LINE
  5
5E4
330
1F
100
AcDbEntity
  8
1
  6
CONTINUOUS
370
50
 62
4
100
AcDbLine
 10
16.149532
 20
-26.577381
 30
0.0
 11
16.160374
 21
-26.537975
 31
0.0
  0
LINE
  5
5E5
330
1F
100
AcDbEntity
  8
1
  6
CONTINUOUS
370
50
 62
4
100
AcDbLine
 10
2.134187
 20
1.150453
 30
0.0
 11
2.194366
 21
1.38025
 31
0.0
  0
LINE
  5
5E6
330
1F
100
AcDbEntity
  8
1
  6
CONTINUOUS
370
50
 62
4
100
AcDbLine
 10
11.82217
 20
-1.321346
 30
0.0
 11
11.877254
 21
-1.100995
 31
0.0
  0
LINE
  5
5E7
330
1F
100
AcDbEntity
  8
1
  6
CONTINUOUS
370
50
 62
4
100
AcDbLine
 10
19.847322
 20
26.883224
 30
0.0
 11
19.855898
 21
26.918226
 31
0.0
  0
LINE
  5
5E8
330
1F
100
AcDbEntity
  8
1
  6
CONTINUOUS
370
50
 62
4
100
AcDbLine
 10
16.140541
 20
-26.617735
 30
0.0
 11
16.149532
 21
-26.577381
 31
0.0
  0
LINE
  5
5E9
330
1F
100
AcDbEntity
  8
1
  6
CONTINUOUS
370
50
 62
4
100
AcDbLine
 10
2.08523
 20
0.919244
 30
0.0
 11
2.134187
 21
1.150453
 31
0.0
  0
LINE
  5
5EA
330
1F
100
AcDbEntity
  8
1
  6
CONTINUOUS
370
50
 62
4
100
AcDbLine
 10
11.877254
 20
-1.100995
 30
0.0
 11
11.922025
 21
-0.879535
 31
0.0
  0
LINE
  5
5EB
330
1F
100
AcDbEntity
  8
1
  6
CONTINUOUS
370
50
 62
4
100
AcDbLine
 10
19.855898
 20
26.918226
 30
0.0
 11
19.862911
 21
26.953753
 31
0.0
  0
LINE
  5
5EC
330
1F
100
AcDbEntity
  8
1
  6
CONTINUOUS
370
50
 62
4
100
AcDbLine
 10
16.133627
 20
-26.658529
 30
0.0
 11
16.140541
 21
-26.617735
 31
0.0
  0
LINE
  5
5ED
330
1F
100
AcDbEntity
  8
1
  6
CONTINUOUS
370
50
 62
4
100
AcDbLine
 10
2.047561
 20
0.6875789999999999
 30
0.0
 11
2.08523
 21
0.919244
 31
0.0
  0
LINE
  5
5EE
330
1F
100
AcDbEntity
  8
1
  6
CONTINUOUS
370
50
 62
4
100
AcDbLine
 10
11.922025
 20
-0.879535
 30
0.0
 11
11.956473
 21
-0.657812
 31
0.0
  0
LINE
  5
5EF
330
1F
100
AcDbEntity
  8
1
  6
CONTINUOUS
370
50
 62
4
100
AcDbLine
 10
19.862911
 20
26.953753
 30
0.0
 11
19.868279
 21
26.989439
 31
0.0
  0
LINE
  5
5F0
330
1F
100
AcDbEntity
  8
1
  6
CONTINUOUS
370
50
 62
4
100
AcDbLine
 10
16.128782
 20
-26.699219
 30
0.0
 11
16.133627
 21
-26.658529
 31
0.0
  0
LINE
  5
5F1
330
1F
100
AcDbEntity
  8
1
  6
CONTINUOUS
370
50
 62
4
100
AcDbLine
 10
2.020969
 20
0.456469
 30
0.0
 11
2.047561
 21
0.6875789999999999
 31
0.0
  0
LINE
  5
5F2
330
1F
100
AcDbEntity
  8
1
  6
CONTINUOUS
370
50
 62
4
100
AcDbLine
 10
11.956473
 20
-0.657812
 30
0.0
 11
11.980803
 21
-0.436719
 31
0.0
  0
LINE
  5
5F3
330
1F
100
AcDbEntity
  8
1
  6
CONTINUOUS
370
50
 62
4
100
AcDbLine
 10
19.868279
 20
26.989439
 30
0.0
 11
19.872047
 21
27.024899
 31
0.0
  0
LINE
  5
5F4
330
1F
100
AcDbEntity
  8
1
  6
CONTINUOUS
370
50
 62
4
100
AcDbLine
 10
16.125933
 20
-26.739237
 30
0.0
 11
16.128782
 21
-26.699219
 31
0.0
  0
LINE
  5
5F5
330
1F
100
AcDbEntity
  8
1
  6
CONTINUOUS
370
50
 62
4
100
AcDbLine
 10
2.0052
 20
0.226936
 30
0.0
 11
2.020969
 21
0.456469
 31
0.0
  0
LINE
  5
5F6
330
1F
100
AcDbEntity
  8
1
  6
CONTINUOUS
370
50
 62
4
100
AcDbLine
 10
11.980803
 20
-0.436719
 30
0.0
 11
11.995237
 21
-0.21715
 31
0.0
  0
LINE
  5
5F7
330
1F
100
AcDbEntity
  8
1
  6
CONTINUOUS
370
50
 62
4
100
AcDbLine
 10
19.872047
 20
27.024899
 30
0.0
 11
19.874271
 21
27.059746
 31
0.0
  0
LINE
  5
5F8
330
1F
100
AcDbEntity
  8
1
  6
CONTINUOUS
370
50
 62
4
100
AcDbLine
 10
16.125
 20
-26.778023
 30
0.0
 11
16.125933
 21
-26.739237
 31
0.0
  0
LINE
  5
5F9
330
1F
100
AcDbEntity
  8
1
  6
CONTINUOUS
370
50
 62
4
100
AcDbLine
 10
2.0
 20
0.0
 30
0.0
 11
2.0052
 21
0.226936
 31
0.0
  0
LINE
  5
5FA
330
1F
100
AcDbEntity
  8
1
  6
CONTINUOUS
370
50
 62
4
100
AcDbLine
 10
11.995237
 20
-0.21715
 30
0.0
 11
12.0
 21
0.0
 31
0.0
  0
LINE
  5
5FB
330
1F
100
AcDbEntity
  8
1
  6
CONTINUOUS
370
50
 62
4
100
AcDbLine
 10
19.874271
 20
27.059746
 30
0.0
 11
19.875
 21
27.093588
 31
0.0
  0
LINE
  5
5FC
330
1F
100
AcDbEntity
  8
1
  6
CONTINUOUS
370
50
 62
4
100
AcDbLine
 10
0.0
 20
-31.5
 30
0.0
 11
0.0
 21
31.5
 31
0.0
  0
LINE
  5
5FD
330
1F
100
AcDbEntity
  8
1
  6
CONTINUOUS
370
50
 62
4
100
AcDbLine
 10
5.0
 20
-31.5
 30
0.0
 11
5.0
 21
-31.484123
 31
0.0
  0
LINE
  5
5FE
330
1F
100
AcDbEntity
  8
1
  6
CONTINUOUS
370
50
 62
4
100
AcDbLine
 10
14.622501
 20
-30.186918
 30
0.0
 11
14.622501
 21
30.467196
 31
0.0
  0
LINE
  5
5FF
330
1F
100
AcDbEntity
  8
1
  6
CONTINUOUS
370
50
 62
4
100
AcDbLine
 10
16.125
 20
-27.460354
 30
0.0
 11
16.125
 21
27.768166
 31
0.0
  0
LINE
  5
600
330
1F
100
AcDbEntity
  8
1
  6
CONTINUOUS
370
50
 62
4
100
AcDbLine
 10
16.875
 20
-26.5
 30
0.0
 11
16.875
 21
26.5
 31
0.0
  0
LINE
  5
601
330
1F
100
AcDbEntity
  8
1
  6
CONTINUOUS
370
50
 62
4
100
AcDbLine
 10
19.125
 20
-26.5
 30
0.0
 11
19.125
 21
26.5
 31
0.0
  0
LINE
  5
602
330
1F
100
AcDbEntity
  8
1
  6
CONTINUOUS
370
50
 62
4
100
AcDbLine
 10
19.875
 20
-27.460354
 30
0.0
 11
19.875
 21
27.768166
 31
0.0
  0
LINE
  5
603
330
1F
100
AcDbEntity
  8
1
  6
CONTINUOUS
370
50
 62
4
100
AcDbLine
 10
21.377499
 20
-30.186918
 30
0.0
 11
21.377499
 21
30.467196
 31
0.0
  0
LINE
  5
604
330
1F
100
AcDbEntity
  8
1
  6
CONTINUOUS
370
50
 62
4
100
AcDbLine
 10
25.5
 20
-30.186918
 30
0.0
 11
25.5
 21
30.467196
 31
0.0
  0
LINE
  5
605
330
1F
100
AcDbEntity
  8
1
  6
CONTINUOUS
370
50
 62
4
100
AcDbLine
 10
26.0
 20
-29.664793
 30
0.0
 11
26.0
 21
29.949959
 31
0.0
  0
LINE
  5
606
330
1F
100
AcDbEntity
  8
1
  6
CONTINUOUS
370
50
 62
4
100
AcDbLine
 10
29.0
 20
-12.1845
 30
0.0
 11
29.0
 21
12.1845
 31
0.0
  0
LINE
  5
607
330
1F
100
AcDbEntity
  8
1
  6
CONTINUOUS
370
50
 62
4
100
AcDbLine
 10
29.006405
 20
-12.1845
 30
0.0
 11
29.006405
 21
12.1845
 31
0.0
  0
LINE
  5
608
330
1F
100
AcDbEntity
  8
1
  6
CONTINUOUS
370
50
 62
4
100
AcDbLine
 10
85.0
 20
-9.25
 30
0.0
 11
85.0
 21
9.25
 31
0.0
  0
ARC
  5
609
330
1F
100
AcDbEntity
  8
1
  6
CONTINUOUS
370
50
 62
4
100
AcDbCircle
 10
29.0
 20
-15.1845
 30
0.0
 40
3.0
100
AcDbArc
 50
90.00000000190975
 51
180.0
  0
ARC
  5
60A
330
1F
100
AcDbEntity
  8
1
  6
CONTINUOUS
370
50
 62
4
100
AcDbCircle
 10
29.0
 20
15.1845
 30
0.0
 40
3.0
100
AcDbArc
 50
180.1516171662813
 51
269.9999999980902
  0
LINE
  5
60B
330
1F
100
AcDbEntity
  8
NOCUT
  6
CONTINUOUS
370
25
 62
7
100
AcDbLine
 10
0.0
 20
31.5
 30
0.0
 11
14.62250092524069
 21
31.5
 31
0.0
  0
LINE
  5
60C
330
1F
100
AcDbEntity
  8
NOCUT
  6
CONTINUOUS
370
25
 62
7
100
AcDbLine
 10
14.62250092524069
 20
31.5
 30
0.0
 11
16.125
 21
28.89759526419164
 31
0.0
  0
LINE
  5
60D
330
1F
100
AcDbEntity
  8
NOCUT
  6
CONTINUOUS
370
25
 62
7
100
AcDbLine
 10
16.125
 20
28.89759526419164
 30
0.0
 11
16.125
 21
28.25
 31
0.0
  0
ARC
  5
60E
330
1F
100
AcDbEntity
  8
NOCUT
  6
CONTINUOUS
370
25
 62
7
100
AcDbCircle
 10
16.875
 20
28.25
 30
0.0
 40
0.75
100
AcDbArc
 50
180.0
 51
270.0
  0
LINE
  5
60F
330
1F
100
AcDbEntity
  8
NOCUT
  6
CONTINUOUS
370
25
 62
7
100
AcDbLine
 10
16.875
 20
27.5
 30
0.0
 11
19.125
 21
27.5
 31
0.0
  0
ARC
  5
610
330
1F
100
AcDbEntity
  8
NOCUT
  6
CONTINUOUS
370
25
 62
7
100
AcDbCircle
 10
19.125
 20
28.25
 30
0.0
 40
0.75
100
AcDbArc
 50
270.0
 51
0.0
  0
LINE
  5
611
330
1F
100
AcDbEntity
  8
NOCUT
  6
CONTINUOUS
370
25
 62
7
100
AcDbLine
 10
19.875
 20
28.25
 30
0.0
 11
19.875
 21
28.89759526419164
 31
0.0
  0
LINE
  5
612
330
1F
100
AcDbEntity
  8
NOCUT
  6
CONTINUOUS
370
25
 62
7
100
AcDbLine
 10
19.875
 20
28.89759526419164
 30
0.0
 11
21.37749907475931
 21
31.5
 31
0.0
  0
LINE
  5
613
330
1F
100
AcDbEntity
  8
NOCUT
  6
CONTINUOUS
370
25
 62
7
100
AcDbLine
 10
21.37749907475931
 20
31.5
 30
0.0
 11
25.5
 21
31.5
 31
0.0
  0
LINE
  5
614
330
1F
100
AcDbEntity
  8
NOCUT
  6
CONTINUOUS
370
25
 62
7
100
AcDbLine
 10
25.5
 20
31.5
 30
0.0
 11
26.0
 21
31.0
 31
0.0
  0
LINE
  5
615
330
1F
100
AcDbEntity
  8
NOCUT
  6
CONTINUOUS
370
25
 62
7
100
AcDbLine
 10
0.0
 20
0.0
 30
0.0
 11
0.0
 21
31.5
 31
0.0
  0
LINE
  5
616
330
1F
100
AcDbEntity
  8
NOCUT
  6
CONTINUOUS
370
25
 62
7
100
AcDbLine
 10
26.0
 20
0.0
 30
0.0
 11
0.0
 21
0.0
 31
0.0
  0
LINE
  5
617
330
1F
100
AcDbEntity
  8
SK3
  6
DASH
370
35
 62
1
100
AcDbLine
 10
-32.0
 20
17.57735026918963
 30
0.0
 11
-31.0
 21
17.0
 31
0.0
  0
LINE
  5
618
330
1F
100
AcDbEntity
  8
SK3
  6
DASH
370
35
 62
1
100
AcDbLine
 10
-32.0
 20
-17.57735026918963
 30
0.0
 11
-31.0
 21
-17.0
 31
0.0
  0
LINE
  5
619
330
1F
100
AcDbEntity
  8
SK3
  6
DASH
370
35
 62
1
100
AcDbLine
 10
-31.0
 20
17.0
 30
0.0
 11
-31.0
 21
-17.0
 31
0.0
  0
LINE
  5
61A
330
1F
100
AcDbEntity
  8
SK3
  6
DASH
370
35
 62
1
100
AcDbLine
 10
-31.0
 20
17.0
 30
0.0
 11
-18.99602540378444
 21
17.0
 31
0.0
  0
LINE
  5
61B
330
1F
100
AcDbEntity
  8
SK3
  6
DASH
370
35
 62
1
100
AcDbLine
 10
-31.0
 20
-17.0
 30
0.0
 11
-18.99602540378444
 21
-17.0
 31
0.0
  0
LINE
  5
61C
330
1F
100
AcDbEntity
  8
SK3
  6
DASH
370
35
 62
1
100
AcDbLine
 10
-18.99602540378444
 20
17.0
 30
0.0
 11
-18.99602540378444
 21
-17.0
 31
0.0
  0
LINE
  5
61D
330
1F
100
AcDbEntity
  8
SK3
  6
DASH
370
35
 62
1
100
AcDbLine
 10
-18.99602540378444
 20
17.0
 30
0.0
 11
-17.26397459621556
 21
20.0
 31
0.0
  0
LINE
  5
61E
330
1F
100
AcDbEntity
  8
SK3
  6
DASH
370
35
 62
1
100
AcDbLine
 10
-18.99602540378444
 20
-17.0
 30
0.0
 11
-17.26397459621556
 21
-20.0
 31
0.0
  0
LINE
  5
61F
330
1F
100
AcDbEntity
  8
SK3
  6
DASH
370
35
 62
1
100
AcDbLine
 10
-17.26397459621556
 20
20.0
 30
0.0
 11
-17.26397459621556
 21
-20.0
 31
0.0
  0
LINE
  5
620
330
1F
100
AcDbEntity
  8
SK3
  6
DASH
370
35
 62
1
100
AcDbLine
 10
-17.26397459621556
 20
20.0
 30
0.0
 11
-6.244997998398398
 21
20.0
 31
0.0
  0
LINE
  5
621
330
1F
100
AcDbEntity
  8
SK3
  6
DASH
370
35
 62
1
100
AcDbLine
 10
-17.26397459621556
 20
-20.0
 30
0.0
 11
-6.244997998398398
 21
-20.0
 31
0.0
  0
LINE
  5
622
330
1F
100
AcDbEntity
  8
SK3
  6
DASH
370
35
 62
1
100
AcDbLine
 10
-6.244997998398398
 20
20.0
 30
0.0
 11
-6.244997998398398
 21
-20.0
 31
0.0
  0
ARC
  5
623
330
1F
100
AcDbEntity
  8
SK3
  6
DASH
370
35
 62
1
100
AcDbCircle
 10
-6.244997998398398
 20
12.0
 30
0.0
 40
8.0
100
AcDbArc
 50
38.68218745348944
 51
90.0
  0
ARC
  5
624
330
1F
100
AcDbEntity
  8
SK3
  6
DASH
370
35
 62
1
100
AcDbCircle
 10
-6.244997998398398
 20
-12.0
 30
0.0
 40
8.0
100
AcDbArc
 50
270.0
 51
321.3178125465105
  0
LINE
  5
625
330
1F
100
AcDbEntity
  8
SK3
  6
DASH
370
35
 62
1
100
AcDbLine
 10
0.0
 20
17.0
 30
0.0
 11
0.0
 21
-17.0
 31
0.0
  0
LINE
  5
626
330
1F
100
AcDbEntity
  8
SK3
  6
DASH
370
35
 62
1
100
AcDbLine
 10
0.0
 20
17.0
 30
0.0
 11
10.0
 21
17.0
 31
0.0
  0
LINE
  5
627
330
1F
100
AcDbEntity
  8
SK3
  6
DASH
370
35
 62
1
100
AcDbLine
 10
0.0
 20
-17.0
 30
0.0
 11
10.0
 21
-17.0
 31
0.0
  0
LINE
  5
628
330
1F
100
AcDbEntity
  8
SK3
  6
DASH
370
35
 62
1
100
AcDbLine
 10
10.0
 20
17.0
 30
0.0
 11
10.0
 21
-17.0
 31
0.0
  0
LINE
  5
629
330
1F
100
AcDbEntity
  8
SK3
  6
DASH
370
35
 62
1
100
AcDbLine
 10
-12.75
 20
23.68186232294171
 30
0.0
 11
-12.75
 21
20.0
 31
0.0
  0
LINE
  5
62A
330
1F
100
AcDbEntity
  8
SK3
  6
DASH
370
35
 62
1
100
AcDbLine
 10
-12.75
 20
-23.68186232294171
 30
0.0
 11
-12.75
 21
-20.0
 31
0.0
  0
LINE
  5
62B
330
1F
100
AcDbEntity
  8
SK3
  6
DASH
370
35
 62
1
100
AcDbLine
 10
-5.25
 20
24.05760380789321
 30
0.0
 11
-5.25
 21
20.0
 31
0.0
  0
LINE
  5
62C
330
1F
100
AcDbEntity
  8
SK3
  6
DASH
370
35
 62
1
100
AcDbLine
 10
-5.25
 20
-24.05760380789321
 30
0.0
 11
-5.25
 21
-20.0
 31
0.0
  0
LINE
  5
62D
330
1F
100
AcDbEntity
  8
SK3
  6
DASH
370
35
 62
1
100
AcDbLine
 10
5.0
 20
31.5
 30
0.0
 11
5.0
 21
26.5
 31
0.0
  0
LINE
  5
62E
330
1F
100
AcDbEntity
  8
SK3
  6
DASH
370
35
 62
1
100
AcDbLine
 10
5.0
 20
-31.5
 30
0.0
 11
5.0
 21
-26.5
 31
0.0
  0
LINE
  5
62F
330
1F
100
AcDbEntity
  8
SK3
  6
DASH
370
35
 62
1
100
AcDbLine
 10
5.0
 20
26.5
 30
0.0
 11
26.0
 21
26.5
 31
0.0
  0
LINE
  5
630
330
1F
100
AcDbEntity
  8
SK3
  6
DASH
370
35
 62
1
100
AcDbLine
 10
5.0
 20
-26.5
 30
0.0
 11
26.0
 21
-26.5
 31
0.0
  0
LINE
  5
631
330
1F
100
AcDbEntity
  8
SK1
  6
CONTINUOUS
370
50
 62
4
100
AcDbLine
 10
-32.0
 20
0.0
 30
0.0
 11
-32.0
 21
21.5174841801856
 31
0.0
  0
ARC
  5
632
330
1F
100
AcDbEntity
  8
SK1
  6
CONTINUOUS
370
50
 62
4
100
AcDbCircle
 10
-30.8
 20
21.5174841801856
 30
0.0
 40
1.200000000000003
100
AcDbArc
 50
90.00000000000018
 51
180.0
  0
LINE
  5
633
330
1F
100
AcDbEntity
  8
SK1
  6
CONTINUOUS
370
50
 62
4
100
AcDbLine
 10
-30.8
 20
22.7174841801856
 30
0.0
 11
0.0
 21
24.3206167184759
 31
0.0
  0
LINE
  5
634
330
1F
100
AcDbEntity
  8
SK1
  6
CONTINUOUS
370
50
 62
4
100
AcDbLine
 10
-32.0
 20
0.0
 30
0.0
 11
-32.0
 21
-21.5174841801856
 31
0.0
  0
ARC
  5
635
330
1F
100
AcDbEntity
  8
SK1
  6
CONTINUOUS
370
50
 62
4
100
AcDbCircle
 10
-30.8
 20
-21.5174841801856
 30
0.0
 40
1.200000000000003
100
AcDbArc
 50
180.0
 51
269.9999999999998
  0
LINE
  5
636
330
1F
100
AcDbEntity
  8
SK1
  6
CONTINUOUS
370
50
 62
4
100
AcDbLine
 10
-30.8
 20
-22.7174841801856
 30
0.0
 11
0.0
 21
-24.3206167184759
 31
0.0
  0
LINE
  5
637
330
1F
100
AcDbEntity
  8
2
  6
CONTINUOUS
370
25
 62
7
100
AcDbLine
 10
0.0
 20
-31.5
 30
0.0
 11
-45.0
 21
-31.5
 31
0.0
  0
LINE
  5
638
330
1F
100
AcDbEntity
  8
2
  6
CONTINUOUS
370
25
 62
7
100
AcDbLine
 10
-44.99999999999999
 20
31.5
 30
0.0
 11
0.0000000000000071
 21
31.5
 31
0.0
  0
LINE
  5
639
330
1F
100
AcDbEntity
  8
2
  6
CONTINUOUS
370
25
 62
7
100
AcDbLine
 10
-44.0
 20
-31.5
 30
0.0
 11
-44.0
 21
31.5
 31
0.0
  0
LINE
  5
63A
330
1F
100
AcDbEntity
  8
2
  6
CONTINUOUS
370
25
 62
7
100
AcDbLine
 10
-44.0
 20
-31.5
 30
0.0
 11
-45.0
 21
-26.5
 31
0.0
  0
LINE
  5
63B
330
1F
100
AcDbEntity
  8
2
  6
CONTINUOUS
370
25
 62
7
100
AcDbLine
 10
-45.0
 20
-26.5
 30
0.0
 11
-43.0
 21
-26.5
 31
0.0
  0
LINE
  5
63C
330
1F
100
AcDbEntity
  8
2
  6
CONTINUOUS
370
25
 62
7
100
AcDbLine
 10
-43.0
 20
-26.5
 30
0.0
 11
-44.0
 21
-31.5
 31
0.0
  0
LINE
  5
63D
330
1F
100
AcDbEntity
  8
2
  6
CONTINUOUS
370
25
 62
7
100
AcDbLine
 10
-44.03798701022632
 20
-31.31006494886844
 30
0.0
 11
-43.94301948466052
 21
-31.21509742330264
 31
0.0
  0
LINE
  5
63E
330
1F
100
AcDbEntity
  8
2
  6
CONTINUOUS
370
25
 62
7
100
AcDbLine
 10
-44.10869768834497
 20
-30.95651155827515
 30
0.0
 11
-43.83695346748254
 21
-30.68476733741273
 31
0.0
  0
LINE
  5
63F
330
1F
100
AcDbEntity
  8
2
  6
CONTINUOUS
370
25
 62
7
100
AcDbLine
 10
-44.17940836646363
 20
-30.60295816768188
 30
0.0
 11
-43.73088745030456
 21
-30.15443725152281
 31
0.0
  0
LINE
  5
640
330
1F
100
AcDbEntity
  8
2
  6
CONTINUOUS
370
25
 62
7
100
AcDbLine
 10
-44.25011904458228
 20
-30.2494047770886
 30
0.0
 11
-43.62482143312658
 21
-29.62410716563289
 31
0.0
  0
LINE
  5
641
330
1F
100
AcDbEntity
  8
2
  6
CONTINUOUS
370
25
 62
7
100
AcDbLine
 10
-44.32082972270094
 20
-29.89585138649532
 30
0.0
 11
-43.5187554159486
 21
-29.09377707974298
 31
0.0
  0
LINE
  5
642
330
1F
100
AcDbEntity
  8
2
  6
CONTINUOUS
370
25
 62
7
100
AcDbLine
 10
-44.3915404008196
 20
-29.54229799590205
 30
0.0
 11
-43.41268939877061
 21
-28.56344699385306
 31
0.0
  0
LINE
  5
643
330
1F
100
AcDbEntity
  8
2
  6
CONTINUOUS
370
25
 62
7
100
AcDbLine
 10
-44.46225107893824
 20
-29.18874460530876
 30
0.0
 11
-43.30662338159263
 21
-28.03311690796316
 31
0.0
  0
LINE
  5
644
330
1F
100
AcDbEntity
  8
2
  6
CONTINUOUS
370
25
 62
7
100
AcDbLine
 10
-44.5329617570569
 20
-28.83519121471549
 30
0.0
 11
-43.20055736441464
 21
-27.50278682207323
 31
0.0
  0
LINE
  5
645
330
1F
100
AcDbEntity
  8
2
  6
CONTINUOUS
370
25
 62
7
100
AcDbLine
 10
-44.60367243517555
 20
-28.48163782412221
 30
0.0
 11
-43.09449134723667
 21
-26.97245673618333
 31
0.0
  0
LINE
  5
646
330
1F
100
AcDbEntity
  8
2
  6
CONTINUOUS
370
25
 62
7
100
AcDbLine
 10
-44.67438311329421
 20
-28.12808443352893
 30
0.0
 11
-43.04629867976527
 21
-26.5
 31
0.0
  0
LINE
  5
647
330
1F
100
AcDbEntity
  8
2
  6
CONTINUOUS
370
25
 62
7
100
AcDbLine
 10
-44.74509379141287
 20
-27.77453104293566
 30
0.0
 11
-43.4705627484772
 21
-26.5
 31
0.0
  0
LINE
  5
648
330
1F
100
AcDbEntity
  8
2
  6
CONTINUOUS
370
25
 62
7
100
AcDbLine
 10
-44.81580446953152
 20
-27.42097765234238
 30
0.0
 11
-43.89482681718913
 21
-26.5
 31
0.0
  0
LINE
  5
649
330
1F
100
AcDbEntity
  8
2
  6
CONTINUOUS
370
25
 62
7
100
AcDbLine
 10
-44.88651514765018
 20
-27.0674242617491
 30
0.0
 11
-44.31909088590108
 21
-26.5
 31
0.0
  0
LINE
  5
64A
330
1F
100
AcDbEntity
  8
2
  6
CONTINUOUS
370
25
 62
7
100
AcDbLine
 10
-44.95722582576884
 20
-26.71387087115583
 30
0.0
 11
-44.743354954613
 21
-26.5
 31
0.0
  0
LINE
  5
64B
330
1F
100
AcDbEntity
  8
2
  6
CONTINUOUS
370
25
 62
7
100
AcDbLine
 10
-44.00894057993252
 20
-31.4552971003374
 30
0.0
 11
-43.99403961337832
 21
-31.4701980668916
 31
0.0
  0
LINE
  5
64C
330
1F
100
AcDbEntity
  8
2
  6
CONTINUOUS
370
25
 62
7
100
AcDbLine
 10
-44.1150065971105
 20
-30.9249670144475
 30
0.0
 11
-43.92332893525967
 21
-31.11664467629833
 31
0.0
  0
LINE
  5
64D
330
1F
100
AcDbEntity
  8
2
  6
CONTINUOUS
370
25
 62
7
100
AcDbLine
 10
-44.22107261428849
 20
-30.39463692855757
 30
0.0
 11
-43.852618257141
 21
-30.76309128570505
 31
0.0
  0
LINE
  5
64E
330
1F
100
AcDbEntity
  8
2
  6
CONTINUOUS
370
25
 62
7
100
AcDbLine
 10
-44.32713863146647
 20
-29.86430684266765
 30
0.0
 11
-43.78190757902235
 21
-30.40953789511177
 31
0.0
  0
LINE
  5
64F
330
1F
100
AcDbEntity
  8
2
  6
CONTINUOUS
370
25
 62
7
100
AcDbLine
 10
-44.43320464864446
 20
-29.33397675677774
 30
0.0
 11
-43.7111969009037
 21
-30.05598450451848
 31
0.0
  0
LINE
  5
650
330
1F
100
AcDbEntity
  8
2
  6
CONTINUOUS
370
25
 62
7
100
AcDbLine
 10
-44.53927066582244
 20
-28.80364667088782
 30
0.0
 11
-43.64048622278504
 21
-29.70243111392521
 31
0.0
  0
LINE
  5
651
330
1F
100
AcDbEntity
  8
2
  6
CONTINUOUS
370
25
 62
7
100
AcDbLine
 10
-44.64533668300042
 20
-28.27331658499791
 30
0.0
 11
-43.56977554466638
 21
-29.34887772333193
 31
0.0
  0
LINE
  5
652
330
1F
100
AcDbEntity
  8
2
  6
CONTINUOUS
370
25
 62
7
100
AcDbLine
 10
-44.7514027001784
 20
-27.74298649910799
 30
0.0
 11
-43.49906486654773
 21
-28.99532433273866
 31
0.0
  0
LINE
  5
653
330
1F
100
AcDbEntity
  8
2
  6
CONTINUOUS
370
25
 62
7
100
AcDbLine
 10
-44.85746871735638
 20
-27.21265641321808
 30
0.0
 11
-43.42835418842908
 21
-28.64177094214537
 31
0.0
  0
LINE
  5
654
330
1F
100
AcDbEntity
  8
2
  6
CONTINUOUS
370
25
 62
7
100
AcDbLine
 10
-44.96353473453437
 20
-26.68232632732818
 30
0.0
 11
-43.35764351031042
 21
-28.28821755155212
 31
0.0
  0
LINE
  5
655
330
1F
100
AcDbEntity
  8
2
  6
CONTINUOUS
370
25
 62
7
100
AcDbLine
 10
-44.72159699315061
 20
-26.5
 30
0.0
 11
-43.28693283219177
 21
-27.93466416095883
 31
0.0
  0
LINE
  5
656
330
1F
100
AcDbEntity
  8
2
  6
CONTINUOUS
370
25
 62
7
100
AcDbLine
 10
-44.29733292443868
 20
-26.5
 30
0.0
 11
-43.21622215407311
 21
-27.58111077036556
 31
0.0
  0
LINE
  5
657
330
1F
100
AcDbEntity
  8
2
  6
CONTINUOUS
370
25
 62
7
100
AcDbLine
 10
-43.87306885572674
 20
-26.5
 30
0.0
 11
-43.14551147595446
 21
-27.22755737977227
 31
0.0
  0
LINE
  5
658
330
1F
100
AcDbEntity
  8
2
  6
CONTINUOUS
370
25
 62
7
100
AcDbLine
 10
-43.44880478701481
 20
-26.5
 30
0.0
 11
-43.0748007978358
 21
-26.87400398917901
 31
0.0
  0
LINE
  5
659
330
1F
100
AcDbEntity
  8
2
  6
CONTINUOUS
370
25
 62
7
100
AcDbLine
 10
-43.02454071830287
 20
-26.5
 30
0.0
 11
-43.00409011971715
 21
-26.52045059858573
 31
0.0
  0
LINE
  5
65A
330
1F
100
AcDbEntity
  8
2
  6
CONTINUOUS
370
25
 62
7
100
AcDbLine
 10
-43.99999999999999
 20
31.5
 30
0.0
 11
-42.99999999999999
 21
26.5
 31
0.0
  0
LINE
  5
65B
330
1F
100
AcDbEntity
  8
2
  6
CONTINUOUS
370
25
 62
7
100
AcDbLine
 10
-42.99999999999999
 20
26.5
 30
0.0
 11
-44.99999999999999
 21
26.5
 31
0.0
  0
LINE
  5
65C
330
1F
100
AcDbEntity
  8
2
  6
CONTINUOUS
370
25
 62
7
100
AcDbLine
 10
-44.99999999999999
 20
26.5
 30
0.0
 11
-43.99999999999999
 21
31.5
 31
0.0
  0
LINE
  5
65D
330
1F
100
AcDbEntity
  8
2
  6
CONTINUOUS
370
25
 62
7
100
AcDbLine
 10
-43.07930726875628
 20
26.5
 30
0.0
 11
-43.01321787812604
 21
26.56608939063024
 31
0.0
  0
LINE
  5
65E
330
1F
100
AcDbEntity
  8
2
  6
CONTINUOUS
370
25
 62
7
100
AcDbLine
 10
-43.50357133746822
 20
26.5
 30
0.0
 11
-43.08392855624469
 21
26.91964278122352
 31
0.0
  0
LINE
  5
65F
330
1F
100
AcDbEntity
  8
2
  6
CONTINUOUS
370
25
 62
7
100
AcDbLine
 10
-43.92783540618014
 20
26.5
 30
0.0
 11
-43.15463923436336
 21
27.27319617181679
 31
0.0
  0
LINE
  5
660
330
1F
100
AcDbEntity
  8
2
  6
CONTINUOUS
370
25
 62
7
100
AcDbLine
 10
-44.35209947489209
 20
26.5
 30
0.0
 11
-43.22534991248202
 21
27.62674956241008
 31
0.0
  0
LINE
  5
661
330
1F
100
AcDbEntity
  8
2
  6
CONTINUOUS
370
25
 62
7
100
AcDbLine
 10
-44.77636354360401
 20
26.5
 30
0.0
 11
-43.29606059060067
 21
27.98030295300335
 31
0.0
  0
LINE
  5
662
330
1F
100
AcDbEntity
  8
2
  6
CONTINUOUS
370
25
 62
7
100
AcDbLine
 10
-44.94984309692101
 20
26.75078451539495
 30
0.0
 11
-43.36677126871932
 21
28.33385634359664
 31
0.0
  0
LINE
  5
663
330
1F
100
AcDbEntity
  8
2
  6
CONTINUOUS
370
25
 62
7
100
AcDbLine
 10
-44.84377707974302
 20
27.28111460128486
 30
0.0
 11
-43.43748194683798
 21
28.68740973418991
 31
0.0
  0
LINE
  5
664
330
1F
100
AcDbEntity
  8
2
  6
CONTINUOUS
370
25
 62
7
100
AcDbLine
 10
-44.73771106256504
 20
27.81144468717477
 30
0.0
 11
-43.50819262495664
 21
29.04096312478318
 31
0.0
  0
LINE
  5
665
330
1F
100
AcDbEntity
  8
2
  6
CONTINUOUS
370
25
 62
7
100
AcDbLine
 10
-44.63164504538706
 20
28.34177477306469
 30
0.0
 11
-43.57890330307529
 21
29.39451651537646
 31
0.0
  0
LINE
  5
666
330
1F
100
AcDbEntity
  8
2
  6
CONTINUOUS
370
25
 62
7
100
AcDbLine
 10
-44.52557902820907
 20
28.87210485895461
 30
0.0
 11
-43.64961398119394
 21
29.74806990596975
 31
0.0
  0
LINE
  5
667
330
1F
100
AcDbEntity
  8
2
  6
CONTINUOUS
370
25
 62
7
100
AcDbLine
 10
-44.41951301103109
 20
29.40243494484452
 30
0.0
 11
-43.7203246593126
 21
30.10162329656302
 31
0.0
  0
LINE
  5
668
330
1F
100
AcDbEntity
  8
2
  6
CONTINUOUS
370
25
 62
7
100
AcDbLine
 10
-44.31344699385311
 20
29.93276503073444
 30
0.0
 11
-43.79103533743126
 21
30.45517668715628
 31
0.0
  0
LINE
  5
669
330
1F
100
AcDbEntity
  8
2
  6
CONTINUOUS
370
25
 62
7
100
AcDbLine
 10
-44.20738097667513
 20
30.46309511662436
 30
0.0
 11
-43.8617460155499
 21
30.80873007774958
 31
0.0
  0
LINE
  5
66A
330
1F
100
AcDbEntity
  8
2
  6
CONTINUOUS
370
25
 62
7
100
AcDbLine
 10
-44.10131495949714
 20
30.99342520251427
 30
0.0
 11
-43.93245669366856
 21
31.16228346834285
 31
0.0
  0
LINE
  5
66B
330
1F
100
AcDbEntity
  8
2
  6
CONTINUOUS
370
25
 62
7
100
AcDbLine
 10
-44.98949053853799
 20
26.55254730731004
 30
0.0
 11
-44.93694323122795
 21
26.5
 31
0.0
  0
LINE
  5
66C
330
1F
100
AcDbEntity
  8
2
  6
CONTINUOUS
370
25
 62
7
100
AcDbLine
 10
-44.91877986041933
 20
26.90610069790332
 30
0.0
 11
-44.51267916251602
 21
26.5
 31
0.0
  0
LINE
  5
66D
330
1F
100
AcDbEntity
  8
2
  6
CONTINUOUS
370
25
 62
7
100
AcDbLine
 10
-44.84806918230068
 20
27.25965408849659
 30
0.0
 11
-44.08841509380409
 21
26.5
 31
0.0
  0
LINE
  5
66E
330
1F
100
AcDbEntity
  8
2
  6
CONTINUOUS
370
25
 62
7
100
AcDbLine
 10
-44.77735850418202
 20
27.61320747908987
 30
0.0
 11
-43.66415102509215
 21
26.5
 31
0.0
  0
LINE
  5
66F
330
1F
100
AcDbEntity
  8
2
  6
CONTINUOUS
370
25
 62
7
100
AcDbLine
 10
-44.70664782606337
 20
27.96676086968315
 30
0.0
 11
-43.23988695638022
 21
26.5
 31
0.0
  0
LINE
  5
670
330
1F
100
AcDbEntity
  8
2
  6
CONTINUOUS
370
25
 62
7
100
AcDbLine
 10
-44.63593714794471
 20
28.32031426027643
 30
0.0
 11
-43.04609427808293
 21
26.73047139041464
 31
0.0
  0
LINE
  5
671
330
1F
100
AcDbEntity
  8
2
  6
CONTINUOUS
370
25
 62
7
100
AcDbLine
 10
-44.56522646982605
 20
28.6738676508697
 30
0.0
 11
-43.15216029526091
 21
27.26080147630455
 31
0.0
  0
LINE
  5
672
330
1F
100
AcDbEntity
  8
2
  6
CONTINUOUS
370
25
 62
7
100
AcDbLine
 10
-44.4945157917074
 20
29.02742104146298
 30
0.0
 11
-43.25822631243889
 21
27.79113156219447
 31
0.0
  0
LINE
  5
673
330
1F
100
AcDbEntity
  8
2
  6
CONTINUOUS
370
25
 62
7
100
AcDbLine
 10
-44.42380511358873
 20
29.38097443205625
 30
0.0
 11
-43.36429232961687
 21
28.32146164808438
 31
0.0
  0
LINE
  5
674
330
1F
100
AcDbEntity
  8
2
  6
CONTINUOUS
370
25
 62
7
100
AcDbLine
 10
-44.35309443547008
 20
29.73452782264953
 30
0.0
 11
-43.47035834679485
 21
28.8517917339743
 31
0.0
  0
LINE
  5
675
330
1F
100
AcDbEntity
  8
2
  6
CONTINUOUS
370
25
 62
7
100
AcDbLine
 10
-44.28238375735143
 20
30.08808121324282
 30
0.0
 11
-43.57642436397283
 21
29.38212181986422
 31
0.0
  0
LINE
  5
676
330
1F
100
AcDbEntity
  8
2
  6
CONTINUOUS
370
25
 62
7
100
AcDbLine
 10
-44.21167307923277
 20
30.44163460383609
 30
0.0
 11
-43.68249038115082
 21
29.91245190575413
 31
0.0
  0
LINE
  5
677
330
1F
100
AcDbEntity
  8
2
  6
CONTINUOUS
370
25
 62
7
100
AcDbLine
 10
-44.14096240111412
 20
30.79518799442937
 30
0.0
 11
-43.78855639832881
 21
30.44278199164405
 31
0.0
  0
LINE
  5
678
330
1F
100
AcDbEntity
  8
2
  6
CONTINUOUS
370
25
 62
7
100
AcDbLine
 10
-44.07025172299547
 20
31.14874138502265
 30
0.0
 11
-43.89462241550678
 21
30.97311207753396
 31
0.0
  0
TEXT
  5
679
330
1F
100
AcDbEntity
  8
2
  6
CONTINUOUS
370
25
 62
7
100
AcDbText
 10
-45.5
 20
-0.641666666666667
 30
0.0
 40
3.5
  1
63
 50
90.0
 72
     1
 11
-45.5
 21
2.275
 31
0.0
100
AcDbText
  0
CIRCLE
  5
67A
330
1F
100
AcDbEntity
  8
2
  6
CONTINUOUS
370
25
 62
7
100
AcDbCircle
 10
-47.25
 20
-2.625
 30
0.0
 40
1.4
  0
LINE
  5
67B
330
1F
100
AcDbEntity
  8
2
  6
CONTINUOUS
370
25
 62
7
100
AcDbLine
 10
-45.85
 20
-4.024999999999999
 30
0.0
 11
-48.65
 21
-1.224999999999999
 31
0.0
  0
LINE
  5
67C
330
1F
100
AcDbEntity
  8
2
  6
CONTINUOUS
370
25
 62
7
100
AcDbLine
 10
0.0
 20
-31.5
 30
0.0
 11
-0.0000000000000008
 21
-44.5
 31
0.0
  0
LINE
  5
67D
330
1F
100
AcDbEntity
  8
2
  6
CONTINUOUS
370
25
 62
7
100
AcDbLine
 10
26.0
 20
-44.5
 30
0.0
 11
26.0
 21
-31.5
 31
0.0
  0
LINE
  5
67E
330
1F
100
AcDbEntity
  8
2
  6
CONTINUOUS
370
25
 62
7
100
AcDbLine
 10
0.0
 20
-43.5
 30
0.0
 11
26.0
 21
-43.5
 31
0.0
  0
LINE
  5
67F
330
1F
100
AcDbEntity
  8
2
  6
CONTINUOUS
370
25
 62
7
100
AcDbLine
 10
0.0
 20
-43.5
 30
0.0
 11
5.0
 21
-42.5
 31
0.0
  0
LINE
  5
680
330
1F
100
AcDbEntity
  8
2
  6
CONTINUOUS
370
25
 62
7
100
AcDbLine
 10
5.0
 20
-42.5
 30
0.0
 11
5.0
 21
-44.5
 31
0.0
  0
LINE
  5
681
330
1F
100
AcDbEntity
  8
2
  6
CONTINUOUS
370
25
 62
7
100
AcDbLine
 10
5.0
 20
-44.5
 30
0.0
 11
0.0
 21
-43.5
 31
0.0
  0
LINE
  5
682
330
1F
100
AcDbEntity
  8
2
  6
CONTINUOUS
370
25
 62
7
100
AcDbLine
 10
4.971388512714353
 20
-44.49427770254287
 30
0.0
 11
5.0
 21
-44.46566621525722
 31
0.0
  0
LINE
  5
683
330
1F
100
AcDbEntity
  8
2
  6
CONTINUOUS
370
25
 62
7
100
AcDbLine
 10
4.617835122121074
 20
-44.42356702442422
 30
0.0
 11
5.0
 21
-44.04140214654529
 31
0.0
  0
LINE
  5
684
330
1F
100
AcDbEntity
  8
2
  6
CONTINUOUS
370
25
 62
7
100
AcDbLine
 10
4.264281731527801
 20
-44.35285634630556
 30
0.0
 11
5.0
 21
-43.61713807783336
 31
0.0
  0
LINE
  5
685
330
1F
100
AcDbEntity
  8
2
  6
CONTINUOUS
370
25
 62
7
100
AcDbLine
 10
3.910728340934523
 20
-44.28214566818691
 30
0.0
 11
5.0
 21
-43.19287400912143
 31
0.0
  0
LINE
  5
686
330
1F
100
AcDbEntity
  8
2
  6
CONTINUOUS
370
25
 62
7
100
AcDbLine
 10
3.55717495034125
 20
-44.21143499006825
 30
0.0
 11
5.0
 21
-42.7686099404095
 31
0.0
  0
LINE
  5
687
330
1F
100
AcDbEntity
  8
2
  6
CONTINUOUS
370
25
 62
7
100
AcDbLine
 10
3.20362155974797
 20
-44.1407243119496
 30
0.0
 11
4.805432339621957
 21
-42.53891353207561
 31
0.0
  0
LINE
  5
688
330
1F
100
AcDbEntity
  8
2
  6
CONTINUOUS
370
25
 62
7
100
AcDbLine
 10
2.850068169154698
 20
-44.07001363383094
 30
0.0
 11
4.275102253732048
 21
-42.64497954925359
 31
0.0
  0
LINE
  5
689
330
1F
100
AcDbEntity
  8
2
  6
CONTINUOUS
370
25
 62
7
100
AcDbLine
 10
2.496514778561418
 20
-43.99930295571228
 30
0.0
 11
3.744772167842129
 21
-42.75104556643157
 31
0.0
  0
LINE
  5
68A
330
1F
100
AcDbEntity
  8
2
  6
CONTINUOUS
370
25
 62
7
100
AcDbLine
 10
2.142961387968145
 20
-43.92859227759363
 30
0.0
 11
3.214442081952219
 21
-42.85711158360956
 31
0.0
  0
LINE
  5
68B
330
1F
100
AcDbEntity
  8
2
  6
CONTINUOUS
370
25
 62
7
100
AcDbLine
 10
1.789407997374866
 20
-43.85788159947497
 30
0.0
 11
2.6841119960623
 21
-42.96317760078754
 31
0.0
  0
LINE
  5
68C
330
1F
100
AcDbEntity
  8
2
  6
CONTINUOUS
370
25
 62
7
100
AcDbLine
 10
1.435854606781592
 20
-43.78717092135632
 30
0.0
 11
2.15378191017239
 21
-43.06924361796552
 31
0.0
  0
LINE
  5
68D
330
1F
100
AcDbEntity
  8
2
  6
CONTINUOUS
370
25
 62
7
100
AcDbLine
 10
1.082301216188314
 20
-43.71646024323766
 30
0.0
 11
1.623451824282471
 21
-43.17530963514351
 31
0.0
  0
LINE
  5
68E
330
1F
100
AcDbEntity
  8
2
  6
CONTINUOUS
370
25
 62
7
100
AcDbLine
 10
0.7287478255950403
 20
-43.64574956511901
 30
0.0
 11
1.093121738392561
 21
-43.28137565232149
 31
0.0
  0
LINE
  5
68F
330
1F
100
AcDbEntity
  8
2
  6
CONTINUOUS
370
25
 62
7
100
AcDbLine
 10
0.375194435001761
 20
-43.57503888700035
 30
0.0
 11
0.5627916525026418
 21
-43.38744166949947
 31
0.0
  0
LINE
  5
690
330
1F
100
AcDbEntity
  8
2
  6
CONTINUOUS
370
25
 62
7
100
AcDbLine
 10
0.0216410444084877
 20
-43.5043282088817
 30
0.0
 11
0.0324615666127315
 21
-43.49350768667745
 31
0.0
  0
LINE
  5
691
330
1F
100
AcDbEntity
  8
2
  6
CONTINUOUS
370
25
 62
7
100
AcDbLine
 10
0.1799643052795061
 20
-43.4640071389441
 30
0.0
 11
0.2699464579192593
 21
-43.55398929158385
 31
0.0
  0
LINE
  5
692
330
1F
100
AcDbEntity
  8
2
  6
CONTINUOUS
370
25
 62
7
100
AcDbLine
 10
0.5335176958727852
 20
-43.39329646082544
 30
0.0
 11
0.8002765438091781
 21
-43.66005530876183
 31
0.0
  0
LINE
  5
693
330
1F
100
AcDbEntity
  8
2
  6
CONTINUOUS
370
25
 62
7
100
AcDbLine
 10
0.8870710864660584
 20
-43.32258578270679
 30
0.0
 11
1.330606629699088
 21
-43.76612132593982
 31
0.0
  0
LINE
  5
694
330
1F
100
AcDbEntity
  8
2
  6
CONTINUOUS
370
25
 62
7
100
AcDbLine
 10
1.240624477059338
 20
-43.25187510458813
 30
0.0
 11
1.860936715589007
 21
-43.8721873431178
 31
0.0
  0
LINE
  5
695
330
1F
100
AcDbEntity
  8
2
  6
CONTINUOUS
370
25
 62
7
100
AcDbLine
 10
1.59417786765261
 20
-43.18116442646948
 30
0.0
 11
2.391266801478916
 21
-43.97825336029578
 31
0.0
  0
LINE
  5
696
330
1F
100
AcDbEntity
  8
2
  6
CONTINUOUS
370
25
 62
7
100
AcDbLine
 10
1.947731258245889
 20
-43.11045374835082
 30
0.0
 11
2.921596887368835
 21
-44.08431937747377
 31
0.0
  0
LINE
  5
697
330
1F
100
AcDbEntity
  8
2
  6
CONTINUOUS
370
25
 62
7
100
AcDbLine
 10
2.301284648839163
 20
-43.03974307023217
 30
0.0
 11
3.451926973258745
 21
-44.19038539465175
 31
0.0
  0
LINE
  5
698
330
1F
100
AcDbEntity
  8
2
  6
CONTINUOUS
370
25
 62
7
100
AcDbLine
 10
2.654838039432442
 20
-42.96903239211351
 30
0.0
 11
3.982257059148663
 21
-44.29645141182974
 31
0.0
  0
LINE
  5
699
330
1F
100
AcDbEntity
  8
2
  6
CONTINUOUS
370
25
 62
7
100
AcDbLine
 10
3.008391430025715
 20
-42.89832171399486
 30
0.0
 11
4.512587145038574
 21
-44.40251742900772
 31
0.0
  0
LINE
  5
69A
330
1F
100
AcDbEntity
  8
2
  6
CONTINUOUS
370
25
 62
7
100
AcDbLine
 10
3.361944820618994
 20
-42.8276110358762
 30
0.0
 11
5.0
 21
-44.46566621525721
 31
0.0
  0
LINE
  5
69B
330
1F
100
AcDbEntity
  8
2
  6
CONTINUOUS
370
25
 62
7
100
AcDbLine
 10
3.715498211212267
 20
-42.75690035775754
 30
0.0
 11
5.0
 21
-44.04140214654528
 31
0.0
  0
LINE
  5
69C
330
1F
100
AcDbEntity
  8
2
  6
CONTINUOUS
370
25
 62
7
100
AcDbLine
 10
4.069051601805546
 20
-42.68618967963889
 30
0.0
 11
5.0
 21
-43.61713807783335
 31
0.0
  0
LINE
  5
69D
330
1F
100
AcDbEntity
  8
2
  6
CONTINUOUS
370
25
 62
7
100
AcDbLine
 10
4.422604992398819
 20
-42.61547900152024
 30
0.0
 11
5.0
 21
-43.19287400912142
 31
0.0
  0
LINE
  5
69E
330
1F
100
AcDbEntity
  8
2
  6
CONTINUOUS
370
25
 62
7
100
AcDbLine
 10
4.776158382992098
 20
-42.54476832340158
 30
0.0
 11
5.0
 21
-42.76860994040948
 31
0.0
  0
LINE
  5
69F
330
1F
100
AcDbEntity
  8
2
  6
CONTINUOUS
370
25
 62
7
100
AcDbLine
 10
26.0
 20
-43.5
 30
0.0
 11
21.0
 21
-44.5
 31
0.0
  0
LINE
  5
6A0
330
1F
100
AcDbEntity
  8
2
  6
CONTINUOUS
370
25
 62
7
100
AcDbLine
 10
21.0
 20
-44.5
 30
0.0
 11
21.0
 21
-42.5
 31
0.0
  0
LINE
  5
6A1
330
1F
100
AcDbEntity
  8
2
  6
CONTINUOUS
370
25
 62
7
100
AcDbLine
 10
21.0
 20
-42.5
 30
0.0
 11
26.0
 21
-43.5
 31
0.0
  0
LINE
  5
6A2
330
1F
100
AcDbEntity
  8
2
  6
CONTINUOUS
370
25
 62
7
100
AcDbLine
 10
25.87991830279612
 20
-43.52401633944078
 30
0.0
 11
25.91994553519741
 21
-43.48398910703948
 31
0.0
  0
LINE
  5
6A3
330
1F
100
AcDbEntity
  8
2
  6
CONTINUOUS
370
25
 62
7
100
AcDbLine
 10
25.3495882169062
 20
-43.63008235661876
 30
0.0
 11
25.56639214460414
 21
-43.41327842892083
 31
0.0
  0
LINE
  5
6A4
330
1F
100
AcDbEntity
  8
2
  6
CONTINUOUS
370
25
 62
7
100
AcDbLine
 10
24.8192581310163
 20
-43.73614837379674
 30
0.0
 11
25.21283875401087
 21
-43.34256775080217
 31
0.0
  0
LINE
  5
6A5
330
1F
100
AcDbEntity
  8
2
  6
CONTINUOUS
370
25
 62
7
100
AcDbLine
 10
24.28892804512638
 20
-43.84221439097472
 30
0.0
 11
24.85928536341759
 21
-43.27185707268352
 31
0.0
  0
LINE
  5
6A6
330
1F
100
AcDbEntity
  8
2
  6
CONTINUOUS
370
25
 62
7
100
AcDbLine
 10
23.75859795923646
 20
-43.94828040815271
 30
0.0
 11
24.50573197282431
 21
-43.20114639456486
 31
0.0
  0
LINE
  5
6A7
330
1F
100
AcDbEntity
  8
2
  6
CONTINUOUS
370
25
 62
7
100
AcDbLine
 10
23.22826787334654
 20
-44.05434642533069
 30
0.0
 11
24.15217858223103
 21
-43.1304357164462
 31
0.0
  0
LINE
  5
6A8
330
1F
100
AcDbEntity
  8
2
  6
CONTINUOUS
370
25
 62
7
100
AcDbLine
 10
22.69793778745662
 20
-44.16041244250867
 30
0.0
 11
23.79862519163775
 21
-43.05972503832755
 31
0.0
  0
LINE
  5
6A9
330
1F
100
AcDbEntity
  8
2
  6
CONTINUOUS
370
25
 62
7
100
AcDbLine
 10
22.16760770156672
 20
-44.26647845968665
 30
0.0
 11
23.44507180104448
 21
-42.9890143602089
 31
0.0
  0
LINE
  5
6AA
330
1F
100
AcDbEntity
  8
2
  6
CONTINUOUS
370
25
 62
7
100
AcDbLine
 10
21.6372776156768
 20
-44.37254447686465
 30
0.0
 11
23.0915184104512
 21
-42.91830368209024
 31
0.0
  0
LINE
  5
6AB
330
1F
100
AcDbEntity
  8
2
  6
CONTINUOUS
370
25
 62
7
100
AcDbLine
 10
21.10694752978688
 20
-44.47861049404263
 30
0.0
 11
22.73796501985792
 21
-42.84759300397158
 31
0.0
  0
LINE
  5
6AC
330
1F
100
AcDbEntity
  8
2
  6
CONTINUOUS
370
25
 62
7
100
AcDbLine
 10
21.0
 20
-44.16129395511759
 30
0.0
 11
22.38441162926466
 21
-42.77688232585293
 31
0.0
  0
LINE
  5
6AD
330
1F
100
AcDbEntity
  8
2
  6
CONTINUOUS
370
25
 62
7
100
AcDbLine
 10
21.0
 20
-43.73702988640565
 30
0.0
 11
22.03085823867138
 21
-42.70617164773428
 31
0.0
  0
LINE
  5
6AE
330
1F
100
AcDbEntity
  8
2
  6
CONTINUOUS
370
25
 62
7
100
AcDbLine
 10
21.0
 20
-43.31276581769372
 30
0.0
 11
21.6773048480781
 21
-42.63546096961562
 31
0.0
  0
LINE
  5
6AF
330
1F
100
AcDbEntity
  8
2
  6
CONTINUOUS
370
25
 62
7
100
AcDbLine
 10
21.0
 20
-42.88850174898178
 30
0.0
 11
21.32375145748482
 21
-42.56475029149696
 31
0.0
  0
LINE
  5
6B0
330
1F
100
AcDbEntity
  8
2
  6
CONTINUOUS
370
25
 62
7
100
AcDbLine
 10
21.0
 20
-44.34577440668498
 30
0.0
 11
21.12852132776252
 21
-44.47429573444749
 31
0.0
  0
LINE
  5
6B1
330
1F
100
AcDbEntity
  8
2
  6
CONTINUOUS
370
25
 62
7
100
AcDbLine
 10
21.0
 20
-43.92151033797305
 30
0.0
 11
21.4820747183558
 21
-44.40358505632884
 31
0.0
  0
LINE
  5
6B2
330
1F
100
AcDbEntity
  8
2
  6
CONTINUOUS
370
25
 62
7
100
AcDbLine
 10
21.0
 20
-43.49724626926112
 30
0.0
 11
21.83562810894907
 21
-44.33287437821019
 31
0.0
  0
LINE
  5
6B3
330
1F
100
AcDbEntity
  8
2
  6
CONTINUOUS
370
25
 62
7
100
AcDbLine
 10
21.0
 20
-43.07298220054919
 30
0.0
 11
22.18918149954235
 21
-44.26216370009153
 31
0.0
  0
LINE
  5
6B4
330
1F
100
AcDbEntity
  8
2
  6
CONTINUOUS
370
25
 62
7
100
AcDbLine
 10
21.0
 20
-42.64871813183726
 30
0.0
 11
22.54273489013562
 21
-44.19145302197288
 31
0.0
  0
LINE
  5
6B5
330
1F
100
AcDbEntity
  8
2
  6
CONTINUOUS
370
25
 62
7
100
AcDbLine
 10
21.34443242109334
 20
-42.56888648421867
 30
0.0
 11
22.8962882807289
 21
-44.12074234385422
 31
0.0
  0
LINE
  5
6B6
330
1F
100
AcDbEntity
  8
2
  6
CONTINUOUS
370
25
 62
7
100
AcDbLine
 10
21.87476250698325
 20
-42.67495250139665
 30
0.0
 11
23.24984167132218
 21
-44.05003166573557
 31
0.0
  0
LINE
  5
6B7
330
1F
100
AcDbEntity
  8
2
  6
CONTINUOUS
370
25
 62
7
100
AcDbLine
 10
22.40509259287317
 20
-42.78101851857463
 30
0.0
 11
23.60339506191545
 21
-43.97932098761692
 31
0.0
  0
LINE
  5
6B8
330
1F
100
AcDbEntity
  8
2
  6
CONTINUOUS
370
25
 62
7
100
AcDbLine
 10
22.93542267876308
 20
-42.88708453575261
 30
0.0
 11
23.95694845250873
 21
-43.90861030949826
 31
0.0
  0
LINE
  5
6B9
330
1F
100
AcDbEntity
  8
2
  6
CONTINUOUS
370
25
 62
7
100
AcDbLine
 10
23.465752764653
 20
-42.9931505529306
 30
0.0
 11
24.31050184310201
 21
-43.8378996313796
 31
0.0
  0
LINE
  5
6BA
330
1F
100
AcDbEntity
  8
2
  6
CONTINUOUS
370
25
 62
7
100
AcDbLine
 10
23.99608285054291
 20
-43.09921657010858
 30
0.0
 11
24.66405523369528
 21
-43.76718895326095
 31
0.0
  0
LINE
  5
6BB
330
1F
100
AcDbEntity
  8
2
  6
CONTINUOUS
370
25
 62
7
100
AcDbLine
 10
24.52641293643283
 20
-43.20528258728656
 30
0.0
 11
25.01760862428856
 21
-43.69647827514229
 31
0.0
  0
LINE
  5
6BC
330
1F
100
AcDbEntity
  8
2
  6
CONTINUOUS
370
25
 62
7
100
AcDbLine
 10
25.05674302232274
 20
-43.31134860446454
 30
0.0
 11
25.37116201488183
 21
-43.62576759702364
 31
0.0
  0
LINE
  5
6BD
330
1F
100
AcDbEntity
  8
2
  6
CONTINUOUS
370
25
 62
7
100
AcDbLine
 10
25.58707310821266
 20
-43.41741462164253
 30
0.0
 11
25.72471540547511
 21
-43.55505691890498
 31
0.0
  0
TEXT
  5
6BE
330
1F
100
AcDbEntity
  8
2
  6
CONTINUOUS
370
25
 62
7
100
AcDbText
 10
10.08333333333333
 20
-42.0
 30
0.0
 40
3.5
  1
26
 72
     1
 11
13.0
 21
-42.0
 31
0.0
100
AcDbText
  0
LINE
  5
6BF
330
1F
100
AcDbEntity
  8
SK2
  6
CONTINUOUS
370
25
 62
7
100
AcDbLine
 10
-32.0
 20
24.005
 30
0.0
 11
-32.0
 21
44.5
 31
0.0
  0
LINE
  5
6C0
330
1F
100
AcDbEntity
  8
SK2
  6
CONTINUOUS
370
25
 62
7
100
AcDbLine
 10
0.0000000000000001
 20
44.5
 30
0.0
 11
-0.0000000000000007
 21
31.5
 31
0.0
  0
LINE
  5
6C1
330
1F
100
AcDbEntity
  8
SK2
  6
CONTINUOUS
370
25
 62
7
100
AcDbLine
 10
-32.0
 20
43.5
 30
0.0
 11
0.0
 21
43.5
 31
0.0
  0
LINE
  5
6C2
330
1F
100
AcDbEntity
  8
SK2
  6
CONTINUOUS
370
25
 62
7
100
AcDbLine
 10
-32.0
 20
43.5
 30
0.0
 11
-27.0
 21
44.5
 31
0.0
  0
LINE
  5
6C3
330
1F
100
AcDbEntity
  8
SK2
  6
CONTINUOUS
370
25
 62
7
100
AcDbLine
 10
-27.0
 20
44.5
 30
0.0
 11
-27.0
 21
42.5
 31
0.0
  0
LINE
  5
6C4
330
1F
100
AcDbEntity
  8
SK2
  6
CONTINUOUS
370
25
 62
7
100
AcDbLine
 10
-27.0
 20
42.5
 30
0.0
 11
-32.0
 21
43.5
 31
0.0
  0
LINE
  5
6C5
330
1F
100
AcDbEntity
  8
SK2
  6
CONTINUOUS
370
25
 62
7
100
AcDbLine
 10
-27.06608939063024
 20
42.51321787812606
 30
0.0
 11
-27.0
 21
42.5793072687563
 31
0.0
  0
LINE
  5
6C6
330
1F
100
AcDbEntity
  8
SK2
  6
CONTINUOUS
370
25
 62
7
100
AcDbLine
 10
-27.41964278122352
 20
42.58392855624471
 30
0.0
 11
-27.0
 21
43.00357133746822
 31
0.0
  0
LINE
  5
6C7
330
1F
100
AcDbEntity
  8
SK2
  6
CONTINUOUS
370
25
 62
7
100
AcDbLine
 10
-27.7731961718168
 20
42.65463923436336
 30
0.0
 11
-27.0
 21
43.42783540618015
 31
0.0
  0
LINE
  5
6C8
330
1F
100
AcDbEntity
  8
SK2
  6
CONTINUOUS
370
25
 62
7
100
AcDbLine
 10
-28.12674956241007
 20
42.72534991248202
 30
0.0
 11
-27.0
 21
43.85209947489209
 31
0.0
  0
LINE
  5
6C9
330
1F
100
AcDbEntity
  8
SK2
  6
CONTINUOUS
370
25
 62
7
100
AcDbLine
 10
-28.48030295300335
 20
42.79606059060067
 30
0.0
 11
-27.0
 21
44.27636354360401
 31
0.0
  0
LINE
  5
6CA
330
1F
100
AcDbEntity
  8
SK2
  6
CONTINUOUS
370
25
 62
7
100
AcDbLine
 10
-28.83385634359662
 20
42.86677126871933
 30
0.0
 11
-27.25078451539494
 21
44.44984309692101
 31
0.0
  0
LINE
  5
6CB
330
1F
100
AcDbEntity
  8
SK2
  6
CONTINUOUS
370
25
 62
7
100
AcDbLine
 10
-29.1874097341899
 20
42.93748194683798
 30
0.0
 11
-27.78111460128485
 21
44.34377707974303
 31
0.0
  0
LINE
  5
6CC
330
1F
100
AcDbEntity
  8
SK2
  6
CONTINUOUS
370
25
 62
7
100
AcDbLine
 10
-29.54096312478318
 20
43.00819262495664
 30
0.0
 11
-28.31144468717477
 21
44.23771106256505
 31
0.0
  0
LINE
  5
6CD
330
1F
100
AcDbEntity
  8
SK2
  6
CONTINUOUS
370
25
 62
7
100
AcDbLine
 10
-29.89451651537646
 20
43.07890330307529
 30
0.0
 11
-28.84177477306469
 21
44.13164504538706
 31
0.0
  0
LINE
  5
6CE
330
1F
100
AcDbEntity
  8
SK2
  6
CONTINUOUS
370
25
 62
7
100
AcDbLine
 10
-30.24806990596973
 20
43.14961398119395
 30
0.0
 11
-29.3721048589546
 21
44.02557902820908
 31
0.0
  0
LINE
  5
6CF
330
1F
100
AcDbEntity
  8
SK2
  6
CONTINUOUS
370
25
 62
7
100
AcDbLine
 10
-30.60162329656301
 20
43.2203246593126
 30
0.0
 11
-29.90243494484452
 21
43.9195130110311
 31
0.0
  0
LINE
  5
6D0
330
1F
100
AcDbEntity
  8
SK2
  6
CONTINUOUS
370
25
 62
7
100
AcDbLine
 10
-30.95517668715629
 20
43.29103533743126
 30
0.0
 11
-30.43276503073444
 21
43.81344699385311
 31
0.0
  0
LINE
  5
6D1
330
1F
100
AcDbEntity
  8
SK2
  6
CONTINUOUS
370
25
 62
7
100
AcDbLine
 10
-31.30873007774957
 20
43.36174601554991
 30
0.0
 11
-30.96309511662436
 21
43.70738097667513
 31
0.0
  0
LINE
  5
6D2
330
1F
100
AcDbEntity
  8
SK2
  6
CONTINUOUS
370
25
 62
7
100
AcDbLine
 10
-31.66228346834285
 20
43.43245669366857
 30
0.0
 11
-31.49342520251428
 21
43.60131495949714
 31
0.0
  0
LINE
  5
6D3
330
1F
100
AcDbEntity
  8
SK2
  6
CONTINUOUS
370
25
 62
7
100
AcDbLine
 10
-31.68383839672179
 20
43.56323232065564
 30
0.0
 11
-31.52575759508269
 21
43.40515151901654
 31
0.0
  0
LINE
  5
6D4
330
1F
100
AcDbEntity
  8
SK2
  6
CONTINUOUS
370
25
 62
7
100
AcDbLine
 10
-31.33028500612852
 20
43.6339429987743
 30
0.0
 11
-30.99542750919277
 21
43.29908550183855
 31
0.0
  0
LINE
  5
6D5
330
1F
100
AcDbEntity
  8
SK2
  6
CONTINUOUS
370
25
 62
7
100
AcDbLine
 10
-30.97673161553524
 20
43.70465367689295
 30
0.0
 11
-30.46509742330286
 21
43.19301948466057
 31
0.0
  0
LINE
  5
6D6
330
1F
100
AcDbEntity
  8
SK2
  6
CONTINUOUS
370
25
 62
7
100
AcDbLine
 10
-30.62317822494197
 20
43.7753643550116
 30
0.0
 11
-29.93476733741295
 21
43.08695346748259
 31
0.0
  0
LINE
  5
6D7
330
1F
100
AcDbEntity
  8
SK2
  6
CONTINUOUS
370
25
 62
7
100
AcDbLine
 10
-30.26962483434869
 20
43.84607503313026
 30
0.0
 11
-29.40443725152304
 21
42.98088745030461
 31
0.0
  0
LINE
  5
6D8
330
1F
100
AcDbEntity
  8
SK2
  6
CONTINUOUS
370
25
 62
7
100
AcDbLine
 10
-29.91607144375541
 20
43.91678571124892
 30
0.0
 11
-28.87410716563312
 21
42.87482143312663
 31
0.0
  0
LINE
  5
6D9
330
1F
100
AcDbEntity
  8
SK2
  6
CONTINUOUS
370
25
 62
7
100
AcDbLine
 10
-29.56251805316213
 20
43.98749638936758
 30
0.0
 11
-28.34377707974321
 21
42.76875541594865
 31
0.0
  0
LINE
  5
6DA
330
1F
100
AcDbEntity
  8
SK2
  6
CONTINUOUS
370
25
 62
7
100
AcDbLine
 10
-29.20896466256886
 20
44.05820706748623
 30
0.0
 11
-27.81344699385329
 21
42.66268939877066
 31
0.0
  0
LINE
  5
6DB
330
1F
100
AcDbEntity
  8
SK2
  6
CONTINUOUS
370
25
 62
7
100
AcDbLine
 10
-28.85541127197558
 20
44.12891774560488
 30
0.0
 11
-27.28311690796338
 21
42.55662338159267
 31
0.0
  0
LINE
  5
6DC
330
1F
100
AcDbEntity
  8
SK2
  6
CONTINUOUS
370
25
 62
7
100
AcDbLine
 10
-28.5018578813823
 20
44.19962842372354
 30
0.0
 11
-27.0
 21
42.69777054234123
 31
0.0
  0
LINE
  5
6DD
330
1F
100
AcDbEntity
  8
SK2
  6
CONTINUOUS
370
25
 62
7
100
AcDbLine
 10
-28.14830449078903
 20
44.2703391018422
 30
0.0
 11
-27.0
 21
43.12203461105317
 31
0.0
  0
LINE
  5
6DE
330
1F
100
AcDbEntity
  8
SK2
  6
CONTINUOUS
370
25
 62
7
100
AcDbLine
 10
-27.79475110019575
 20
44.34104977996085
 30
0.0
 11
-27.0
 21
43.5462986797651
 31
0.0
  0
LINE
  5
6DF
330
1F
100
AcDbEntity
  8
SK2
  6
CONTINUOUS
370
25
 62
7
100
AcDbLine
 10
-27.44119770960247
 20
44.41176045807951
 30
0.0
 11
-27.0
 21
43.97056274847704
 31
0.0
  0
LINE
  5
6E0
330
1F
100
AcDbEntity
  8
SK2
  6
CONTINUOUS
370
25
 62
7
100
AcDbLine
 10
-27.08764431900919
 20
44.48247113619816
 30
0.0
 11
-27.0
 21
44.39482681718897
 31
0.0
  0
LINE
  5
6E1
330
1F
100
AcDbEntity
  8
SK2
  6
CONTINUOUS
370
25
 62
7
100
AcDbLine
 10
0.0
 20
43.5
 30
0.0
 11
-5.0
 21
42.5
 31
0.0
  0
LINE
  5
6E2
330
1F
100
AcDbEntity
  8
SK2
  6
CONTINUOUS
370
25
 62
7
100
AcDbLine
 10
-5.0
 20
42.5
 30
0.0
 11
-5.0
 21
44.5
 31
0.0
  0
LINE
  5
6E3
330
1F
100
AcDbEntity
  8
SK2
  6
CONTINUOUS
370
25
 62
7
100
AcDbLine
 10
-5.0
 20
44.5
 30
0.0
 11
0.0
 21
43.5
 31
0.0
  0
LINE
  5
6E4
330
1F
100
AcDbEntity
  8
SK2
  6
CONTINUOUS
370
25
 62
7
100
AcDbLine
 10
-0.2489988466607596
 20
43.45020023066785
 30
0.0
 11
-0.1659992311071731
 21
43.53319984622144
 31
0.0
  0
LINE
  5
6E5
330
1F
100
AcDbEntity
  8
SK2
  6
CONTINUOUS
370
25
 62
7
100
AcDbLine
 10
-0.779328932550678
 20
43.34413421348987
 30
0.0
 11
-0.519552621700452
 21
43.60391052434009
 31
0.0
  0
LINE
  5
6E6
330
1F
100
AcDbEntity
  8
SK2
  6
CONTINUOUS
370
25
 62
7
100
AcDbLine
 10
-1.309659018440588
 20
43.23806819631189
 30
0.0
 11
-0.8731060122937251
 21
43.67462120245875
 31
0.0
  0
LINE
  5
6E7
330
1F
100
AcDbEntity
  8
SK2
  6
CONTINUOUS
370
25
 62
7
100
AcDbLine
 10
-1.839989104330506
 20
43.1320021791339
 30
0.0
 11
-1.226659402887004
 21
43.7453318805774
 31
0.0
  0
LINE
  5
6E8
330
1F
100
AcDbEntity
  8
SK2
  6
CONTINUOUS
370
25
 62
7
100
AcDbLine
 10
-2.370319190220416
 20
43.02593616195592
 30
0.0
 11
-1.580212793480277
 21
43.81604255869605
 31
0.0
  0
LINE
  5
6E9
330
1F
100
AcDbEntity
  8
SK2
  6
CONTINUOUS
370
25
 62
7
100
AcDbLine
 10
-2.900649276110333
 20
42.91987014477793
 30
0.0
 11
-1.933766184073556
 21
43.88675323681471
 31
0.0
  0
LINE
  5
6EA
330
1F
100
AcDbEntity
  8
SK2
  6
CONTINUOUS
370
25
 62
7
100
AcDbLine
 10
-3.430979362000251
 20
42.81380412759995
 30
0.0
 11
-2.287319574666835
 21
43.95746391493337
 31
0.0
  0
LINE
  5
6EB
330
1F
100
AcDbEntity
  8
SK2
  6
CONTINUOUS
370
25
 62
7
100
AcDbLine
 10
-3.961309447890161
 20
42.70773811042197
 30
0.0
 11
-2.640872965260108
 21
44.02817459305202
 31
0.0
  0
LINE
  5
6EC
330
1F
100
AcDbEntity
  8
SK2
  6
CONTINUOUS
370
25
 62
7
100
AcDbLine
 10
-4.491639533780078
 20
42.60167209324398
 30
0.0
 11
-2.994426355853386
 21
44.09888527117068
 31
0.0
  0
LINE
  5
6ED
330
1F
100
AcDbEntity
  8
SK2
  6
CONTINUOUS
370
25
 62
7
100
AcDbLine
 10
-5.0
 20
42.51757569573599
 30
0.0
 11
-3.347979746446659
 21
44.16959594928933
 31
0.0
  0
LINE
  5
6EE
330
1F
100
AcDbEntity
  8
SK2
  6
CONTINUOUS
370
25
 62
7
100
AcDbLine
 10
-5.0
 20
42.94183976444793
 30
0.0
 11
-3.701533137039938
 21
44.24030662740799
 31
0.0
  0
LINE
  5
6EF
330
1F
100
AcDbEntity
  8
SK2
  6
CONTINUOUS
370
25
 62
7
100
AcDbLine
 10
-5.0
 20
43.36610383315985
 30
0.0
 11
-4.055086527633211
 21
44.31101730552664
 31
0.0
  0
LINE
  5
6F0
330
1F
100
AcDbEntity
  8
SK2
  6
CONTINUOUS
370
25
 62
7
100
AcDbLine
 10
-5.0
 20
43.79036790187179
 30
0.0
 11
-4.408639918226489
 21
44.3817279836453
 31
0.0
  0
LINE
  5
6F1
330
1F
100
AcDbEntity
  8
SK2
  6
CONTINUOUS
370
25
 62
7
100
AcDbLine
 10
-5.0
 20
44.21463197058372
 30
0.0
 11
-4.762193308819769
 21
44.45243866176396
 31
0.0
  0
LINE
  5
6F2
330
1F
100
AcDbEntity
  8
SK2
  6
CONTINUOUS
370
25
 62
7
100
AcDbLine
 10
-5.0
 20
42.75950211536158
 30
0.0
 11
-4.783748237198678
 21
42.54325035256026
 31
0.0
  0
LINE
  5
6F3
330
1F
100
AcDbEntity
  8
SK2
  6
CONTINUOUS
370
25
 62
7
100
AcDbLine
 10
-5.0
 20
43.18376618407352
 30
0.0
 11
-4.430194846605398
 21
42.61396103067892
 31
0.0
  0
LINE
  5
6F4
330
1F
100
AcDbEntity
  8
SK2
  6
CONTINUOUS
370
25
 62
7
100
AcDbLine
 10
-5.0
 20
43.60803025278545
 30
0.0
 11
-4.076641456012124
 21
42.68467170879757
 31
0.0
  0
LINE
  5
6F5
330
1F
100
AcDbEntity
  8
SK2
  6
CONTINUOUS
370
25
 62
7
100
AcDbLine
 10
-5.0
 20
44.03229432149738
 30
0.0
 11
-3.723088065418846
 21
42.75538238691623
 31
0.0
  0
LINE
  5
6F6
330
1F
100
AcDbEntity
  8
SK2
  6
CONTINUOUS
370
25
 62
7
100
AcDbLine
 10
-5.0
 20
44.45655839020931
 30
0.0
 11
-3.369534674825572
 21
42.82609306503488
 31
0.0
  0
LINE
  5
6F7
330
1F
100
AcDbEntity
  8
SK2
  6
CONTINUOUS
370
25
 62
7
100
AcDbLine
 10
-4.523971926348442
 20
44.40479438526969
 30
0.0
 11
-3.015981284232293
 21
42.89680374315354
 31
0.0
  0
LINE
  5
6F8
330
1F
100
AcDbEntity
  8
SK2
  6
CONTINUOUS
370
25
 62
7
100
AcDbLine
 10
-3.993641840458531
 20
44.29872836809171
 30
0.0
 11
-2.662427893639019
 21
42.9675144212722
 31
0.0
  0
LINE
  5
6F9
330
1F
100
AcDbEntity
  8
SK2
  6
CONTINUOUS
370
25
 62
7
100
AcDbLine
 10
-3.463311754568612
 20
44.19266235091372
 30
0.0
 11
-2.30887450304574
 21
43.03822509939085
 31
0.0
  0
LINE
  5
6FA
330
1F
100
AcDbEntity
  8
SK2
  6
CONTINUOUS
370
25
 62
7
100
AcDbLine
 10
-2.932981668678702
 20
44.08659633373574
 30
0.0
 11
-1.955321112452467
 21
43.10893577750951
 31
0.0
  0
LINE
  5
6FB
330
1F
100
AcDbEntity
  8
SK2
  6
CONTINUOUS
370
25
 62
7
100
AcDbLine
 10
-2.402651582788783
 20
43.98053031655775
 30
0.0
 11
-1.601767721859188
 21
43.17964645562816
 31
0.0
  0
LINE
  5
6FC
330
1F
100
AcDbEntity
  8
SK2
  6
CONTINUOUS
370
25
 62
7
100
AcDbLine
 10
-1.872321496898872
 20
43.87446429937977
 30
0.0
 11
-1.248214331265914
 21
43.25035713374682
 31
0.0
  0
LINE
  5
6FD
330
1F
100
AcDbEntity
  8
SK2
  6
CONTINUOUS
370
25
 62
7
100
AcDbLine
 10
-1.341991411008953
 20
43.76839828220179
 30
0.0
 11
-0.8946609406726351
 21
43.32106781186548
 31
0.0
  0
LINE
  5
6FE
330
1F
100
AcDbEntity
  8
SK2
  6
CONTINUOUS
370
25
 62
7
100
AcDbLine
 10
-0.8116613251190432
 20
43.66233226502381
 30
0.0
 11
-0.5411075500793618
 21
43.39177848998413
 31
0.0
  0
LINE
  5
6FF
330
1F
100
AcDbEntity
  8
SK2
  6
CONTINUOUS
370
25
 62
7
100
AcDbLine
 10
-0.2813312392291238
 20
43.55626624784583
 30
0.0
 11
-0.1875541594860825
 21
43.46248916810278
 31
0.0
  0
TEXT
  5
700
330
1F
100
AcDbEntity
  8
SK2
  6
CONTINUOUS
370
25
 62
7
100
AcDbText
 10
-18.91666666666667
 20
45.0
 30
0.0
 40
3.5
  1
32
 72
     1
 11
-16.0
 21
45.0
 31
0.0
100
AcDbText
  0
LINE
  5
701
330
1F
100
AcDbEntity
  8
SK3
  6
DASH
370
35
 62
1
100
AcDbLine
 10
85.0
 20
6.05
 30
0.0
 11
84.2
 21
5.25
 31
0.0
  0
LINE
  5
702
330
1F
100
AcDbEntity
  8
SK3
  6
DASH
370
35
 62
1
100
AcDbLine
 10
84.2
 20
5.25
 30
0.0
 11
75.0
 21
5.25
 31
0.0
  0
LINE
  5
703
330
1F
100
AcDbEntity
  8
SK3
  6
DASH
370
35
 62
1
100
AcDbLine
 10
75.0
 20
5.25
 30
0.0
 11
74.75
 21
5.0
 31
0.0
  0
LINE
  5
704
330
1F
100
AcDbEntity
  8
SK3
  6
DASH
370
35
 62
1
100
AcDbLine
 10
74.75
 20
5.0
 30
0.0
 11
61.5
 21
5.0
 31
0.0
  0
LINE
  5
705
330
1F
100
AcDbEntity
  8
SK3
  6
DASH
370
35
 62
1
100
AcDbLine
 10
61.5
 20
5.0
 30
0.0
 11
60.58
 21
4.08
 31
0.0
  0
LINE
  5
706
330
1F
100
AcDbEntity
  8
SK3
  6
DASH
370
35
 62
1
100
AcDbLine
 10
60.58
 20
4.08
 30
0.0
 11
59.0
 21
4.08
 31
0.0
  0
LINE
  5
707
330
1F
100
AcDbEntity
  8
SK3
  6
DASH
370
35
 62
1
100
AcDbLine
 10
59.0
 20
4.08
 30
0.0
 11
57.5150014441939
 21
0.0
 31
0.0
  0
LINE
  5
708
330
1F
100
AcDbEntity
  8
SK3
  6
DASH
370
35
 62
1
100
AcDbLine
 10
57.5150014441939
 20
0.0
 30
0.0
 11
59.0
 21
-4.08
 31
0.0
  0
LINE
  5
709
330
1F
100
AcDbEntity
  8
SK3
  6
DASH
370
35
 62
1
100
AcDbLine
 10
60.58
 20
-4.08
 30
0.0
 11
59.0
 21
-4.08
 31
0.0
  0
LINE
  5
70A
330
1F
100
AcDbEntity
  8
SK3
  6
DASH
370
35
 62
1
100
AcDbLine
 10
61.5
 20
-5.0
 30
0.0
 11
60.58
 21
-4.08
 31
0.0
  0
LINE
  5
70B
330
1F
100
AcDbEntity
  8
SK3
  6
DASH
370
35
 62
1
100
AcDbLine
 10
74.75
 20
-5.0
 30
0.0
 11
61.5
 21
-5.0
 31
0.0
  0
LINE
  5
70C
330
1F
100
AcDbEntity
  8
SK3
  6
DASH
370
35
 62
1
100
AcDbLine
 10
75.0
 20
-5.25
 30
0.0
 11
74.75
 21
-5.0
 31
0.0
  0
LINE
  5
70D
330
1F
100
AcDbEntity
  8
SK3
  6
DASH
370
35
 62
1
100
AcDbLine
 10
84.2
 20
-5.25
 30
0.0
 11
75.0
 21
-5.25
 31
0.0
  0
LINE
  5
70E
330
1F
100
AcDbEntity
  8
SK3
  6
DASH
370
35
 62
1
100
AcDbLine
 10
85.0
 20
-6.05
 30
0.0
 11
84.2
 21
-5.25
 31
0.0
  0
LINE
  5
70F
330
1F
100
AcDbEntity
  8
SK3
  6
DASH
370
35
 62
1
100
AcDbLine
 10
84.2
 20
5.25
 30
0.0
 11
84.2
 21
-5.25
 31
0.0
  0
LINE
  5
710
330
1F
100
AcDbEntity
  8
SK3
  6
DASH
370
35
 62
1
100
AcDbLine
 10
75.0
 20
5.25
 30
0.0
 11
75.0
 21
-5.25
 31
0.0
  0
LINE
  5
711
330
1F
100
AcDbEntity
  8
SK3
  6
DASH
370
35
 62
1
100
AcDbLine
 10
74.75
 20
5.0
 30
0.0
 11
74.75
 21
-5.0
 31
0.0
  0
LINE
  5
712
330
1F
100
AcDbEntity
  8
SK3
  6
DASH
370
35
 62
1
100
AcDbLine
 10
61.5
 20
5.0
 30
0.0
 11
61.5
 21
-5.0
 31
0.0
  0
LINE
  5
713
330
1F
100
AcDbEntity
  8
SK3
  6
DASH
370
35
 62
1
100
AcDbLine
 10
60.58
 20
4.08
 30
0.0
 11
60.58
 21
-4.08
 31
0.0
  0
LINE
  5
714
330
1F
100
AcDbEntity
  8
SK3
  6
DASH
370
35
 62
1
100
AcDbLine
 10
59.0
 20
4.08
 30
0.0
 11
59.0
 21
-4.08
 31
0.0
  0
LINE
  5
715
330
1F
100
AcDbEntity
  8
SK2
  6
CONTINUOUS
370
25
 62
7
100
AcDbLine
 10
85.0
 20
-5.0
 30
0.0
 11
98.0
 21
-5.0
 31
0.0
  0
LINE
  5
716
330
1F
100
AcDbEntity
  8
SK2
  6
CONTINUOUS
370
25
 62
7
100
AcDbLine
 10
98.0
 20
5.0
 30
0.0
 11
85.0
 21
5.0
 31
0.0
  0
LINE
  5
717
330
1F
100
AcDbEntity
  8
SK2
  6
CONTINUOUS
370
25
 62
7
100
AcDbLine
 10
97.0
 20
-12.0
 30
0.0
 11
97.0
 21
12.0
 31
0.0
  0
LINE
  5
718
330
1F
100
AcDbEntity
  8
SK2
  6
CONTINUOUS
370
25
 62
7
100
AcDbLine
 10
97.0
 20
-5.0
 30
0.0
 11
98.0
 21
-10.0
 31
0.0
  0
LINE
  5
719
330
1F
100
AcDbEntity
  8
SK2
  6
CONTINUOUS
370
25
 62
7
100
AcDbLine
 10
98.0
 20
-10.0
 30
0.0
 11
96.0
 21
-10.0
 31
0.0
  0
LINE
  5
71A
330
1F
100
AcDbEntity
  8
SK2
  6
CONTINUOUS
370
25
 62
7
100
AcDbLine
 10
96.0
 20
-10.0
 30
0.0
 11
97.0
 21
-5.0
 31
0.0
  0
LINE
  5
71B
330
1F
100
AcDbEntity
  8
SK2
  6
CONTINUOUS
370
25
 62
7
100
AcDbLine
 10
97.77003847539676
 20
-10.0
 30
0.0
 11
97.9616730792328
 21
-9.808365396163966
 31
0.0
  0
LINE
  5
71C
330
1F
100
AcDbEntity
  8
SK2
  6
CONTINUOUS
370
25
 62
7
100
AcDbLine
 10
97.34577440668482
 20
-10.0
 30
0.0
 11
97.89096240111414
 21
-9.454812005570691
 31
0.0
  0
LINE
  5
71D
330
1F
100
AcDbEntity
  8
SK2
  6
CONTINUOUS
370
25
 62
7
100
AcDbLine
 10
96.9215103379729
 20
-10.0
 30
0.0
 11
97.82025172299548
 21
-9.101258614977416
 31
0.0
  0
LINE
  5
71E
330
1F
100
AcDbEntity
  8
SK2
  6
CONTINUOUS
370
25
 62
7
100
AcDbLine
 10
96.49724626926097
 20
-10.0
 30
0.0
 11
97.74954104487682
 21
-8.747705224384145
 31
0.0
  0
LINE
  5
71F
330
1F
100
AcDbEntity
  8
SK2
  6
CONTINUOUS
370
25
 62
7
100
AcDbLine
 10
96.07298220054905
 20
-10.0
 30
0.0
 11
97.67883036675818
 21
-8.394151833790874
 31
0.0
  0
LINE
  5
720
330
1F
100
AcDbEntity
  8
SK2
  6
CONTINUOUS
370
25
 62
7
100
AcDbLine
 10
96.08782046704073
 20
-9.560897664796395
 30
0.0
 11
97.60811968863952
 21
-8.040598443197599
 31
0.0
  0
LINE
  5
721
330
1F
100
AcDbEntity
  8
SK2
  6
CONTINUOUS
370
25
 62
7
100
AcDbLine
 10
96.19388648421871
 20
-9.030567578906483
 30
0.0
 11
97.53740901052086
 21
-7.68704505260432
 31
0.0
  0
LINE
  5
722
330
1F
100
AcDbEntity
  8
SK2
  6
CONTINUOUS
370
25
 62
7
100
AcDbLine
 10
96.29995250139669
 20
-8.500237493016574
 30
0.0
 11
97.46669833240222
 21
-7.333491662011049
 31
0.0
  0
LINE
  5
723
330
1F
100
AcDbEntity
  8
SK2
  6
CONTINUOUS
370
25
 62
7
100
AcDbLine
 10
96.40601851857467
 20
-7.969907407126664
 30
0.0
 11
97.39598765428356
 21
-6.979938271417778
 31
0.0
  0
LINE
  5
724
330
1F
100
AcDbEntity
  8
SK2
  6
CONTINUOUS
370
25
 62
7
100
AcDbLine
 10
96.51208453575265
 20
-7.439577321236754
 30
0.0
 11
97.3252769761649
 21
-6.626384880824503
 31
0.0
  0
LINE
  5
725
330
1F
100
AcDbEntity
  8
SK2
  6
CONTINUOUS
370
25
 62
7
100
AcDbLine
 10
96.61815055293063
 20
-6.909247235346845
 30
0.0
 11
97.25456629804624
 21
-6.272831490231228
 31
0.0
  0
LINE
  5
726
330
1F
100
AcDbEntity
  8
SK2
  6
CONTINUOUS
370
25
 62
7
100
AcDbLine
 10
96.72421657010861
 20
-6.378917149456937
 30
0.0
 11
97.18385561992758
 21
-5.919278099637957
 31
0.0
  0
LINE
  5
727
330
1F
100
AcDbEntity
  8
SK2
  6
CONTINUOUS
370
25
 62
7
100
AcDbLine
 10
96.83028258728659
 20
-5.848587063567029
 30
0.0
 11
97.11314494180894
 21
-5.565724709044682
 31
0.0
  0
LINE
  5
728
330
1F
100
AcDbEntity
  8
SK2
  6
CONTINUOUS
370
25
 62
7
100
AcDbLine
 10
96.93634860446457
 20
-5.318256977677118
 30
0.0
 11
97.04243426369028
 21
-5.212171318451411
 31
0.0
  0
LINE
  5
729
330
1F
100
AcDbEntity
  8
SK2
  6
CONTINUOUS
370
25
 62
7
100
AcDbLine
 10
96.00781826800389
 20
-9.96090865998057
 30
0.0
 11
96.04690960802331
 21
-10.0
 31
0.0
  0
LINE
  5
72A
330
1F
100
AcDbEntity
  8
SK2
  6
CONTINUOUS
370
25
 62
7
100
AcDbLine
 10
96.07852894612255
 20
-9.607355269387295
 30
0.0
 11
96.47117367673525
 21
-10.0
 31
0.0
  0
LINE
  5
72B
330
1F
100
AcDbEntity
  8
SK2
  6
CONTINUOUS
370
25
 62
7
100
AcDbLine
 10
96.1492396242412
 20
-9.253801878794022
 30
0.0
 11
96.89543774544717
 21
-10.0
 31
0.0
  0
LINE
  5
72C
330
1F
100
AcDbEntity
  8
SK2
  6
CONTINUOUS
370
25
 62
7
100
AcDbLine
 10
96.21995030235985
 20
-8.900248488200747
 30
0.0
 11
97.3197018141591
 21
-10.0
 31
0.0
  0
LINE
  5
72D
330
1F
100
AcDbEntity
  8
SK2
  6
CONTINUOUS
370
25
 62
7
100
AcDbLine
 10
96.2906609804785
 20
-8.546695097607476
 30
0.0
 11
97.74396588287104
 21
-10.0
 31
0.0
  0
LINE
  5
72E
330
1F
100
AcDbEntity
  8
SK2
  6
CONTINUOUS
370
25
 62
7
100
AcDbLine
 10
96.36137165859716
 20
-8.193141707014203
 30
0.0
 11
97.95794251210425
 21
-9.7897125605213
 31
0.0
  0
LINE
  5
72F
330
1F
100
AcDbEntity
  8
SK2
  6
CONTINUOUS
370
25
 62
7
100
AcDbLine
 10
96.43208233671581
 20
-7.839588316420929
 30
0.0
 11
97.85187649492627
 21
-9.259382474631396
 31
0.0
  0
LINE
  5
730
330
1F
100
AcDbEntity
  8
SK2
  6
CONTINUOUS
370
25
 62
7
100
AcDbLine
 10
96.50279301483447
 20
-7.486034925827656
 30
0.0
 11
97.7458104777483
 21
-8.729052388741486
 31
0.0
  0
LINE
  5
731
330
1F
100
AcDbEntity
  8
SK2
  6
CONTINUOUS
370
25
 62
7
100
AcDbLine
 10
96.57350369295312
 20
-7.132481535234382
 30
0.0
 11
97.63974446057031
 21
-8.198722302851575
 31
0.0
  0
LINE
  5
732
330
1F
100
AcDbEntity
  8
SK2
  6
CONTINUOUS
370
25
 62
7
100
AcDbLine
 10
96.64421437107178
 20
-6.778928144641108
 30
0.0
 11
97.53367844339233
 21
-7.668392216961664
 31
0.0
  0
LINE
  5
733
330
1F
100
AcDbEntity
  8
SK2
  6
CONTINUOUS
370
25
 62
7
100
AcDbLine
 10
96.71492504919043
 20
-6.425374754047835
 30
0.0
 11
97.42761242621435
 21
-7.138062131071756
 31
0.0
  0
LINE
  5
734
330
1F
100
AcDbEntity
  8
SK2
  6
CONTINUOUS
370
25
 62
7
100
AcDbLine
 10
96.78563572730909
 20
-6.071821363454562
 30
0.0
 11
97.32154640903637
 21
-6.607732045181843
 31
0.0
  0
LINE
  5
735
330
1F
100
AcDbEntity
  8
SK2
  6
CONTINUOUS
370
25
 62
7
100
AcDbLine
 10
96.85634640542774
 20
-5.718267972861289
 30
0.0
 11
97.21548039185839
 21
-6.077401959291933
 31
0.0
  0
LINE
  5
736
330
1F
100
AcDbEntity
  8
SK2
  6
CONTINUOUS
370
25
 62
7
100
AcDbLine
 10
96.9270570835464
 20
-5.364714582268016
 30
0.0
 11
97.1094143746804
 21
-5.547071873402023
 31
0.0
  0
LINE
  5
737
330
1F
100
AcDbEntity
  8
SK2
  6
CONTINUOUS
370
25
 62
7
100
AcDbLine
 10
96.99776776166505
 20
-5.011161191674744
 30
0.0
 11
97.00334835750242
 21
-5.016741787512115
 31
0.0
  0
LINE
  5
738
330
1F
100
AcDbEntity
  8
SK2
  6
CONTINUOUS
370
25
 62
7
100
AcDbLine
 10
97.0
 20
5.0
 30
0.0
 11
96.0
 21
10.0
 31
0.0
  0
LINE
  5
739
330
1F
100
AcDbEntity
  8
SK2
  6
CONTINUOUS
370
25
 62
7
100
AcDbLine
 10
96.0
 20
10.0
 30
0.0
 11
98.0
 21
10.0
 31
0.0
  0
LINE
  5
73A
330
1F
100
AcDbEntity
  8
SK2
  6
CONTINUOUS
370
25
 62
7
100
AcDbLine
 10
98.0
 20
10.0
 30
0.0
 11
97.0
 21
5.0
 31
0.0
  0
LINE
  5
73B
330
1F
100
AcDbEntity
  8
SK2
  6
CONTINUOUS
370
25
 62
7
100
AcDbLine
 10
96.96179212381506
 20
5.191039380924681
 30
0.0
 11
97.0573118142774
 21
5.286559071387017
 31
0.0
  0
LINE
  5
73C
330
1F
100
AcDbEntity
  8
SK2
  6
CONTINUOUS
370
25
 62
7
100
AcDbLine
 10
96.89108144569641
 20
5.544592771517953
 30
0.0
 11
97.16337783145539
 21
5.816889157276929
 31
0.0
  0
LINE
  5
73D
330
1F
100
AcDbEntity
  8
SK2
  6
CONTINUOUS
370
25
 62
7
100
AcDbLine
 10
96.82037076757776
 20
5.898146162111228
 30
0.0
 11
97.26944384863336
 21
6.347219243166837
 31
0.0
  0
LINE
  5
73E
330
1F
100
AcDbEntity
  8
SK2
  6
CONTINUOUS
370
25
 62
7
100
AcDbLine
 10
96.7496600894591
 20
6.251699552704499
 30
0.0
 11
97.37550986581135
 21
6.877549329056748
 31
0.0
  0
LINE
  5
73F
330
1F
100
AcDbEntity
  8
SK2
  6
CONTINUOUS
370
25
 62
7
100
AcDbLine
 10
96.67894941134045
 20
6.605252943297774
 30
0.0
 11
97.48157588298933
 21
7.407879414946656
 31
0.0
  0
LINE
  5
740
330
1F
100
AcDbEntity
  8
SK2
  6
CONTINUOUS
370
25
 62
7
100
AcDbLine
 10
96.6082387332218
 20
6.958806333891046
 30
0.0
 11
97.58764190016731
 21
7.938209500836566
 31
0.0
  0
LINE
  5
741
330
1F
100
AcDbEntity
  8
SK2
  6
CONTINUOUS
370
25
 62
7
100
AcDbLine
 10
96.53752805510314
 20
7.31235972448432
 30
0.0
 11
97.6937079173453
 21
8.468539586726475
 31
0.0
  0
LINE
  5
742
330
1F
100
AcDbEntity
  8
SK2
  6
CONTINUOUS
370
25
 62
7
100
AcDbLine
 10
96.46681737698448
 20
7.665913115077592
 30
0.0
 11
97.79977393452327
 21
8.998869672616385
 31
0.0
  0
LINE
  5
743
330
1F
100
AcDbEntity
  8
SK2
  6
CONTINUOUS
370
25
 62
7
100
AcDbLine
 10
96.39610669886582
 20
8.019466505670863
 30
0.0
 11
97.90583995170125
 21
9.529199758506294
 31
0.0
  0
LINE
  5
744
330
1F
100
AcDbEntity
  8
SK2
  6
CONTINUOUS
370
25
 62
7
100
AcDbLine
 10
96.32539602074718
 20
8.373019896264138
 30
0.0
 11
97.95237612448304
 21
10.0
 31
0.0
  0
LINE
  5
745
330
1F
100
AcDbEntity
  8
SK2
  6
CONTINUOUS
370
25
 62
7
100
AcDbLine
 10
96.25468534262852
 20
8.726573286857409
 30
0.0
 11
97.5281120557711
 21
10.0
 31
0.0
  0
LINE
  5
746
330
1F
100
AcDbEntity
  8
SK2
  6
CONTINUOUS
370
25
 62
7
100
AcDbLine
 10
96.18397466450986
 20
9.080126677450686
 30
0.0
 11
97.10384798705918
 21
10.0
 31
0.0
  0
LINE
  5
747
330
1F
100
AcDbEntity
  8
SK2
  6
CONTINUOUS
370
25
 62
7
100
AcDbLine
 10
96.1132639863912
 20
9.433680068043955
 30
0.0
 11
96.67958391834725
 21
10.0
 31
0.0
  0
LINE
  5
748
330
1F
100
AcDbEntity
  8
SK2
  6
CONTINUOUS
370
25
 62
7
100
AcDbLine
 10
96.04255330827256
 20
9.78723345863723
 30
0.0
 11
96.25531984963533
 21
10.0
 31
0.0
  0
LINE
  5
749
330
1F
100
AcDbEntity
  8
SK2
  6
CONTINUOUS
370
25
 62
7
100
AcDbLine
 10
96.90129329570273
 20
5.49353352148634
 30
0.0
 11
97.06580446953151
 21
5.32902234765756
 31
0.0
  0
LINE
  5
74A
330
1F
100
AcDbEntity
  8
SK2
  6
CONTINUOUS
370
25
 62
7
100
AcDbLine
 10
96.79522727852475
 20
6.023863607376247
 30
0.0
 11
97.13651514765017
 21
5.682575738250831
 31
0.0
  0
LINE
  5
74B
330
1F
100
AcDbEntity
  8
SK2
  6
CONTINUOUS
370
25
 62
7
100
AcDbLine
 10
96.68916126134677
 20
6.554193693266157
 30
0.0
 11
97.20722582576882
 21
6.036129128844106
 31
0.0
  0
LINE
  5
74C
330
1F
100
AcDbEntity
  8
SK2
  6
CONTINUOUS
370
25
 62
7
100
AcDbLine
 10
96.58309524416879
 20
7.084523779156067
 30
0.0
 11
97.27793650388747
 21
6.389682519437377
 31
0.0
  0
LINE
  5
74D
330
1F
100
AcDbEntity
  8
SK2
  6
CONTINUOUS
370
25
 62
7
100
AcDbLine
 10
96.47702922699081
 20
7.614853865045975
 30
0.0
 11
97.34864718200613
 21
6.74323591003065
 31
0.0
  0
LINE
  5
74E
330
1F
100
AcDbEntity
  8
SK2
  6
CONTINUOUS
370
25
 62
7
100
AcDbLine
 10
96.37096320981283
 20
8.145183950935884
 30
0.0
 11
97.41935786012479
 21
7.096789300623923
 31
0.0
  0
LINE
  5
74F
330
1F
100
AcDbEntity
  8
SK2
  6
CONTINUOUS
370
25
 62
7
100
AcDbLine
 10
96.26489719263483
 20
8.675514036825795
 30
0.0
 11
97.49006853824343
 21
7.4503426912172
 31
0.0
  0
LINE
  5
750
330
1F
100
AcDbEntity
  8
SK2
  6
CONTINUOUS
370
25
 62
7
100
AcDbLine
 10
96.15883117545685
 20
9.205844122715702
 30
0.0
 11
97.56077921636209
 21
7.803896081810468
 31
0.0
  0
LINE
  5
751
330
1F
100
AcDbEntity
  8
SK2
  6
CONTINUOUS
370
25
 62
7
100
AcDbLine
 10
96.05276515827887
 20
9.73617420860561
 30
0.0
 11
97.63148989448075
 21
8.157449472403743
 31
0.0
  0
LINE
  5
752
330
1F
100
AcDbEntity
  8
SK2
  6
CONTINUOUS
370
25
 62
7
100
AcDbLine
 10
96.21320343559641
 20
10.0
 30
0.0
 11
97.70220057259941
 21
8.511002862997014
 31
0.0
  0
LINE
  5
753
330
1F
100
AcDbEntity
  8
SK2
  6
CONTINUOUS
370
25
 62
7
100
AcDbLine
 10
96.63746750430835
 20
10.0
 30
0.0
 11
97.77291125071805
 21
8.864556253590289
 31
0.0
  0
LINE
  5
754
330
1F
100
AcDbEntity
  8
SK2
  6
CONTINUOUS
370
25
 62
7
100
AcDbLine
 10
97.06173157302027
 20
10.0
 30
0.0
 11
97.84362192883671
 21
9.218109644183563
 31
0.0
  0
LINE
  5
755
330
1F
100
AcDbEntity
  8
SK2
  6
CONTINUOUS
370
25
 62
7
100
AcDbLine
 10
97.4859956417322
 20
10.0
 30
0.0
 11
97.91433260695537
 21
9.571663034776835
 31
0.0
  0
LINE
  5
756
330
1F
100
AcDbEntity
  8
SK2
  6
CONTINUOUS
370
25
 62
7
100
AcDbLine
 10
97.91025971044414
 20
10.0
 30
0.0
 11
97.98504328507403
 21
9.925216425370108
 31
0.0
  0
TEXT
  5
757
330
1F
100
AcDbEntity
  8
SK2
  6
CONTINUOUS
370
25
 62
7
100
AcDbText
 10
95.5
 20
-2.041666666666667
 30
0.0
 40
3.5
  1
10
 50
90.0
 72
     1
 11
95.5
 21
0.0
 31
0.0
100
AcDbText
  0
LINE
  5
758
330
1F
100
AcDbEntity
  8
NOCUT
  6
CONTINUOUS
370
25
 62
7
100
AcDbLine
 10
26.0
 20
0.0
 30
0.0
 11
85.0
 21
0.0
 31
0.0
  0
LINE
  5
759
330
1F
100
AcDbEntity
  8
NOCUT
  6
CONTINUOUS
370
25
 62
7
100
AcDbLine
 10
85.0
 20
0.0
 30
0.0
 11
85.0
 21
9.25
 31
0.0
  0
LINE
  5
75A
330
1F
100
AcDbEntity
  8
NOCUT
  6
CONTINUOUS
370
25
 62
7
100
AcDbLine
 10
85.0
 20
9.25
 30
0.0
 11
29.00640438986157
 21
12.1845
 31
0.0
  0
LINE
  5
75B
330
1F
100
AcDbEntity
  8
NOCUT
  6
CONTINUOUS
370
25
 62
7
100
AcDbLine
 10
29.00640438986157
 20
12.1845
 30
0.0
 11
29.0
 21
12.1845
 31
0.0
  0
ARC
  5
75C
330
1F
100
AcDbEntity
  8
NOCUT
  6
CONTINUOUS
370
25
 62
7
100
AcDbCircle
 10
29.0000000001
 20
15.1845000001
 30
0.0
 40
3.0
100
AcDbArc
 50
180.0
 51
269.9999999980902
  0
LINE
  5
75D
330
1F
100
AcDbEntity
  8
NOCUT
  6
CONTINUOUS
370
25
 62
7
100
AcDbLine
 10
26.0
 20
15.1845
 30
0.0
 11
26.0
 21
31.0
 31
0.0
  0
LINE
  5
75E
330
1F
100
AcDbEntity
  8
2
  6
CONTINUOUS
370
25
 62
7
100
AcDbLine
 10
-32.0
 20
0.0
 30
0.0
 11
-32.0
 21
64.0
 31
0.0
  0
LINE
  5
75F
330
1F
100
AcDbEntity
  8
2
  6
CONTINUOUS
370
25
 62
7
100
AcDbLine
 10
85.0
 20
64.0
 30
0.0
 11
85.0
 21
0.0
 31
0.0
  0
LINE
  5
760
330
1F
100
AcDbEntity
  8
2
  6
CONTINUOUS
370
25
 62
7
100
AcDbLine
 10
-32.0
 20
63.0
 30
0.0
 11
85.0
 21
63.0
 31
0.0
  0
LINE
  5
761
330
1F
100
AcDbEntity
  8
2
  6
CONTINUOUS
370
25
 62
7
100
AcDbLine
 10
-32.0
 20
63.0
 30
0.0
 11
-27.0
 21
64.0
 31
0.0
  0
LINE
  5
762
330
1F
100
AcDbEntity
  8
2
  6
CONTINUOUS
370
25
 62
7
100
AcDbLine
 10
-27.0
 20
64.0
 30
0.0
 11
-27.0
 21
62.0
 31
0.0
  0
LINE
  5
763
330
1F
100
AcDbEntity
  8
2
  6
CONTINUOUS
370
25
 62
7
100
AcDbLine
 10
-27.0
 20
62.0
 30
0.0
 11
-32.0
 21
63.0
 31
0.0
  0
LINE
  5
764
330
1F
100
AcDbEntity
  8
2
  6
CONTINUOUS
370
25
 62
7
100
AcDbLine
 10
-27.07954535792082
 20
62.01590907158417
 30
0.0
 11
-27.0
 21
62.095454429505
 31
0.0
  0
LINE
  5
765
330
1F
100
AcDbEntity
  8
2
  6
CONTINUOUS
370
25
 62
7
100
AcDbLine
 10
-27.43309874851409
 20
62.08661974970282
 30
0.0
 11
-27.0
 21
62.51971849821692
 31
0.0
  0
LINE
  5
766
330
1F
100
AcDbEntity
  8
2
  6
CONTINUOUS
370
25
 62
7
100
AcDbLine
 10
-27.78665213910736
 20
62.15733042782148
 30
0.0
 11
-27.0
 21
62.94398256692884
 31
0.0
  0
LINE
  5
767
330
1F
100
AcDbEntity
  8
2
  6
CONTINUOUS
370
25
 62
7
100
AcDbLine
 10
-28.14020552970064
 20
62.22804110594013
 30
0.0
 11
-27.0
 21
63.36824663564076
 31
0.0
  0
LINE
  5
768
330
1F
100
AcDbEntity
  8
2
  6
CONTINUOUS
370
25
 62
7
100
AcDbLine
 10
-28.49375892029392
 20
62.29875178405879
 30
0.0
 11
-27.0
 21
63.79251070435269
 31
0.0
  0
LINE
  5
769
330
1F
100
AcDbEntity
  8
2
  6
CONTINUOUS
370
25
 62
7
100
AcDbLine
 10
-28.84731231088718
 20
62.36946246217744
 30
0.0
 11
-27.27096846633075
 21
63.94580630673386
 31
0.0
  0
LINE
  5
76A
330
1F
100
AcDbEntity
  8
2
  6
CONTINUOUS
370
25
 62
7
100
AcDbLine
 10
-29.20086570148047
 20
62.4401731402961
 30
0.0
 11
-27.80129855222068
 21
63.83974028955586
 31
0.0
  0
LINE
  5
76B
330
1F
100
AcDbEntity
  8
2
  6
CONTINUOUS
370
25
 62
7
100
AcDbLine
 10
-29.55441909207375
 20
62.51088381841475
 30
0.0
 11
-28.33162863811059
 21
63.73367427237789
 31
0.0
  0
LINE
  5
76C
330
1F
100
AcDbEntity
  8
2
  6
CONTINUOUS
370
25
 62
7
100
AcDbLine
 10
-29.90797248266702
 20
62.5815944965334
 30
0.0
 11
-28.86195872400051
 21
63.6276082551999
 31
0.0
  0
LINE
  5
76D
330
1F
100
AcDbEntity
  8
2
  6
CONTINUOUS
370
25
 62
7
100
AcDbLine
 10
-30.2615258732603
 20
62.65230517465206
 30
0.0
 11
-29.39228880989042
 21
63.52154223802192
 31
0.0
  0
LINE
  5
76E
330
1F
100
AcDbEntity
  8
2
  6
CONTINUOUS
370
25
 62
7
100
AcDbLine
 10
-30.61507926385357
 20
62.72301585277071
 30
0.0
 11
-29.92261889578035
 21
63.41547622084394
 31
0.0
  0
LINE
  5
76F
330
1F
100
AcDbEntity
  8
2
  6
CONTINUOUS
370
25
 62
7
100
AcDbLine
 10
-30.96863265444685
 20
62.79372653088937
 30
0.0
 11
-30.45294898167026
 21
63.30941020366595
 31
0.0
  0
LINE
  5
770
330
1F
100
AcDbEntity
  8
2
  6
CONTINUOUS
370
25
 62
7
100
AcDbLine
 10
-31.32218604504013
 20
62.86443720900803
 30
0.0
 11
-30.98327906756018
 21
63.20334418648797
 31
0.0
  0
LINE
  5
771
330
1F
100
AcDbEntity
  8
2
  6
CONTINUOUS
370
25
 62
7
100
AcDbLine
 10
-31.67573943563341
 20
62.93514788712668
 30
0.0
 11
-31.5136091534501
 21
63.09727816930999
 31
0.0
  0
LINE
  5
772
330
1F
100
AcDbEntity
  8
2
  6
CONTINUOUS
370
25
 62
7
100
AcDbLine
 10
-31.67038242943127
 20
63.06592351411375
 30
0.0
 11
-31.5055736441469
 21
62.90111472882938
 31
0.0
  0
LINE
  5
773
330
1F
100
AcDbEntity
  8
2
  6
CONTINUOUS
370
25
 62
7
100
AcDbLine
 10
-31.31682903883799
 20
63.13663419223241
 30
0.0
 11
-30.97524355825699
 21
62.7950487116514
 31
0.0
  0
LINE
  5
774
330
1F
100
AcDbEntity
  8
2
  6
CONTINUOUS
370
25
 62
7
100
AcDbLine
 10
-30.96327564824472
 20
63.20734487035106
 30
0.0
 11
-30.44491347236708
 21
62.68898269447342
 31
0.0
  0
LINE
  5
775
330
1F
100
AcDbEntity
  8
2
  6
CONTINUOUS
370
25
 62
7
100
AcDbLine
 10
-30.60972225765144
 20
63.27805554846972
 30
0.0
 11
-29.91458338647715
 21
62.58291667729543
 31
0.0
  0
LINE
  5
776
330
1F
100
AcDbEntity
  8
2
  6
CONTINUOUS
370
25
 62
7
100
AcDbLine
 10
-30.25616886705817
 20
63.34876622658837
 30
0.0
 11
-29.38425330058724
 21
62.47685066011745
 31
0.0
  0
LINE
  5
777
330
1F
100
AcDbEntity
  8
2
  6
CONTINUOUS
370
25
 62
7
100
AcDbLine
 10
-29.9026154764649
 20
63.41947690470703
 30
0.0
 11
-28.85392321469734
 21
62.37078464293947
 31
0.0
  0
LINE
  5
778
330
1F
100
AcDbEntity
  8
2
  6
CONTINUOUS
370
25
 62
7
100
AcDbLine
 10
-29.54906208587162
 20
63.49018758282568
 30
0.0
 11
-28.32359312880742
 21
62.26471862576149
 31
0.0
  0
LINE
  5
779
330
1F
100
AcDbEntity
  8
2
  6
CONTINUOUS
370
25
 62
7
100
AcDbLine
 10
-29.19550869527835
 20
63.56089826094434
 30
0.0
 11
-27.79326304291751
 21
62.1586526085835
 31
0.0
  0
LINE
  5
77A
330
1F
100
AcDbEntity
  8
2
  6
CONTINUOUS
370
25
 62
7
100
AcDbLine
 10
-28.84195530468507
 20
63.63160893906299
 30
0.0
 11
-27.26293295702759
 21
62.05258659140552
 31
0.0
  0
LINE
  5
77B
330
1F
100
AcDbEntity
  8
2
  6
CONTINUOUS
370
25
 62
7
100
AcDbLine
 10
-28.48840191409179
 20
63.70231961718164
 30
0.0
 11
-27.0
 21
62.21391770308986
 31
0.0
  0
LINE
  5
77C
330
1F
100
AcDbEntity
  8
2
  6
CONTINUOUS
370
25
 62
7
100
AcDbLine
 10
-28.13484852349852
 20
63.7730302953003
 30
0.0
 11
-27.0
 21
62.63818177180178
 31
0.0
  0
LINE
  5
77D
330
1F
100
AcDbEntity
  8
2
  6
CONTINUOUS
370
25
 62
7
100
AcDbLine
 10
-27.78129513290525
 20
63.84374097341896
 30
0.0
 11
-27.0
 21
63.06244584051372
 31
0.0
  0
LINE
  5
77E
330
1F
100
AcDbEntity
  8
2
  6
CONTINUOUS
370
25
 62
7
100
AcDbLine
 10
-27.42774174231197
 20
63.91445165153761
 30
0.0
 11
-27.0
 21
63.48670990922564
 31
0.0
  0
LINE
  5
77F
330
1F
100
AcDbEntity
  8
2
  6
CONTINUOUS
370
25
 62
7
100
AcDbLine
 10
-27.07418835171869
 20
63.98516232965626
 30
0.0
 11
-27.0
 21
63.91097397793757
 31
0.0
  0
LINE
  5
780
330
1F
100
AcDbEntity
  8
2
  6
CONTINUOUS
370
25
 62
7
100
AcDbLine
 10
85.0
 20
63.0
 30
0.0
 11
80.0
 21
62.0
 31
0.0
  0
LINE
  5
781
330
1F
100
AcDbEntity
  8
2
  6
CONTINUOUS
370
25
 62
7
100
AcDbLine
 10
80.0
 20
62.0
 30
0.0
 11
80.0
 21
64.0
 31
0.0
  0
LINE
  5
782
330
1F
100
AcDbEntity
  8
2
  6
CONTINUOUS
370
25
 62
7
100
AcDbLine
 10
80.0
 20
64.0
 30
0.0
 11
85.0
 21
63.0
 31
0.0
  0
LINE
  5
783
330
1F
100
AcDbEntity
  8
2
  6
CONTINUOUS
370
25
 62
7
100
AcDbLine
 10
84.90188792246524
 20
62.98037758449306
 30
0.0
 11
84.93459194831016
 21
63.01308161033798
 31
0.0
  0
LINE
  5
784
330
1F
100
AcDbEntity
  8
2
  6
CONTINUOUS
370
25
 62
7
100
AcDbLine
 10
84.37155783657532
 20
62.87431156731505
 30
0.0
 11
84.58103855771688
 21
63.08379228845661
 31
0.0
  0
LINE
  5
785
330
1F
100
AcDbEntity
  8
2
  6
CONTINUOUS
370
25
 62
7
100
AcDbLine
 10
83.84122775068543
 20
62.7682455501371
 30
0.0
 11
84.22748516712362
 21
63.15450296657528
 31
0.0
  0
LINE
  5
786
330
1F
100
AcDbEntity
  8
2
  6
CONTINUOUS
370
25
 62
7
100
AcDbLine
 10
83.31089766479549
 20
62.66217953295909
 30
0.0
 11
83.87393177653034
 21
63.22521364469393
 31
0.0
  0
LINE
  5
787
330
1F
100
AcDbEntity
  8
2
  6
CONTINUOUS
370
25
 62
7
100
AcDbLine
 10
82.7805675789056
 20
62.55611351578112
 30
0.0
 11
83.52037838593706
 21
63.29592432281258
 31
0.0
  0
LINE
  5
788
330
1F
100
AcDbEntity
  8
2
  6
CONTINUOUS
370
25
 62
7
100
AcDbLine
 10
82.25023749301569
 20
62.45004749860313
 30
0.0
 11
83.16682499534382
 21
63.36663500093126
 31
0.0
  0
LINE
  5
789
330
1F
100
AcDbEntity
  8
2
  6
CONTINUOUS
370
25
 62
7
100
AcDbLine
 10
81.71990740712579
 20
62.34398148142516
 30
0.0
 11
82.81327160475053
 21
63.43734567904988
 31
0.0
  0
LINE
  5
78A
330
1F
100
AcDbEntity
  8
2
  6
CONTINUOUS
370
25
 62
7
100
AcDbLine
 10
81.18957732123586
 20
62.23791546424716
 30
0.0
 11
82.45971821415726
 21
63.50805635716855
 31
0.0
  0
LINE
  5
78B
330
1F
100
AcDbEntity
  8
2
  6
CONTINUOUS
370
25
 62
7
100
AcDbLine
 10
80.65924723534597
 20
62.1318494470692
 30
0.0
 11
82.10616482356399
 21
63.5787670352872
 31
0.0
  0
LINE
  5
78C
330
1F
100
AcDbEntity
  8
2
  6
CONTINUOUS
370
25
 62
7
100
AcDbLine
 10
80.12891714945606
 20
62.02578342989121
 30
0.0
 11
81.75261143297072
 21
63.64947771340587
 31
0.0
  0
LINE
  5
78D
330
1F
100
AcDbEntity
  8
2
  6
CONTINUOUS
370
25
 62
7
100
AcDbLine
 10
80.0
 20
62.32113034914708
 30
0.0
 11
81.39905804237745
 21
63.72018839152452
 31
0.0
  0
LINE
  5
78E
330
1F
100
AcDbEntity
  8
2
  6
CONTINUOUS
370
25
 62
7
100
AcDbLine
 10
80.0
 20
62.74539441785901
 30
0.0
 11
81.04550465178417
 21
63.79089906964315
 31
0.0
  0
LINE
  5
78F
330
1F
100
AcDbEntity
  8
2
  6
CONTINUOUS
370
25
 62
7
100
AcDbLine
 10
80.0
 20
63.16965848657092
 30
0.0
 11
80.6919512611909
 21
63.8616097477618
 31
0.0
  0
LINE
  5
790
330
1F
100
AcDbEntity
  8
2
  6
CONTINUOUS
370
25
 62
7
100
AcDbLine
 10
80.0
 20
63.59392255528285
 30
0.0
 11
80.33839787059765
 21
63.93232042588048
 31
0.0
  0
LINE
  5
791
330
1F
100
AcDbEntity
  8
2
  6
CONTINUOUS
370
25
 62
7
100
AcDbLine
 10
80.0
 20
62.12846301849612
 30
0.0
 11
80.10705251541343
 21
62.02141050308269
 31
0.0
  0
LINE
  5
792
330
1F
100
AcDbEntity
  8
2
  6
CONTINUOUS
370
25
 62
7
100
AcDbLine
 10
80.0
 20
62.55272708720804
 30
0.0
 11
80.4606059060067
 21
62.09212118120134
 31
0.0
  0
LINE
  5
793
330
1F
100
AcDbEntity
  8
2
  6
CONTINUOUS
370
25
 62
7
100
AcDbLine
 10
80.0
 20
62.97699115591998
 30
0.0
 11
80.81415929659997
 21
62.16283185932001
 31
0.0
  0
LINE
  5
794
330
1F
100
AcDbEntity
  8
2
  6
CONTINUOUS
370
25
 62
7
100
AcDbLine
 10
80.0
 20
63.40125522463188
 30
0.0
 11
81.16771268719324
 21
62.23354253743865
 31
0.0
  0
LINE
  5
795
330
1F
100
AcDbEntity
  8
2
  6
CONTINUOUS
370
25
 62
7
100
AcDbLine
 10
80.0
 20
63.82551929334382
 30
0.0
 11
81.52126607778652
 21
62.3042532155573
 31
0.0
  0
LINE
  5
796
330
1F
100
AcDbEntity
  8
2
  6
CONTINUOUS
370
25
 62
7
100
AcDbLine
 10
80.31222920256965
 20
63.93755415948606
 30
0.0
 11
81.87481946837977
 21
62.37496389367595
 31
0.0
  0
LINE
  5
797
330
1F
100
AcDbEntity
  8
2
  6
CONTINUOUS
370
25
 62
7
100
AcDbLine
 10
80.84255928845955
 20
63.83148814230809
 30
0.0
 11
82.22837285897305
 21
62.44567457179461
 31
0.0
  0
LINE
  5
798
330
1F
100
AcDbEntity
  8
2
  6
CONTINUOUS
370
25
 62
7
100
AcDbLine
 10
81.37288937434947
 20
63.72542212513011
 30
0.0
 11
82.58192624956632
 21
62.51638524991327
 31
0.0
  0
LINE
  5
799
330
1F
100
AcDbEntity
  8
2
  6
CONTINUOUS
370
25
 62
7
100
AcDbLine
 10
81.90321946023938
 20
63.61935610795213
 30
0.0
 11
82.9354796401596
 21
62.58709592803191
 31
0.0
  0
LINE
  5
79A
330
1F
100
AcDbEntity
  8
2
  6
CONTINUOUS
370
25
 62
7
100
AcDbLine
 10
82.43354954612931
 20
63.51329009077412
 30
0.0
 11
83.28903303075288
 21
62.65780660615057
 31
0.0
  0
LINE
  5
79B
330
1F
100
AcDbEntity
  8
2
  6
CONTINUOUS
370
25
 62
7
100
AcDbLine
 10
82.96387963201921
 20
63.40722407359615
 30
0.0
 11
83.64258642134615
 21
62.72851728426923
 31
0.0
  0
LINE
  5
79C
330
1F
100
AcDbEntity
  8
2
  6
CONTINUOUS
370
25
 62
7
100
AcDbLine
 10
83.49420971790914
 20
63.30115805641816
 30
0.0
 11
83.99613981193943
 21
62.79922796238789
 31
0.0
  0
LINE
  5
79D
330
1F
100
AcDbEntity
  8
2
  6
CONTINUOUS
370
25
 62
7
100
AcDbLine
 10
84.02453980379902
 20
63.19509203924019
 30
0.0
 11
84.34969320253269
 21
62.86993864050653
 31
0.0
  0
LINE
  5
79E
330
1F
100
AcDbEntity
  8
2
  6
CONTINUOUS
370
25
 62
7
100
AcDbLine
 10
84.55486988968894
 20
63.08902602206221
 30
0.0
 11
84.70324659312595
 21
62.9406493186252
 31
0.0
  0
TEXT
  5
79F
330
1F
100
AcDbEntity
  8
2
  6
CONTINUOUS
370
25
 62
7
100
AcDbText
 10
23.0
 20
64.5
 30
0.0
 40
3.5
  1
117
 72
     1
 11
26.5
 21
64.5
 31
0.0
100
AcDbText
  0
LINE
  5
7A0
330
1F
100
AcDbEntity
  8
2
  6
CONTINUOUS
370
25
 62
7
100
AcDbLine
 10
0.0
 20
31.0
 30
0.0
 11
0.0000000000000014
 21
54.0
 31
0.0
  0
LINE
  5
7A1
330
1F
100
AcDbEntity
  8
2
  6
CONTINUOUS
370
25
 62
7
100
AcDbLine
 10
85.0
 20
54.0
 30
0.0
 11
85.0
 21
9.25
 31
0.0
  0
LINE
  5
7A2
330
1F
100
AcDbEntity
  8
2
  6
CONTINUOUS
370
25
 62
7
100
AcDbLine
 10
0.0
 20
53.0
 30
0.0
 11
85.0
 21
53.0
 31
0.0
  0
LINE
  5
7A3
330
1F
100
AcDbEntity
  8
2
  6
CONTINUOUS
370
25
 62
7
100
AcDbLine
 10
0.0
 20
53.0
 30
0.0
 11
5.0
 21
54.0
 31
0.0
  0
LINE
  5
7A4
330
1F
100
AcDbEntity
  8
2
  6
CONTINUOUS
370
25
 62
7
100
AcDbLine
 10
5.0
 20
54.0
 30
0.0
 11
5.0
 21
52.0
 31
0.0
  0
LINE
  5
7A5
330
1F
100
AcDbEntity
  8
2
  6
CONTINUOUS
370
25
 62
7
100
AcDbLine
 10
5.0
 20
52.0
 30
0.0
 11
0.0
 21
53.0
 31
0.0
  0
LINE
  5
7A6
330
1F
100
AcDbEntity
  8
2
  6
CONTINUOUS
370
25
 62
7
100
AcDbLine
 10
4.922240310813334
 20
52.01555193783733
 30
0.0
 11
5.0
 21
52.093311627024
 31
0.0
  0
LINE
  5
7A7
330
1F
100
AcDbEntity
  8
2
  6
CONTINUOUS
370
25
 62
7
100
AcDbLine
 10
4.568686920220061
 20
52.08626261595599
 30
0.0
 11
5.0
 21
52.51757569573593
 31
0.0
  0
LINE
  5
7A8
330
1F
100
AcDbEntity
  8
2
  6
CONTINUOUS
370
25
 62
7
100
AcDbLine
 10
4.215133529626782
 20
52.15697329407465
 30
0.0
 11
5.0
 21
52.94183976444786
 31
0.0
  0
LINE
  5
7A9
330
1F
100
AcDbEntity
  8
2
  6
CONTINUOUS
370
25
 62
7
100
AcDbLine
 10
3.861580139033509
 20
52.2276839721933
 30
0.0
 11
5.0
 21
53.36610383315979
 31
0.0
  0
LINE
  5
7AA
330
1F
100
AcDbEntity
  8
2
  6
CONTINUOUS
370
25
 62
7
100
AcDbLine
 10
3.50802674844023
 20
52.29839465031196
 30
0.0
 11
5.0
 21
53.79036790187173
 31
0.0
  0
LINE
  5
7AB
330
1F
100
AcDbEntity
  8
2
  6
CONTINUOUS
370
25
 62
7
100
AcDbLine
 10
3.154473357846957
 20
52.36910532843061
 30
0.0
 11
4.731710036770437
 21
53.94634200735409
 31
0.0
  0
LINE
  5
7AC
330
1F
100
AcDbEntity
  8
2
  6
CONTINUOUS
370
25
 62
7
100
AcDbLine
 10
2.800919967253678
 20
52.43981600654926
 30
0.0
 11
4.201379950880519
 21
53.8402759901761
 31
0.0
  0
LINE
  5
7AD
330
1F
100
AcDbEntity
  8
2
  6
CONTINUOUS
370
25
 62
7
100
AcDbLine
 10
2.447366576660405
 20
52.51052668466792
 30
0.0
 11
3.671049864990609
 21
53.73420997299812
 31
0.0
  0
LINE
  5
7AE
330
1F
100
AcDbEntity
  8
2
  6
CONTINUOUS
370
25
 62
7
100
AcDbLine
 10
2.093813186067126
 20
52.58123736278657
 30
0.0
 11
3.14071977910069
 21
53.62814395582014
 31
0.0
  0
LINE
  5
7AF
330
1F
100
AcDbEntity
  8
2
  6
CONTINUOUS
370
25
 62
7
100
AcDbLine
 10
1.740259795473853
 20
52.65194804090523
 30
0.0
 11
2.61038969321078
 21
53.52207793864216
 31
0.0
  0
LINE
  5
7B0
330
1F
100
AcDbEntity
  8
2
  6
CONTINUOUS
370
25
 62
7
100
AcDbLine
 10
1.386706404880573
 20
52.72265871902388
 30
0.0
 11
2.080059607320861
 21
53.41601192146418
 31
0.0
  0
LINE
  5
7B1
330
1F
100
AcDbEntity
  8
2
  6
CONTINUOUS
370
25
 62
7
100
AcDbLine
 10
1.0331530142873
 20
52.79336939714254
 30
0.0
 11
1.549729521430951
 21
53.30994590428619
 31
0.0
  0
LINE
  5
7B2
330
1F
100
AcDbEntity
  8
2
  6
CONTINUOUS
370
25
 62
7
100
AcDbLine
 10
0.679599623694021
 20
52.86408007526119
 30
0.0
 11
1.019399435541032
 21
53.20387988710821
 31
0.0
  0
LINE
  5
7B3
330
1F
100
AcDbEntity
  8
2
  6
CONTINUOUS
370
25
 62
7
100
AcDbLine
 10
0.3260462331007477
 20
52.93479075337985
 30
0.0
 11
0.4890693496511218
 21
53.09781386993023
 31
0.0
  0
LINE
  5
7B4
330
1F
100
AcDbEntity
  8
2
  6
CONTINUOUS
370
25
 62
7
100
AcDbLine
 10
0.0275071574925138
 20
53.0055014314985
 30
0.0
 11
0.0412607362387707
 21
52.99174785275225
 31
0.0
  0
LINE
  5
7B5
330
1F
100
AcDbEntity
  8
2
  6
CONTINUOUS
370
25
 62
7
100
AcDbLine
 10
0.3810605480857929
 20
53.07621210961716
 30
0.0
 11
0.5715908221286896
 21
52.88568183557426
 31
0.0
  0
LINE
  5
7B6
330
1F
100
AcDbEntity
  8
2
  6
CONTINUOUS
370
25
 62
7
100
AcDbLine
 10
0.7346139386790661
 20
53.14692278773581
 30
0.0
 11
1.1019209080186
 21
52.77961581839628
 31
0.0
  0
LINE
  5
7B7
330
1F
100
AcDbEntity
  8
2
  6
CONTINUOUS
370
25
 62
7
100
AcDbLine
 10
1.088167329272345
 20
53.21763346585447
 30
0.0
 11
1.632250993908519
 21
52.67354980121829
 31
0.0
  0
LINE
  5
7B8
330
1F
100
AcDbEntity
  8
2
  6
CONTINUOUS
370
25
 62
7
100
AcDbLine
 10
1.441720719865618
 20
53.28834414397313
 30
0.0
 11
2.162581079798428
 21
52.56748378404031
 31
0.0
  0
LINE
  5
7B9
330
1F
100
AcDbEntity
  8
2
  6
CONTINUOUS
370
25
 62
7
100
AcDbLine
 10
1.795274110458897
 20
53.35905482209178
 30
0.0
 11
2.692911165688347
 21
52.46141776686233
 31
0.0
  0
LINE
  5
7BA
330
1F
100
AcDbEntity
  8
2
  6
CONTINUOUS
370
25
 62
7
100
AcDbLine
 10
2.14882750105217
 20
53.42976550021044
 30
0.0
 11
3.223241251578257
 21
52.35535174968435
 31
0.0
  0
LINE
  5
7BB
330
1F
100
AcDbEntity
  8
2
  6
CONTINUOUS
370
25
 62
7
100
AcDbLine
 10
2.50238089164545
 20
53.50047617832909
 30
0.0
 11
3.753571337468175
 21
52.24928573250637
 31
0.0
  0
LINE
  5
7BC
330
1F
100
AcDbEntity
  8
2
  6
CONTINUOUS
370
25
 62
7
100
AcDbLine
 10
2.855934282238728
 20
53.57118685644775
 30
0.0
 11
4.283901423358094
 21
52.14321971532839
 31
0.0
  0
LINE
  5
7BD
330
1F
100
AcDbEntity
  8
2
  6
CONTINUOUS
370
25
 62
7
100
AcDbLine
 10
3.209487672832002
 20
53.6418975345664
 30
0.0
 11
4.814231509248004
 21
52.0371536981504
 31
0.0
  0
LINE
  5
7BE
330
1F
100
AcDbEntity
  8
2
  6
CONTINUOUS
370
25
 62
7
100
AcDbLine
 10
3.563041063425281
 20
53.71260821268505
 30
0.0
 11
5.0
 21
52.27564927611034
 31
0.0
  0
LINE
  5
7BF
330
1F
100
AcDbEntity
  8
2
  6
CONTINUOUS
370
25
 62
7
100
AcDbLine
 10
3.916594454018554
 20
53.78331889080371
 30
0.0
 11
5.0
 21
52.69991334482226
 31
0.0
  0
LINE
  5
7C0
330
1F
100
AcDbEntity
  8
2
  6
CONTINUOUS
370
25
 62
7
100
AcDbLine
 10
4.270147844611833
 20
53.85402956892237
 30
0.0
 11
5.0
 21
53.1241774135342
 31
0.0
  0
LINE
  5
7C1
330
1F
100
AcDbEntity
  8
2
  6
CONTINUOUS
370
25
 62
7
100
AcDbLine
 10
4.623701235205106
 20
53.92474024704102
 30
0.0
 11
5.0
 21
53.54844148224613
 31
0.0
  0
LINE
  5
7C2
330
1F
100
AcDbEntity
  8
2
  6
CONTINUOUS
370
25
 62
7
100
AcDbLine
 10
4.977254625798385
 20
53.99545092515967
 30
0.0
 11
5.0
 21
53.97270555095806
 31
0.0
  0
LINE
  5
7C3
330
1F
100
AcDbEntity
  8
2
  6
CONTINUOUS
370
25
 62
7
100
AcDbLine
 10
85.0
 20
53.0
 30
0.0
 11
80.0
 21
52.0
 31
0.0
  0
LINE
  5
7C4
330
1F
100
AcDbEntity
  8
2
  6
CONTINUOUS
370
25
 62
7
100
AcDbLine
 10
80.0
 20
52.0
 30
0.0
 11
80.0
 21
54.0
 31
0.0
  0
LINE
  5
7C5
330
1F
100
AcDbEntity
  8
2
  6
CONTINUOUS
370
25
 62
7
100
AcDbLine
 10
80.0
 20
54.0
 30
0.0
 11
85.0
 21
53.0
 31
0.0
  0
LINE
  5
7C6
330
1F
100
AcDbEntity
  8
2
  6
CONTINUOUS
370
25
 62
7
100
AcDbLine
 10
84.67396586110742
 20
52.93479317222149
 30
0.0
 11
84.78264390740493
 21
53.043471218519
 31
0.0
  0
LINE
  5
7C7
330
1F
100
AcDbEntity
  8
2
  6
CONTINUOUS
370
25
 62
7
100
AcDbLine
 10
84.14363577521749
 20
52.82872715504349
 30
0.0
 11
84.42909051681166
 21
53.11418189663765
 31
0.0
  0
LINE
  5
7C8
330
1F
100
AcDbEntity
  8
2
  6
CONTINUOUS
370
25
 62
7
100
AcDbLine
 10
83.61330568932759
 20
52.72266113786552
 30
0.0
 11
84.07553712621839
 21
53.18489257475632
 31
0.0
  0
LINE
  5
7C9
330
1F
100
AcDbEntity
  8
2
  6
CONTINUOUS
370
25
 62
7
100
AcDbLine
 10
83.08297560343769
 20
52.61659512068754
 30
0.0
 11
83.72198373562512
 21
53.25560325287497
 31
0.0
  0
LINE
  5
7CA
330
1F
100
AcDbEntity
  8
2
  6
CONTINUOUS
370
25
 62
7
100
AcDbLine
 10
82.55264551754777
 20
52.51052910350955
 30
0.0
 11
83.36843034503184
 21
53.32631393099362
 31
0.0
  0
LINE
  5
7CB
330
1F
100
AcDbEntity
  8
2
  6
CONTINUOUS
370
25
 62
7
100
AcDbLine
 10
82.02231543165786
 20
52.40446308633158
 30
0.0
 11
83.01487695443856
 21
53.39702460911227
 31
0.0
  0
LINE
  5
7CC
330
1F
100
AcDbEntity
  8
2
  6
CONTINUOUS
370
25
 62
7
100
AcDbLine
 10
81.49198534576796
 20
52.29839706915361
 30
0.0
 11
82.66132356384529
 21
53.46773528723092
 31
0.0
  0
LINE
  5
7CD
330
1F
100
AcDbEntity
  8
2
  6
CONTINUOUS
370
25
 62
7
100
AcDbLine
 10
80.96165525987806
 20
52.19233105197564
 30
0.0
 11
82.30777017325202
 21
53.53844596534959
 31
0.0
  0
LINE
  5
7CE
330
1F
100
AcDbEntity
  8
2
  6
CONTINUOUS
370
25
 62
7
100
AcDbLine
 10
80.43132517398813
 20
52.08626503479763
 30
0.0
 11
81.95421678265875
 21
53.60915664346825
 31
0.0
  0
LINE
  5
7CF
330
1F
100
AcDbEntity
  8
2
  6
CONTINUOUS
370
25
 62
7
100
AcDbLine
 10
80.0
 20
52.07920392952143
 30
0.0
 11
81.60066339206547
 21
53.6798673215869
 31
0.0
  0
LINE
  5
7D0
330
1F
100
AcDbEntity
  8
2
  6
CONTINUOUS
370
25
 62
7
100
AcDbLine
 10
80.0
 20
52.50346799823336
 30
0.0
 11
81.2471100014722
 21
53.75057799970556
 31
0.0
  0
LINE
  5
7D1
330
1F
100
AcDbEntity
  8
2
  6
CONTINUOUS
370
25
 62
7
100
AcDbLine
 10
80.0
 20
52.92773206694529
 30
0.0
 11
80.89355661087893
 21
53.82128867782422
 31
0.0
  0
LINE
  5
7D2
330
1F
100
AcDbEntity
  8
2
  6
CONTINUOUS
370
25
 62
7
100
AcDbLine
 10
80.0
 20
53.35199613565722
 30
0.0
 11
80.54000322028566
 21
53.89199935594287
 31
0.0
  0
LINE
  5
7D3
330
1F
100
AcDbEntity
  8
2
  6
CONTINUOUS
370
25
 62
7
100
AcDbLine
 10
80.0
 20
53.77626020436914
 30
0.0
 11
80.18644982969238
 21
53.96271003406152
 31
0.0
  0
LINE
  5
7D4
330
1F
100
AcDbEntity
  8
2
  6
CONTINUOUS
370
25
 62
7
100
AcDbLine
 10
80.0
 20
52.37038943812185
 30
0.0
 11
80.30865786510154
 21
52.06173157302031
 31
0.0
  0
LINE
  5
7D5
330
1F
100
AcDbEntity
  8
2
  6
CONTINUOUS
370
25
 62
7
100
AcDbLine
 10
80.0
 20
52.79465350683377
 30
0.0
 11
80.66221125569481
 21
52.13244225113895
 31
0.0
  0
LINE
  5
7D6
330
1F
100
AcDbEntity
  8
2
  6
CONTINUOUS
370
25
 62
7
100
AcDbLine
 10
80.0
 20
53.21891757554572
 30
0.0
 11
81.0157646462881
 21
52.20315292925761
 31
0.0
  0
LINE
  5
7D7
330
1F
100
AcDbEntity
  8
2
  6
CONTINUOUS
370
25
 62
7
100
AcDbLine
 10
80.0
 20
53.64318164425764
 30
0.0
 11
81.36931803688137
 21
52.27386360737627
 31
0.0
  0
LINE
  5
7D8
330
1F
100
AcDbEntity
  8
2
  6
CONTINUOUS
370
25
 62
7
100
AcDbLine
 10
80.08430714121194
 20
53.98313857175762
 30
0.0
 11
81.72287142747463
 21
52.34457428549493
 31
0.0
  0
LINE
  5
7D9
330
1F
100
AcDbEntity
  8
2
  6
CONTINUOUS
370
25
 62
7
100
AcDbLine
 10
80.61463722710188
 20
53.87707255457963
 30
0.0
 11
82.07642481806792
 21
52.41528496361359
 31
0.0
  0
LINE
  5
7DA
330
1F
100
AcDbEntity
  8
2
  6
CONTINUOUS
370
25
 62
7
100
AcDbLine
 10
81.14496731299178
 20
53.77100653740165
 30
0.0
 11
82.4299782086612
 21
52.48599564173223
 31
0.0
  0
LINE
  5
7DB
330
1F
100
AcDbEntity
  8
2
  6
CONTINUOUS
370
25
 62
7
100
AcDbLine
 10
81.67529739888168
 20
53.66494052022367
 30
0.0
 11
82.78353159925446
 21
52.55670631985089
 31
0.0
  0
LINE
  5
7DC
330
1F
100
AcDbEntity
  8
2
  6
CONTINUOUS
370
25
 62
7
100
AcDbLine
 10
82.20562748477158
 20
53.55887450304569
 30
0.0
 11
83.13708498984772
 21
52.62741699796955
 31
0.0
  0
LINE
  5
7DD
330
1F
100
AcDbEntity
  8
2
  6
CONTINUOUS
370
25
 62
7
100
AcDbLine
 10
82.73595757066148
 20
53.45280848586771
 30
0.0
 11
83.490638380441
 21
52.69812767608819
 31
0.0
  0
LINE
  5
7DE
330
1F
100
AcDbEntity
  8
2
  6
CONTINUOUS
370
25
 62
7
100
AcDbLine
 10
83.26628765655138
 20
53.34674246868973
 30
0.0
 11
83.84419177103426
 21
52.76883835420685
 31
0.0
  0
LINE
  5
7DF
330
1F
100
AcDbEntity
  8
2
  6
CONTINUOUS
370
25
 62
7
100
AcDbLine
 10
83.79661774244128
 20
53.24067645151175
 30
0.0
 11
84.19774516162754
 21
52.83954903232549
 31
0.0
  0
LINE
  5
7E0
330
1F
100
AcDbEntity
  8
2
  6
CONTINUOUS
370
25
 62
7
100
AcDbLine
 10
84.32694782833123
 20
53.13461043433375
 30
0.0
 11
84.55129855222083
 21
52.91025971044415
 31
0.0
  0
LINE
  5
7E1
330
1F
100
AcDbEntity
  8
2
  6
CONTINUOUS
370
25
 62
7
100
AcDbLine
 10
84.85727791422113
 20
53.02854441715577
 30
0.0
 11
84.90485194281409
 21
52.98097038856281
 31
0.0
  0
TEXT
  5
7E2
330
1F
100
AcDbEntity
  8
2
  6
CONTINUOUS
370
25
 62
7
100
AcDbText
 10
39.58333333333334
 20
54.5
 30
0.0
 40
3.5
  1
85
 72
     1
 11
42.5
 21
54.5
 31
0.0
100
AcDbText
  0
LINE
  5
7E3
330
1F
100
AcDbEntity
  8
SK2
  6
CONTINUOUS
370
25
 62
7
100
AcDbLine
 10
26.0
 20
31.0
 30
0.0
 11
26.0
 21
44.0
 31
0.0
  0
LINE
  5
7E4
330
1F
100
AcDbEntity
  8
SK2
  6
CONTINUOUS
370
25
 62
7
100
AcDbLine
 10
85.0
 20
44.0
 30
0.0
 11
85.0
 21
9.25
 31
0.0
  0
LINE
  5
7E5
330
1F
100
AcDbEntity
  8
SK2
  6
CONTINUOUS
370
25
 62
7
100
AcDbLine
 10
26.0
 20
43.0
 30
0.0
 11
85.0
 21
43.0
 31
0.0
  0
LINE
  5
7E6
330
1F
100
AcDbEntity
  8
SK2
  6
CONTINUOUS
370
25
 62
7
100
AcDbLine
 10
26.0
 20
43.0
 30
0.0
 11
31.0
 21
44.0
 31
0.0
  0
LINE
  5
7E7
330
1F
100
AcDbEntity
  8
SK2
  6
CONTINUOUS
370
25
 62
7
100
AcDbLine
 10
31.0
 20
44.0
 30
0.0
 11
31.0
 21
42.0
 31
0.0
  0
LINE
  5
7E8
330
1F
100
AcDbEntity
  8
SK2
  6
CONTINUOUS
370
25
 62
7
100
AcDbLine
 10
31.0
 20
42.0
 30
0.0
 11
26.0
 21
43.0
 31
0.0
  0
LINE
  5
7E9
330
1F
100
AcDbEntity
  8
SK2
  6
CONTINUOUS
370
25
 62
7
100
AcDbLine
 10
30.97427851124154
 20
42.0051442977517
 30
0.0
 11
31.0
 21
42.03086578651016
 31
0.0
  0
LINE
  5
7EA
330
1F
100
AcDbEntity
  8
SK2
  6
CONTINUOUS
370
25
 62
7
100
AcDbLine
 10
30.62072512064826
 20
42.07585497587036
 30
0.0
 11
31.0
 21
42.4551298552221
 31
0.0
  0
LINE
  5
7EB
330
1F
100
AcDbEntity
  8
SK2
  6
CONTINUOUS
370
25
 62
7
100
AcDbLine
 10
30.26717173005499
 20
42.14656565398901
 30
0.0
 11
31.0
 21
42.87939392393403
 31
0.0
  0
LINE
  5
7EC
330
1F
100
AcDbEntity
  8
SK2
  6
CONTINUOUS
370
25
 62
7
100
AcDbLine
 10
29.91361833946171
 20
42.21727633210767
 30
0.0
 11
31.0
 21
43.30365799264596
 31
0.0
  0
LINE
  5
7ED
330
1F
100
AcDbEntity
  8
SK2
  6
CONTINUOUS
370
25
 62
7
100
AcDbLine
 10
29.56006494886842
 20
42.28798701022632
 30
0.0
 11
31.0
 21
43.72792206135789
 31
0.0
  0
LINE
  5
7EE
330
1F
100
AcDbEntity
  8
SK2
  6
CONTINUOUS
370
25
 62
7
100
AcDbLine
 10
29.20651155827515
 20
42.35869768834498
 30
0.0
 11
30.80976733741271
 21
43.96195346748254
 31
0.0
  0
LINE
  5
7EF
330
1F
100
AcDbEntity
  8
SK2
  6
CONTINUOUS
370
25
 62
7
100
AcDbLine
 10
28.85295816768187
 20
42.42940836646363
 30
0.0
 11
30.27943725152279
 21
43.85588745030455
 31
0.0
  0
LINE
  5
7F0
330
1F
100
AcDbEntity
  8
SK2
  6
CONTINUOUS
370
25
 62
7
100
AcDbLine
 10
28.49940477708859
 20
42.50011904458228
 30
0.0
 11
29.74910716563288
 21
43.74982143312657
 31
0.0
  0
LINE
  5
7F1
330
1F
100
AcDbEntity
  8
SK2
  6
CONTINUOUS
370
25
 62
7
100
AcDbLine
 10
28.14585138649532
 20
42.57082972270094
 30
0.0
 11
29.21877707974296
 21
43.64375541594859
 31
0.0
  0
LINE
  5
7F2
330
1F
100
AcDbEntity
  8
SK2
  6
CONTINUOUS
370
25
 62
7
100
AcDbLine
 10
27.79229799590204
 20
42.64154040081959
 30
0.0
 11
28.68844699385305
 21
43.53768939877061
 31
0.0
  0
LINE
  5
7F3
330
1F
100
AcDbEntity
  8
SK2
  6
CONTINUOUS
370
25
 62
7
100
AcDbLine
 10
27.43874460530877
 20
42.71225107893825
 30
0.0
 11
28.15811690796313
 21
43.43162338159262
 31
0.0
  0
LINE
  5
7F4
330
1F
100
AcDbEntity
  8
SK2
  6
CONTINUOUS
370
25
 62
7
100
AcDbLine
 10
27.08519121471549
 20
42.78296175705691
 30
0.0
 11
27.62778682207322
 21
43.32555736441464
 31
0.0
  0
LINE
  5
7F5
330
1F
100
AcDbEntity
  8
SK2
  6
CONTINUOUS
370
25
 62
7
100
AcDbLine
 10
26.73163782412221
 20
42.85367243517555
 30
0.0
 11
27.09745673618331
 21
43.21949134723666
 31
0.0
  0
LINE
  5
7F6
330
1F
100
AcDbEntity
  8
SK2
  6
CONTINUOUS
370
25
 62
7
100
AcDbLine
 10
26.37808443352894
 20
42.92438311329422
 30
0.0
 11
26.56712665029339
 21
43.11342533005867
 31
0.0
  0
LINE
  5
7F7
330
1F
100
AcDbEntity
  8
SK2
  6
CONTINUOUS
370
25
 62
7
100
AcDbLine
 10
26.02453104293566
 20
42.99509379141287
 30
0.0
 11
26.03679656440348
 21
43.00735931288069
 31
0.0
  0
LINE
  5
7F8
330
1F
100
AcDbEntity
  8
SK2
  6
CONTINUOUS
370
25
 62
7
100
AcDbLine
 10
26.1292026667036
 20
43.02584053334071
 30
0.0
 11
26.19380400005539
 21
42.96123919998892
 31
0.0
  0
LINE
  5
7F9
330
1F
100
AcDbEntity
  8
SK2
  6
CONTINUOUS
370
25
 62
7
100
AcDbLine
 10
26.48275605729687
 20
43.09655121145937
 30
0.0
 11
26.72413408594531
 21
42.85517318281094
 31
0.0
  0
LINE
  5
7FA
330
1F
100
AcDbEntity
  8
SK2
  6
CONTINUOUS
370
25
 62
7
100
AcDbLine
 10
26.83630944789015
 20
43.16726188957803
 30
0.0
 11
27.25446417183522
 21
42.74910716563296
 31
0.0
  0
LINE
  5
7FB
330
1F
100
AcDbEntity
  8
SK2
  6
CONTINUOUS
370
25
 62
7
100
AcDbLine
 10
27.18986283848343
 20
43.23797256769668
 30
0.0
 11
27.78479425772514
 21
42.64304114845498
 31
0.0
  0
LINE
  5
7FC
330
1F
100
AcDbEntity
  8
SK2
  6
CONTINUOUS
370
25
 62
7
100
AcDbLine
 10
27.5434162290767
 20
43.30868324581534
 30
0.0
 11
28.31512434361505
 21
42.53697513127699
 31
0.0
  0
LINE
  5
7FD
330
1F
100
AcDbEntity
  8
SK2
  6
CONTINUOUS
370
25
 62
7
100
AcDbLine
 10
27.89696961966998
 20
43.379393923934
 30
0.0
 11
28.84545442950497
 21
42.43090911409901
 31
0.0
  0
LINE
  5
7FE
330
1F
100
AcDbEntity
  8
SK2
  6
CONTINUOUS
370
25
 62
7
100
AcDbLine
 10
28.25052301026326
 20
43.45010460205265
 30
0.0
 11
29.37578451539489
 21
42.32484309692102
 31
0.0
  0
LINE
  5
7FF
330
1F
100
AcDbEntity
  8
SK2
  6
CONTINUOUS
370
25
 62
7
100
AcDbLine
 10
28.60407640085654
 20
43.52081528017131
 30
0.0
 11
29.9061146012848
 21
42.21877707974305
 31
0.0
  0
LINE
  5
800
330
1F
100
AcDbEntity
  8
SK2
  6
CONTINUOUS
370
25
 62
7
100
AcDbLine
 10
28.95762979144981
 20
43.59152595828996
 30
0.0
 11
30.43644468717472
 21
42.11271106256506
 31
0.0
  0
LINE
  5
801
330
1F
100
AcDbEntity
  8
SK2
  6
CONTINUOUS
370
25
 62
7
100
AcDbLine
 10
29.31118318204309
 20
43.66223663640861
 30
0.0
 11
30.96677477306464
 21
42.00664504538707
 31
0.0
  0
LINE
  5
802
330
1F
100
AcDbEntity
  8
SK2
  6
CONTINUOUS
370
25
 62
7
100
AcDbLine
 10
29.66473657263637
 20
43.73294731452727
 30
0.0
 11
31.0
 21
42.39768388716365
 31
0.0
  0
LINE
  5
803
330
1F
100
AcDbEntity
  8
SK2
  6
CONTINUOUS
370
25
 62
7
100
AcDbLine
 10
30.01828996322965
 20
43.80365799264592
 30
0.0
 11
31.0
 21
42.82194795587558
 31
0.0
  0
LINE
  5
804
330
1F
100
AcDbEntity
  8
SK2
  6
CONTINUOUS
370
25
 62
7
100
AcDbLine
 10
30.37184335382292
 20
43.87436867076458
 30
0.0
 11
31.0
 21
43.24621202458751
 31
0.0
  0
LINE
  5
805
330
1F
100
AcDbEntity
  8
SK2
  6
CONTINUOUS
370
25
 62
7
100
AcDbLine
 10
30.72539674441621
 20
43.94507934888324
 30
0.0
 11
31.0
 21
43.67047609329944
 31
0.0
  0
LINE
  5
806
330
1F
100
AcDbEntity
  8
SK2
  6
CONTINUOUS
370
25
 62
7
100
AcDbLine
 10
85.0
 20
43.0
 30
0.0
 11
80.0
 21
42.0
 31
0.0
  0
LINE
  5
807
330
1F
100
AcDbEntity
  8
SK2
  6
CONTINUOUS
370
25
 62
7
100
AcDbLine
 10
80.0
 20
42.0
 30
0.0
 11
80.0
 21
44.0
 31
0.0
  0
LINE
  5
808
330
1F
100
AcDbEntity
  8
SK2
  6
CONTINUOUS
370
25
 62
7
100
AcDbLine
 10
80.0
 20
44.0
 30
0.0
 11
85.0
 21
43.0
 31
0.0
  0
LINE
  5
809
330
1F
100
AcDbEntity
  8
SK2
  6
CONTINUOUS
370
25
 62
7
100
AcDbLine
 10
84.97637388563952
 20
42.9952747771279
 30
0.0
 11
84.98424925709301
 21
43.0031501485814
 31
0.0
  0
LINE
  5
80A
330
1F
100
AcDbEntity
  8
SK2
  6
CONTINUOUS
370
25
 62
7
100
AcDbLine
 10
84.44604379974962
 20
42.88920875994993
 30
0.0
 11
84.63069586649975
 21
43.07386082670006
 31
0.0
  0
LINE
  5
80B
330
1F
100
AcDbEntity
  8
SK2
  6
CONTINUOUS
370
25
 62
7
100
AcDbLine
 10
83.91571371385969
 20
42.78314274277193
 30
0.0
 11
84.27714247590647
 21
43.14457150481871
 31
0.0
  0
LINE
  5
80C
330
1F
100
AcDbEntity
  8
SK2
  6
CONTINUOUS
370
25
 62
7
100
AcDbLine
 10
83.38538362796977
 20
42.67707672559394
 30
0.0
 11
83.9235890853132
 21
43.21528218293737
 31
0.0
  0
LINE
  5
80D
330
1F
100
AcDbEntity
  8
SK2
  6
CONTINUOUS
370
25
 62
7
100
AcDbLine
 10
82.85505354207987
 20
42.57101070841597
 30
0.0
 11
83.57003569471992
 21
43.28599286105602
 31
0.0
  0
LINE
  5
80E
330
1F
100
AcDbEntity
  8
SK2
  6
CONTINUOUS
370
25
 62
7
100
AcDbLine
 10
82.32472345618997
 20
42.464944691238
 30
0.0
 11
83.21648230412666
 21
43.35670353917468
 31
0.0
  0
LINE
  5
80F
330
1F
100
AcDbEntity
  8
SK2
  6
CONTINUOUS
370
25
 62
7
100
AcDbLine
 10
81.79439337030006
 20
42.35887867406001
 30
0.0
 11
82.86292891353338
 21
43.42741421729333
 31
0.0
  0
LINE
  5
810
330
1F
100
AcDbEntity
  8
SK2
  6
CONTINUOUS
370
25
 62
7
100
AcDbLine
 10
81.26406328441014
 20
42.25281265688202
 30
0.0
 11
82.5093755229401
 21
43.49812489541198
 31
0.0
  0
LINE
  5
811
330
1F
100
AcDbEntity
  8
SK2
  6
CONTINUOUS
370
25
 62
7
100
AcDbLine
 10
80.73373319852024
 20
42.14674663970405
 30
0.0
 11
82.15582213234683
 21
43.56883557353063
 31
0.0
  0
LINE
  5
812
330
1F
100
AcDbEntity
  8
SK2
  6
CONTINUOUS
370
25
 62
7
100
AcDbLine
 10
80.20340311263034
 20
42.04068062252608
 30
0.0
 11
81.80226874175356
 21
43.6395462516493
 31
0.0
  0
LINE
  5
813
330
1F
100
AcDbEntity
  8
SK2
  6
CONTINUOUS
370
25
 62
7
100
AcDbLine
 10
80.0
 20
42.26154157860766
 30
0.0
 11
81.44871535116029
 21
43.71025692976795
 31
0.0
  0
LINE
  5
814
330
1F
100
AcDbEntity
  8
SK2
  6
CONTINUOUS
370
25
 62
7
100
AcDbLine
 10
80.0
 20
42.68580564731959
 30
0.0
 11
81.09516196056701
 21
43.7809676078866
 31
0.0
  0
LINE
  5
815
330
1F
100
AcDbEntity
  8
SK2
  6
CONTINUOUS
370
25
 62
7
100
AcDbLine
 10
80.0
 20
43.11006971603152
 30
0.0
 11
80.74160856997374
 21
43.85167828600525
 31
0.0
  0
LINE
  5
816
330
1F
100
AcDbEntity
  8
SK2
  6
CONTINUOUS
370
25
 62
7
100
AcDbLine
 10
80.0
 20
43.53433378474345
 30
0.0
 11
80.38805517938047
 21
43.92238896412392
 31
0.0
  0
LINE
  5
817
330
1F
100
AcDbEntity
  8
SK2
  6
CONTINUOUS
370
25
 62
7
100
AcDbLine
 10
80.0
 20
43.95859785345537
 30
0.0
 11
80.0345017887872
 21
43.99309964224257
 31
0.0
  0
LINE
  5
818
330
1F
100
AcDbEntity
  8
SK2
  6
CONTINUOUS
370
25
 62
7
100
AcDbLine
 10
80.0
 20
42.18805178903563
 30
0.0
 11
80.15670982419635
 21
42.03134196483927
 31
0.0
  0
LINE
  5
819
330
1F
100
AcDbEntity
  8
SK2
  6
CONTINUOUS
370
25
 62
7
100
AcDbLine
 10
80.0
 20
42.61231585774756
 30
0.0
 11
80.51026321478963
 21
42.10205264295793
 31
0.0
  0
LINE
  5
81A
330
1F
100
AcDbEntity
  8
SK2
  6
CONTINUOUS
370
25
 62
7
100
AcDbLine
 10
80.0
 20
43.03657992645948
 30
0.0
 11
80.86381660538291
 21
42.17276332107657
 31
0.0
  0
LINE
  5
81B
330
1F
100
AcDbEntity
  8
SK2
  6
CONTINUOUS
370
25
 62
7
100
AcDbLine
 10
80.0
 20
43.4608439951714
 30
0.0
 11
81.21736999597617
 21
42.24347399919523
 31
0.0
  0
LINE
  5
81C
330
1F
100
AcDbEntity
  8
SK2
  6
CONTINUOUS
370
25
 62
7
100
AcDbLine
 10
80.0
 20
43.88510806388334
 30
0.0
 11
81.57092338656945
 21
42.31418467731389
 31
0.0
  0
LINE
  5
81D
330
1F
100
AcDbEntity
  8
SK2
  6
CONTINUOUS
370
25
 62
7
100
AcDbLine
 10
80.38671516574408
 20
43.92265696685119
 30
0.0
 11
81.92447677716272
 21
42.38489535543255
 31
0.0
  0
LINE
  5
81E
330
1F
100
AcDbEntity
  8
SK2
  6
CONTINUOUS
370
25
 62
7
100
AcDbLine
 10
80.91704525163398
 20
43.81659094967321
 30
0.0
 11
82.278030167756
 21
42.45560603355119
 31
0.0
  0
LINE
  5
81F
330
1F
100
AcDbEntity
  8
SK2
  6
CONTINUOUS
370
25
 62
7
100
AcDbLine
 10
81.44737533752388
 20
43.71052493249523
 30
0.0
 11
82.63158355834926
 21
42.52631671166985
 31
0.0
  0
LINE
  5
820
330
1F
100
AcDbEntity
  8
SK2
  6
CONTINUOUS
370
25
 62
7
100
AcDbLine
 10
81.97770542341378
 20
43.60445891531725
 30
0.0
 11
82.98513694894253
 21
42.59702738978851
 31
0.0
  0
LINE
  5
821
330
1F
100
AcDbEntity
  8
SK2
  6
CONTINUOUS
370
25
 62
7
100
AcDbLine
 10
82.50803550930368
 20
43.49839289813927
 30
0.0
 11
83.3386903395358
 21
42.66773806790715
 31
0.0
  0
LINE
  5
822
330
1F
100
AcDbEntity
  8
SK2
  6
CONTINUOUS
370
25
 62
7
100
AcDbLine
 10
83.03836559519361
 20
43.39232688096128
 30
0.0
 11
83.69224373012908
 21
42.73844874602581
 31
0.0
  0
LINE
  5
823
330
1F
100
AcDbEntity
  8
SK2
  6
CONTINUOUS
370
25
 62
7
100
AcDbLine
 10
83.56869568108353
 20
43.2862608637833
 30
0.0
 11
84.04579712072236
 21
42.80915942414447
 31
0.0
  0
LINE
  5
824
330
1F
100
AcDbEntity
  8
SK2
  6
CONTINUOUS
370
25
 62
7
100
AcDbLine
 10
84.09902576697343
 20
43.18019484660532
 30
0.0
 11
84.39935051131563
 21
42.87987010226311
 31
0.0
  0
LINE
  5
825
330
1F
100
AcDbEntity
  8
SK2
  6
CONTINUOUS
370
25
 62
7
100
AcDbLine
 10
84.62935585286333
 20
43.07412882942734
 30
0.0
 11
84.7529039019089
 21
42.95058078038177
 31
0.0
  0
TEXT
  5
826
330
1F
100
AcDbEntity
  8
SK2
  6
CONTINUOUS
370
25
 62
7
100
AcDbText
 10
52.58333333333334
 20
44.5
 30
0.0
 40
3.5
  1
59
 72
     1
 11
55.5
 21
44.5
 31
0.0
100
AcDbText
  0
LINE
  5
827
330
1F
100
AcDbEntity
  8
SK2
  6
CONTINUOUS
370
25
 62
7
100
AcDbLine
 10
29.00640439
 20
-12.1845
 30
0.0
 11
108.0
 21
-12.1845
 31
0.0
  0
LINE
  5
828
330
1F
100
AcDbEntity
  8
SK2
  6
CONTINUOUS
370
25
 62
7
100
AcDbLine
 10
108.0
 20
12.1845
 30
0.0
 11
29.00640439
 21
12.1845
 31
0.0
  0
LINE
  5
829
330
1F
100
AcDbEntity
  8
SK2
  6
CONTINUOUS
370
25
 62
7
100
AcDbLine
 10
107.0
 20
-19.1845
 30
0.0
 11
107.0
 21
19.1845
 31
0.0
  0
LINE
  5
82A
330
1F
100
AcDbEntity
  8
SK2
  6
CONTINUOUS
370
25
 62
7
100
AcDbLine
 10
107.0
 20
-12.1845
 30
0.0
 11
108.0
 21
-17.1845
 31
0.0
  0
LINE
  5
82B
330
1F
100
AcDbEntity
  8
SK2
  6
CONTINUOUS
370
25
 62
7
100
AcDbLine
 10
108.0
 20
-17.1845
 30
0.0
 11
106.0
 21
-17.1845
 31
0.0
  0
LINE
  5
82C
330
1F
100
AcDbEntity
  8
SK2
  6
CONTINUOUS
370
25
 62
7
100
AcDbLine
 10
106.0
 20
-17.1845
 30
0.0
 11
107.0
 21
-12.1845
 31
0.0
  0
LINE
  5
82D
330
1F
100
AcDbEntity
  8
SK2
  6
CONTINUOUS
370
25
 62
7
100
AcDbLine
 10
107.7068979158215
 20
-17.1845
 30
0.0
 11
107.9511496526369
 21
-16.94024826318459
 31
0.0
  0
LINE
  5
82E
330
1F
100
AcDbEntity
  8
SK2
  6
CONTINUOUS
370
25
 62
7
100
AcDbLine
 10
107.2826338471096
 20
-17.1845
 30
0.0
 11
107.8804389745183
 21
-16.58669487259134
 31
0.0
  0
LINE
  5
82F
330
1F
100
AcDbEntity
  8
SK2
  6
CONTINUOUS
370
25
 62
7
100
AcDbLine
 10
106.8583697783977
 20
-17.1845
 30
0.0
 11
107.8097282963996
 21
-16.23314148199808
 31
0.0
  0
LINE
  5
830
330
1F
100
AcDbEntity
  8
SK2
  6
CONTINUOUS
370
25
 62
7
100
AcDbLine
 10
106.4341057096858
 20
-17.1845
 30
0.0
 11
107.739017618281
 21
-15.8795880914048
 31
0.0
  0
LINE
  5
831
330
1F
100
AcDbEntity
  8
SK2
  6
CONTINUOUS
370
25
 62
7
100
AcDbLine
 10
106.0098416409738
 20
-17.1845
 30
0.0
 11
107.6683069401623
 21
-15.52603470081152
 31
0.0
  0
LINE
  5
832
330
1F
100
AcDbEntity
  8
SK2
  6
CONTINUOUS
370
25
 62
7
100
AcDbLine
 10
106.1036056069345
 20
-16.6664719653274
 30
0.0
 11
107.5975962620437
 21
-15.17248131021825
 31
0.0
  0
LINE
  5
833
330
1F
100
AcDbEntity
  8
SK2
  6
CONTINUOUS
370
25
 62
7
100
AcDbLine
 10
106.2096716241125
 20
-16.1361418794375
 30
0.0
 11
107.526885583925
 21
-14.818927919625
 31
0.0
  0
LINE
  5
834
330
1F
100
AcDbEntity
  8
SK2
  6
CONTINUOUS
370
25
 62
7
100
AcDbLine
 10
106.3157376412905
 20
-15.6058117935476
 30
0.0
 11
107.4561749058063
 21
-14.46537452903172
 31
0.0
  0
LINE
  5
835
330
1F
100
AcDbEntity
  8
SK2
  6
CONTINUOUS
370
25
 62
7
100
AcDbLine
 10
106.4218036584685
 20
-15.07548170765767
 30
0.0
 11
107.3854642276877
 21
-14.11182113843844
 31
0.0
  0
LINE
  5
836
330
1F
100
AcDbEntity
  8
SK2
  6
CONTINUOUS
370
25
 62
7
100
AcDbLine
 10
106.5278696756464
 20
-14.54515162176779
 30
0.0
 11
107.314753549569
 21
-13.75826774784517
 31
0.0
  0
LINE
  5
837
330
1F
100
AcDbEntity
  8
SK2
  6
CONTINUOUS
370
25
 62
7
100
AcDbLine
 10
106.6339356928244
 20
-14.01482153587787
 30
0.0
 11
107.2440428714504
 21
-13.4047143572519
 31
0.0
  0
LINE
  5
838
330
1F
100
AcDbEntity
  8
SK2
  6
CONTINUOUS
370
25
 62
7
100
AcDbLine
 10
106.7400017100024
 20
-13.48449144998798
 30
0.0
 11
107.1733321933317
 21
-13.05116096665863
 31
0.0
  0
LINE
  5
839
330
1F
100
AcDbEntity
  8
SK2
  6
CONTINUOUS
370
25
 62
7
100
AcDbLine
 10
106.8460677271804
 20
-12.95416136409807
 30
0.0
 11
107.1026215152131
 21
-12.69760757606538
 31
0.0
  0
LINE
  5
83A
330
1F
100
AcDbEntity
  8
SK2
  6
CONTINUOUS
370
25
 62
7
100
AcDbLine
 10
106.9521337443584
 20
-12.42383127820816
 30
0.0
 11
107.0319108370944
 21
-12.34405418547209
 31
0.0
  0
LINE
  5
83B
330
1F
100
AcDbEntity
  8
SK2
  6
CONTINUOUS
370
25
 62
7
100
AcDbLine
 10
106.0466590715843
 20
-16.95120464207868
 30
0.0
 11
106.2799544295056
 21
-17.1845
 31
0.0
  0
LINE
  5
83C
330
1F
100
AcDbEntity
  8
SK2
  6
CONTINUOUS
370
25
 62
7
100
AcDbLine
 10
106.1173697497029
 20
-16.59765125148539
 30
0.0
 11
106.7042184982175
 21
-17.1845
 31
0.0
  0
LINE
  5
83D
330
1F
100
AcDbEntity
  8
SK2
  6
CONTINUOUS
370
25
 62
7
100
AcDbLine
 10
106.1880804278216
 20
-16.24409786089213
 30
0.0
 11
107.1284825669294
 21
-17.1845
 31
0.0
  0
LINE
  5
83E
330
1F
100
AcDbEntity
  8
SK2
  6
CONTINUOUS
370
25
 62
7
100
AcDbLine
 10
106.2587911059402
 20
-15.89054447029885
 30
0.0
 11
107.5527466356414
 21
-17.1845
 31
0.0
  0
LINE
  5
83F
330
1F
100
AcDbEntity
  8
SK2
  6
CONTINUOUS
370
25
 62
7
100
AcDbLine
 10
106.3295017840589
 20
-15.5369910797056
 30
0.0
 11
107.9770107043533
 21
-17.1845
 31
0.0
  0
LINE
  5
840
330
1F
100
AcDbEntity
  8
SK2
  6
CONTINUOUS
370
25
 62
7
100
AcDbLine
 10
106.4002124621775
 20
-15.18343768911231
 30
0.0
 11
107.8996813067337
 21
-16.6829065336685
 31
0.0
  0
LINE
  5
841
330
1F
100
AcDbEntity
  8
SK2
  6
CONTINUOUS
370
25
 62
7
100
AcDbLine
 10
106.4709231402962
 20
-14.82988429851905
 30
0.0
 11
107.7936152895557
 21
-16.1525764477786
 31
0.0
  0
LINE
  5
842
330
1F
100
AcDbEntity
  8
SK2
  6
CONTINUOUS
370
25
 62
7
100
AcDbLine
 10
106.5416338184148
 20
-14.47633090792577
 30
0.0
 11
107.6875492723778
 21
-15.6222463618887
 31
0.0
  0
LINE
  5
843
330
1F
100
AcDbEntity
  8
SK2
  6
CONTINUOUS
370
25
 62
7
100
AcDbLine
 10
106.6123444965335
 20
-14.12277751733251
 30
0.0
 11
107.5814832551998
 21
-15.0919162759988
 31
0.0
  0
LINE
  5
844
330
1F
100
AcDbEntity
  8
SK2
  6
CONTINUOUS
370
25
 62
7
100
AcDbLine
 10
106.6830551746521
 20
-13.76922412673922
 30
0.0
 11
107.4754172380218
 21
-14.56158619010888
 31
0.0
  0
LINE
  5
845
330
1F
100
AcDbEntity
  8
SK2
  6
CONTINUOUS
370
25
 62
7
100
AcDbLine
 10
106.7537658527708
 20
-13.41567073614597
 30
0.0
 11
107.3693512208438
 21
-14.03125610421898
 31
0.0
  0
LINE
  5
846
330
1F
100
AcDbEntity
  8
SK2
  6
CONTINUOUS
370
25
 62
7
100
AcDbLine
 10
106.8244765308895
 20
-13.06211734555271
 30
0.0
 11
107.2632852036658
 21
-13.50092601832908
 31
0.0
  0
LINE
  5
847
330
1F
100
AcDbEntity
  8
SK2
  6
CONTINUOUS
370
25
 62
7
100
AcDbLine
 10
106.8951872090081
 20
-12.70856395495943
 30
0.0
 11
107.1572191864879
 21
-12.97059593243918
 31
0.0
  0
LINE
  5
848
330
1F
100
AcDbEntity
  8
SK2
  6
CONTINUOUS
370
25
 62
7
100
AcDbLine
 10
106.9658978871268
 20
-12.35501056436615
 30
0.0
 11
107.0511531693099
 21
-12.44026584654927
 31
0.0
  0
LINE
  5
849
330
1F
100
AcDbEntity
  8
SK2
  6
CONTINUOUS
370
25
 62
7
100
AcDbLine
 10
107.0
 20
12.1845
 30
0.0
 11
106.0
 21
17.1845
 31
0.0
  0
LINE
  5
84A
330
1F
100
AcDbEntity
  8
SK2
  6
CONTINUOUS
370
25
 62
7
100
AcDbLine
 10
106.0
 20
17.1845
 30
0.0
 11
108.0
 21
17.1845
 31
0.0
  0
LINE
  5
84B
330
1F
100
AcDbEntity
  8
SK2
  6
CONTINUOUS
370
25
 62
7
100
AcDbLine
 10
108.0
 20
17.1845
 30
0.0
 11
107.0
 21
12.1845
 31
0.0
  0
LINE
  5
84C
330
1F
100
AcDbEntity
  8
SK2
  6
CONTINUOUS
370
25
 62
7
100
AcDbLine
 10
106.9605984199201
 20
12.38150790039937
 30
0.0
 11
107.0591023701198
 21
12.48001185059907
 31
0.0
  0
LINE
  5
84D
330
1F
100
AcDbEntity
  8
SK2
  6
CONTINUOUS
370
25
 62
7
100
AcDbLine
 10
106.8898877418015
 20
12.73506129099265
 30
0.0
 11
107.1651683872978
 21
13.01034193648897
 31
0.0
  0
LINE
  5
84E
330
1F
100
AcDbEntity
  8
SK2
  6
CONTINUOUS
370
25
 62
7
100
AcDbLine
 10
106.8191770636828
 20
13.08861468158591
 30
0.0
 11
107.2712344044758
 21
13.54067202237889
 31
0.0
  0
LINE
  5
84F
330
1F
100
AcDbEntity
  8
SK2
  6
CONTINUOUS
370
25
 62
7
100
AcDbLine
 10
106.7484663855642
 20
13.44216807217919
 30
0.0
 11
107.3773004216538
 21
14.07100210826879
 31
0.0
  0
LINE
  5
850
330
1F
100
AcDbEntity
  8
SK2
  6
CONTINUOUS
370
25
 62
7
100
AcDbLine
 10
106.6777557074455
 20
13.79572146277245
 30
0.0
 11
107.4833664388317
 21
14.60133219415869
 31
0.0
  0
LINE
  5
851
330
1F
100
AcDbEntity
  8
SK2
  6
CONTINUOUS
370
25
 62
7
100
AcDbLine
 10
106.6070450293269
 20
14.14927485336572
 30
0.0
 11
107.5894324560097
 21
15.13166228004859
 31
0.0
  0
LINE
  5
852
330
1F
100
AcDbEntity
  8
SK2
  6
CONTINUOUS
370
25
 62
7
100
AcDbLine
 10
106.5363343512082
 20
14.502828243959
 30
0.0
 11
107.6954984731877
 21
15.66199236593852
 31
0.0
  0
LINE
  5
853
330
1F
100
AcDbEntity
  8
SK2
  6
CONTINUOUS
370
25
 62
7
100
AcDbLine
 10
106.4656236730896
 20
14.85638163455228
 30
0.0
 11
107.8015644903657
 21
16.1923224518284
 31
0.0
  0
LINE
  5
854
330
1F
100
AcDbEntity
  8
SK2
  6
CONTINUOUS
370
25
 62
7
100
AcDbLine
 10
106.3949129949709
 20
15.20993502514553
 30
0.0
 11
107.9076305075437
 21
16.72265253771832
 31
0.0
  0
LINE
  5
855
330
1F
100
AcDbEntity
  8
SK2
  6
CONTINUOUS
370
25
 62
7
100
AcDbLine
 10
106.3242023168522
 20
15.5634884157388
 30
0.0
 11
107.9452139011134
 21
17.1845
 31
0.0
  0
LINE
  5
856
330
1F
100
AcDbEntity
  8
SK2
  6
CONTINUOUS
370
25
 62
7
100
AcDbLine
 10
106.2534916387336
 20
15.91704180633208
 30
0.0
 11
107.5209498324015
 21
17.1845
 31
0.0
  0
LINE
  5
857
330
1F
100
AcDbEntity
  8
SK2
  6
CONTINUOUS
370
25
 62
7
100
AcDbLine
 10
106.1827809606149
 20
16.27059519692536
 30
0.0
 11
107.0966857636896
 21
17.1845
 31
0.0
  0
LINE
  5
858
330
1F
100
AcDbEntity
  8
SK2
  6
CONTINUOUS
370
25
 62
7
100
AcDbLine
 10
106.1120702824963
 20
16.62414858751862
 30
0.0
 11
106.6724216949777
 21
17.1845
 31
0.0
  0
LINE
  5
859
330
1F
100
AcDbEntity
  8
SK2
  6
CONTINUOUS
370
25
 62
7
100
AcDbLine
 10
106.0413596043776
 20
16.9777019781119
 30
0.0
 11
106.2481576262657
 21
17.1845
 31
0.0
  0
LINE
  5
85A
330
1F
100
AcDbEntity
  8
SK2
  6
CONTINUOUS
370
25
 62
7
100
AcDbLine
 10
106.9915741729869
 20
12.22662913506532
 30
0.0
 11
107.0056172180087
 21
12.21258609004354
 31
0.0
  0
LINE
  5
85B
330
1F
100
AcDbEntity
  8
SK2
  6
CONTINUOUS
370
25
 62
7
100
AcDbLine
 10
106.885508155809
 20
12.75695922095521
 30
0.0
 11
107.0763278961274
 21
12.56613948063682
 31
0.0
  0
LINE
  5
85C
330
1F
100
AcDbEntity
  8
SK2
  6
CONTINUOUS
370
25
 62
7
100
AcDbLine
 10
106.779442138631
 20
13.28728930684512
 30
0.0
 11
107.147038574246
 21
12.91969287123007
 31
0.0
  0
LINE
  5
85D
330
1F
100
AcDbEntity
  8
SK2
  6
CONTINUOUS
370
25
 62
7
100
AcDbLine
 10
106.673376121453
 20
13.81761939273504
 30
0.0
 11
107.2177492523647
 21
13.27324626182336
 31
0.0
  0
LINE
  5
85E
330
1F
100
AcDbEntity
  8
SK2
  6
CONTINUOUS
370
25
 62
7
100
AcDbLine
 10
106.567310104275
 20
14.34794947862493
 30
0.0
 11
107.2884599304833
 21
13.62679965241662
 31
0.0
  0
LINE
  5
85F
330
1F
100
AcDbEntity
  8
SK2
  6
CONTINUOUS
370
25
 62
7
100
AcDbLine
 10
106.461244087097
 20
14.87827956451483
 30
0.0
 11
107.359170608602
 21
13.9803530430099
 31
0.0
  0
LINE
  5
860
330
1F
100
AcDbEntity
  8
SK2
  6
CONTINUOUS
370
25
 62
7
100
AcDbLine
 10
106.355178069919
 20
15.40860965040474
 30
0.0
 11
107.4298812867206
 21
14.33390643360318
 31
0.0
  0
LINE
  5
861
330
1F
100
AcDbEntity
  8
SK2
  6
CONTINUOUS
370
25
 62
7
100
AcDbLine
 10
106.2491120527411
 20
15.93893973629464
 30
0.0
 11
107.5005919648393
 21
14.68745982419642
 31
0.0
  0
LINE
  5
862
330
1F
100
AcDbEntity
  8
SK2
  6
CONTINUOUS
370
25
 62
7
100
AcDbLine
 10
106.1430460355631
 20
16.46926982218454
 30
0.0
 11
107.5713026429579
 21
15.0410132147897
 31
0.0
  0
LINE
  5
863
330
1F
100
AcDbEntity
  8
SK2
  6
CONTINUOUS
370
25
 62
7
100
AcDbLine
 10
106.0369800183851
 20
16.99959990807444
 30
0.0
 11
107.6420133210766
 21
15.39456660538298
 31
0.0
  0
LINE
  5
864
330
1F
100
AcDbEntity
  8
SK2
  6
CONTINUOUS
370
25
 62
7
100
AcDbLine
 10
106.2763439951715
 20
17.1845
 30
0.0
 11
107.7127239991952
 21
15.74811999597624
 31
0.0
  0
LINE
  5
865
330
1F
100
AcDbEntity
  8
SK2
  6
CONTINUOUS
370
25
 62
7
100
AcDbLine
 10
106.7006080638834
 20
17.1845
 30
0.0
 11
107.7834346773139
 21
16.10167338656952
 31
0.0
  0
LINE
  5
866
330
1F
100
AcDbEntity
  8
SK2
  6
CONTINUOUS
370
25
 62
7
100
AcDbLine
 10
107.1248721325953
 20
17.1845
 30
0.0
 11
107.8541453554325
 21
16.45522677716279
 31
0.0
  0
LINE
  5
867
330
1F
100
AcDbEntity
  8
SK2
  6
CONTINUOUS
370
25
 62
7
100
AcDbLine
 10
107.5491362013073
 20
17.1845
 30
0.0
 11
107.9248560335512
 21
16.80878016775604
 31
0.0
  0
LINE
  5
868
330
1F
100
AcDbEntity
  8
SK2
  6
CONTINUOUS
370
25
 62
7
100
AcDbLine
 10
107.9734002700192
 20
17.1845
 30
0.0
 11
107.9955667116699
 21
17.16233355834933
 31
0.0
  0
TEXT
  5
869
330
1F
100
AcDbEntity
  8
SK2
  6
CONTINUOUS
370
25
 62
7
100
AcDbText
 10
105.5
 20
-6.475
 30
0.0
 40
3.5
  1
24.369
 50
90.0
 72
     1
 11
105.5
 21
2.275
 31
0.0
100
AcDbText
  0
CIRCLE
  5
86A
330
1F
100
AcDbEntity
  8
SK2
  6
CONTINUOUS
370
25
 62
7
100
AcDbCircle
 10
103.75
 20
-8.925
 30
0.0
 40
1.4
  0
LINE
  5
86B
330
1F
100
AcDbEntity
  8
SK2
  6
CONTINUOUS
370
25
 62
7
100
AcDbLine
 10
105.15
 20
-10.325
 30
0.0
 11
102.35
 21
-7.525
 31
0.0
  0
LINE
  5
86C
330
1F
100
AcDbEntity
  8
4
  6
LONGDASH_DASH
370
25
 62
2
100
AcDbLine
 10
0.0
 20
0.0
 30
0.0
 11
85.0
 21
0.0
 31
0.0
  0
LINE
  5
86D
330
1F
100
AcDbEntity
  8
SK4
  6
LONGDASH_DASH
370
25
 62
2
100
AcDbLine
 10
-37.0
 20
0.0
 30
0.0
 11
90.0
 21
0.0
 31
0.0
  0
LINE
  5
86E
330
1F
100
AcDbEntity
  8
SK1
  6
CONTINUOUS
370
50
 62
4
100
AcDbLine
 10
0.0
 20
0.0
 30
0.0
 11
2.5
 21
0.0
 31
0.0
  0
LINE
  5
86F
330
1F
100
AcDbEntity
  8
SK1
  6
CONTINUOUS
370
50
 62
4
100
AcDbLine
 10
0.0
 20
0.0
 30
0.0
 11
0.0
 21
2.5
 31
0.0
  0
ARC
  5
870
330
1F
100
AcDbEntity
  8
SK1
  6
CONTINUOUS
370
50
 62
4
100
AcDbCircle
 10
0.0
 20
0.0
 30
0.0
 40
2.5
100
AcDbArc
 50
0.0
 51
90.0
  0
LINE
  5
871
330
1F
100
AcDbEntity
  8
SK1
  6
CONTINUOUS
370
50
 62
4
100
AcDbLine
 10
0.0
 20
0.0
 30
0.0
 11
-2.5
 21
0.0
 31
0.0
  0
ARC
  5
872
330
1F
100
AcDbEntity
  8
SK1
  6
CONTINUOUS
370
50
 62
4
100
AcDbCircle
 10
0.0
 20
0.0
 30
0.0
 40
2.5
100
AcDbArc
 50
180.0
 51
270.0
  0
LINE
  5
873
330
1F
100
AcDbEntity
  8
SK1
  6
CONTINUOUS
370
50
 62
4
100
AcDbLine
 10
0.0
 20
-2.5
 30
0.0
 11
0.0
 21
0.0
 31
0.0
  0
ARC
  5
874
330
1F
100
AcDbEntity
  8
SK1
  6
CONTINUOUS
370
50
 62
4
100
AcDbCircle
 10
0.0
 20
0.0
 30
0.0
 40
2.5
100
AcDbArc
 50
270.0
 51
0.0
  0
ARC
  5
875
330
1F
100
AcDbEntity
  8
SK1
  6
CONTINUOUS
370
50
 62
4
100
AcDbCircle
 10
0.0
 20
0.0
 30
0.0
 40
2.5
100
AcDbArc
 50
90.0
 51
180.0
  0
LINE
  5
876
330
1F
100
AcDbEntity
  8
SK1
  6
CONTINUOUS
370
50
 62
4
100
AcDbLine
 10
-0.31832627443191
 20
-2.479495909600069
 30
0.0
 11
0.0
 21
-2.161169635168159
 31
0.0
  0
LINE
  5
877
330
1F
100
AcDbEntity
  8
SK1
  6
CONTINUOUS
370
50
 62
4
100
AcDbLine
 10
2.16116963516816
 20
0.0
 30
0.0
 11
2.479495909600069
 21
0.3183262744319091
 31
0.0
  0
LINE
  5
878
330
1F
100
AcDbEntity
  8
SK1
  6
CONTINUOUS
370
50
 62
4
100
AcDbLine
 10
-0.615281817185723
 20
-2.422898061760609
 30
0.0
 11
0.0
 21
-1.807616244574886
 31
0.0
  0
LINE
  5
879
330
1F
100
AcDbEntity
  8
SK1
  6
CONTINUOUS
370
50
 62
4
100
AcDbLine
 10
1.807616244574887
 20
0.0
 30
0.0
 11
2.422898061760609
 21
0.6152818171857222
 31
0.0
  0
LINE
  5
87A
330
1F
100
AcDbEntity
  8
SK1
  6
CONTINUOUS
370
50
 62
4
100
AcDbLine
 10
-0.8835965231639721
 20
-2.337659377145585
 30
0.0
 11
0.0
 21
-1.454062853981614
 31
0.0
  0
LINE
  5
87B
330
1F
100
AcDbEntity
  8
SK1
  6
CONTINUOUS
370
50
 62
4
100
AcDbLine
 10
1.454062853981615
 20
0.0
 30
0.0
 11
2.337659377145586
 21
0.8835965231639715
 31
0.0
  0
LINE
  5
87C
330
1F
100
AcDbEntity
  8
SK1
  6
CONTINUOUS
370
50
 62
4
100
AcDbLine
 10
-1.128779664263143
 20
-2.229289127651483
 30
0.0
 11
0.0
 21
-1.100509463388341
 31
0.0
  0
LINE
  5
87D
330
1F
100
AcDbEntity
  8
SK1
  6
CONTINUOUS
370
50
 62
4
100
AcDbLine
 10
1.100509463388341
 20
0.0
 30
0.0
 11
2.229289127651484
 21
1.128779664263142
 31
0.0
  0
LINE
  5
87E
330
1F
100
AcDbEntity
  8
SK1
  6
CONTINUOUS
370
50
 62
4
100
AcDbLine
 10
-1.354032791010379
 20
-2.100988863805446
 30
0.0
 11
0.0
 21
-0.7469560727950677
 31
0.0
  0
LINE
  5
87F
330
1F
100
AcDbEntity
  8
SK1
  6
CONTINUOUS
370
50
 62
4
100
AcDbLine
 10
0.746956072795068
 20
0.0
 30
0.0
 11
2.100988863805446
 21
1.354032791010378
 31
0.0
  0
LINE
  5
880
330
1F
100
AcDbEntity
  8
SK1
  6
CONTINUOUS
370
50
 62
4
100
AcDbLine
 10
-1.559387394659872
 20
-1.952790076861666
 30
0.0
 11
0.0
 21
-0.3934026822017946
 31
0.0
  0
LINE
  5
881
330
1F
100
AcDbEntity
  8
SK1
  6
CONTINUOUS
370
50
 62
4
100
AcDbLine
 10
0.3934026822017948
 20
0.0
 30
0.0
 11
1.952790076861667
 21
1.559387394659871
 31
0.0
  0
LINE
  5
882
330
1F
100
AcDbEntity
  8
SK1
  6
CONTINUOUS
370
50
 62
4
100
AcDbLine
 10
-1.746970020883365
 20
-1.786819312491886
 30
0.0
 11
0.0
 21
-0.0398492916085216
 31
0.0
  0
LINE
  5
883
330
1F
100
AcDbEntity
  8
SK1
  6
CONTINUOUS
370
50
 62
4
100
AcDbLine
 10
0.0398492916085216
 20
0.0
 30
0.0
 11
1.786819312491887
 21
1.746970020883364
 31
0.0
  0
LINE
  5
884
330
1F
100
AcDbEntity
  8
SK1
  6
CONTINUOUS
370
50
 62
4
100
AcDbLine
 10
-1.917371878232655
 20
-1.603667779247902
 30
0.0
 11
-0.3137040989847517
 21
0.0
 31
0.0
  0
LINE
  5
885
330
1F
100
AcDbEntity
  8
SK1
  6
CONTINUOUS
370
50
 62
4
100
AcDbLine
 10
0.0
 20
0.3137040989847515
 30
0.0
 11
1.603667779247903
 21
1.917371878232654
 31
0.0
  0
LINE
  5
886
330
1F
100
AcDbEntity
  8
SK1
  6
CONTINUOUS
370
50
 62
4
100
AcDbLine
 10
-2.068741231122433
 20
-1.401483741544407
 30
0.0
 11
-0.6672574895780249
 21
0.0
 31
0.0
  0
LINE
  5
887
330
1F
100
AcDbEntity
  8
SK1
  6
CONTINUOUS
370
50
 62
4
100
AcDbLine
 10
0.0
 20
0.6672574895780246
 30
0.0
 11
1.401483741544409
 21
2.068741231122432
 31
0.0
  0
LINE
  5
888
330
1F
100
AcDbEntity
  8
SK1
  6
CONTINUOUS
370
50
 62
4
100
AcDbLine
 10
-2.2023876557675
 20
-1.181576775596201
 30
0.0
 11
-1.020810880171298
 21
0.0
 31
0.0
  0
LINE
  5
889
330
1F
100
AcDbEntity
  8
SK1
  6
CONTINUOUS
370
50
 62
4
100
AcDbLine
 10
0.0
 20
1.020810880171298
 30
0.0
 11
1.181576775596202
 21
2.202387655767499
 31
0.0
  0
LINE
  5
88A
330
1F
100
AcDbEntity
  8
SK1
  6
CONTINUOUS
370
50
 62
4
100
AcDbLine
 10
-2.315450943493525
 20
-0.9410866727289533
 30
0.0
 11
-1.374364270764571
 21
0.0
 31
0.0
  0
LINE
  5
88B
330
1F
100
AcDbEntity
  8
SK1
  6
CONTINUOUS
370
50
 62
4
100
AcDbLine
 10
0.0
 20
1.374364270764571
 30
0.0
 11
0.9410866727289543
 21
2.315450943493524
 31
0.0
  0
LINE
  5
88C
330
1F
100
AcDbEntity
  8
SK1
  6
CONTINUOUS
370
50
 62
4
100
AcDbLine
 10
-2.405290600131854
 20
-0.6773729387740097
 30
0.0
 11
-1.727917661357844
 21
0.0
 31
0.0
  0
LINE
  5
88D
330
1F
100
AcDbEntity
  8
SK1
  6
CONTINUOUS
370
50
 62
4
100
AcDbLine
 10
0.0
 20
1.727917661357844
 30
0.0
 11
0.6773729387740106
 21
2.405290600131854
 31
0.0
  0
LINE
  5
88E
330
1F
100
AcDbEntity
  8
SK1
  6
CONTINUOUS
370
50
 62
4
100
AcDbLine
 10
-2.468598823056026
 20
-0.3871277711049084
 30
0.0
 11
-2.081471051951118
 21
0.0
 31
0.0
  0
LINE
  5
88F
330
1F
100
AcDbEntity
  8
SK1
  6
CONTINUOUS
370
50
 62
4
100
AcDbLine
 10
0.0
 20
2.081471051951117
 30
0.0
 11
0.3871277711049085
 21
2.468598823056025
 31
0.0
  0
LINE
  5
890
330
1F
100
AcDbEntity
  8
SK1
  6
CONTINUOUS
370
50
 62
4
100
AcDbLine
 10
-2.498020276172772
 20
-0.0629958336283822
 30
0.0
 11
-2.43502444254439
 21
0.0
 31
0.0
  0
LINE
  5
891
330
1F
100
AcDbEntity
  8
SK1
  6
CONTINUOUS
370
50
 62
4
100
AcDbLine
 10
0.0
 20
2.435024442544389
 30
0.0
 11
0.0629958336283828
 21
2.498020276172772
 31
0.0
  0
LINE
  5
892
330
1F
100
AcDbEntity
  8
SK1
  6
CONTINUOUS
370
50
 62
4
100
AcDbLine
 10
-2.337336523620827
 20
-0.8844932833271533
 30
0.0
 11
-0.8844932833271509
 21
-2.337336523620827
 31
0.0
  0
LINE
  5
893
330
1F
100
AcDbEntity
  8
SK1
  6
CONTINUOUS
370
50
 62
4
100
AcDbLine
 10
-2.466237059966593
 20
-0.4020393563881135
 30
0.0
 11
-0.4020393563881111
 21
-2.466237059966594
 31
0.0
  0
LINE
  5
894
330
1F
100
AcDbEntity
  8
SK1
  6
CONTINUOUS
370
50
 62
4
100
AcDbLine
 10
-2.499522297881596
 20
-0.0152007278798383
 30
0.0
 11
-0.0152007278798351
 21
-2.499522297881596
 31
0.0
  0
LINE
  5
895
330
1F
100
AcDbEntity
  8
SK1
  6
CONTINUOUS
370
50
 62
4
100
AcDbLine
 10
-2.16116963516816
 20
0.0
 30
0.0
 11
0.0
 21
-2.161169635168158
 31
0.0
  0
LINE
  5
896
330
1F
100
AcDbEntity
  8
SK1
  6
CONTINUOUS
370
50
 62
4
100
AcDbLine
 10
-1.807616244574888
 20
0.0
 30
0.0
 11
0.0
 21
-1.807616244574886
 31
0.0
  0
LINE
  5
897
330
1F
100
AcDbEntity
  8
SK1
  6
CONTINUOUS
370
50
 62
4
100
AcDbLine
 10
-1.454062853981615
 20
0.0
 30
0.0
 11
0.0
 21
-1.454062853981613
 31
0.0
  0
LINE
  5
898
330
1F
100
AcDbEntity
  8
SK1
  6
CONTINUOUS
370
50
 62
4
100
AcDbLine
 10
-1.100509463388341
 20
0.0
 30
0.0
 11
0.0
 21
-1.10050946338834
 31
0.0
  0
LINE
  5
899
330
1F
100
AcDbEntity
  8
SK1
  6
CONTINUOUS
370
50
 62
4
100
AcDbLine
 10
-0.7469560727950676
 20
0.0
 30
0.0
 11
0.0
 21
-0.7469560727950668
 31
0.0
  0
LINE
  5
89A
330
1F
100
AcDbEntity
  8
SK1
  6
CONTINUOUS
370
50
 62
4
100
AcDbLine
 10
-0.3934026822017942
 20
0.0
 30
0.0
 11
0.0
 21
-0.3934026822017938
 31
0.0
  0
LINE
  5
89B
330
1F
100
AcDbEntity
  8
SK1
  6
CONTINUOUS
370
50
 62
4
100
AcDbLine
 10
-0.0398492916085216
 20
0.0
 30
0.0
 11
0.0
 21
-0.0398492916085216
 31
0.0
  0
LINE
  5
89C
330
1F
100
AcDbEntity
  8
SK1
  6
CONTINUOUS
370
50
 62
4
100
AcDbLine
 10
0.0
 20
0.3137040989847515
 30
0.0
 11
0.3137040989847518
 21
0.0
 31
0.0
  0
LINE
  5
89D
330
1F
100
AcDbEntity
  8
SK1
  6
CONTINUOUS
370
50
 62
4
100
AcDbLine
 10
0.0
 20
0.6672574895780246
 30
0.0
 11
0.6672574895780253
 21
0.0
 31
0.0
  0
LINE
  5
89E
330
1F
100
AcDbEntity
  8
SK1
  6
CONTINUOUS
370
50
 62
4
100
AcDbLine
 10
0.0
 20
1.020810880171298
 30
0.0
 11
1.020810880171299
 21
0.0
 31
0.0
  0
LINE
  5
89F
330
1F
100
AcDbEntity
  8
SK1
  6
CONTINUOUS
370
50
 62
4
100
AcDbLine
 10
0.0
 20
1.37436427076457
 30
0.0
 11
1.374364270764571
 21
0.0
 31
0.0
  0
LINE
  5
8A0
330
1F
100
AcDbEntity
  8
SK1
  6
CONTINUOUS
370
50
 62
4
100
AcDbLine
 10
0.0
 20
1.727917661357843
 30
0.0
 11
1.727917661357845
 21
0.0
 31
0.0
  0
LINE
  5
8A1
330
1F
100
AcDbEntity
  8
SK1
  6
CONTINUOUS
370
50
 62
4
100
AcDbLine
 10
0.0
 20
2.081471051951116
 30
0.0
 11
2.081471051951118
 21
0.0
 31
0.0
  0
LINE
  5
8A2
330
1F
100
AcDbEntity
  8
SK1
  6
CONTINUOUS
370
50
 62
4
100
AcDbLine
 10
0.0
 20
2.435024442544389
 30
0.0
 11
2.435024442544392
 21
0.0
 31
0.0
  0
LINE
  5
8A3
330
1F
100
AcDbEntity
  8
SK1
  6
CONTINUOUS
370
50
 62
4
100
AcDbLine
 10
0.3077647139123103
 20
2.480813119225352
 30
0.0
 11
2.480813119225352
 21
0.307764713912313
 31
0.0
  0
LINE
  5
8A4
330
1F
100
AcDbEntity
  8
SK1
  6
CONTINUOUS
370
50
 62
4
100
AcDbLine
 10
0.7611924397506667
 20
2.380938783980268
 30
0.0
 11
2.380938783980268
 21
0.7611924397506691
 31
0.0
  0
LINE
  5
8A5
330
1F
100
AcDbEntity
  8
SK1
  6
CONTINUOUS
370
50
 62
4
100
AcDbLine
 10
1.48586376213526
 20
2.009820852188948
 30
0.0
 11
2.009820852188946
 21
1.485863762135263
 31
0.0
  0
LINE
  5
8A6
330
1F
100
AcDbEntity
  8
SK1
  6
CONTINUOUS
370
50
 62
4
100
AcDbLine
 10
85.0
 20
0.0
 30
0.0
 11
86.75
 21
0.0
 31
0.0
  0
LINE
  5
8A7
330
1F
100
AcDbEntity
  8
SK1
  6
CONTINUOUS
370
50
 62
4
100
AcDbLine
 10
85.0
 20
0.0
 30
0.0
 11
85.0
 21
1.75
 31
0.0
  0
ARC
  5
8A8
330
1F
100
AcDbEntity
  8
SK1
  6
CONTINUOUS
370
50
 62
4
100
AcDbCircle
 10
85.0
 20
0.0
 30
0.0
 40
1.75
100
AcDbArc
 50
0.0
 51
90.0
  0
LINE
  5
8A9
330
1F
100
AcDbEntity
  8
SK1
  6
CONTINUOUS
370
50
 62
4
100
AcDbLine
 10
85.0
 20
0.0
 30
0.0
 11
83.25
 21
0.0
 31
0.0
  0
ARC
  5
8AA
330
1F
100
AcDbEntity
  8
SK1
  6
CONTINUOUS
370
50
 62
4
100
AcDbCircle
 10
85.0
 20
0.0
 30
0.0
 40
1.75
100
AcDbArc
 50
180.0
 51
270.0
  0
LINE
  5
8AB
330
1F
100
AcDbEntity
  8
SK1
  6
CONTINUOUS
370
50
 62
4
100
AcDbLine
 10
85.0
 20
-1.75
 30
0.0
 11
85.0
 21
0.0
 31
0.0
  0
ARC
  5
8AC
330
1F
100
AcDbEntity
  8
SK1
  6
CONTINUOUS
370
50
 62
4
100
AcDbCircle
 10
85.0
 20
0.0
 30
0.0
 40
1.75
100
AcDbArc
 50
270.0
 51
0.0
  0
ARC
  5
8AD
330
1F
100
AcDbEntity
  8
SK1
  6
CONTINUOUS
370
50
 62
4
100
AcDbCircle
 10
85.0
 20
0.0
 30
0.0
 40
1.75
100
AcDbArc
 50
90.0
 51
180.0
  0
LINE
  5
8AE
330
1F
100
AcDbEntity
  8
SK1
  6
CONTINUOUS
370
50
 62
4
100
AcDbLine
 10
84.87914164614105
 20
-1.745509337031322
 30
0.0
 11
85.0
 21
-1.624650983172373
 31
0.0
  0
LINE
  5
8AF
330
1F
100
AcDbEntity
  8
SK1
  6
CONTINUOUS
370
50
 62
4
100
AcDbLine
 10
86.62465098317237
 20
0.0
 30
0.0
 11
86.74550933703132
 21
0.1208583538589494
 31
0.0
  0
LINE
  5
8B0
330
1F
100
AcDbEntity
  8
SK1
  6
CONTINUOUS
370
50
 62
4
100
AcDbLine
 10
84.6607042955845
 20
-1.716459314172596
 30
0.0
 11
85.0
 21
-1.377163609757091
 31
0.0
  0
LINE
  5
8B1
330
1F
100
AcDbEntity
  8
SK1
  6
CONTINUOUS
370
50
 62
4
100
AcDbLine
 10
86.37716360975709
 20
0.0
 30
0.0
 11
86.71645931417258
 21
0.3392957044154912
 31
0.0
  0
LINE
  5
8B2
330
1F
100
AcDbEntity
  8
SK1
  6
CONTINUOUS
370
50
 62
4
100
AcDbLine
 10
84.46395249222597
 20
-1.665723744115837
 30
0.0
 11
85.0
 21
-1.129676236341808
 31
0.0
  0
LINE
  5
8B3
330
1F
100
AcDbEntity
  8
SK1
  6
CONTINUOUS
370
50
 62
4
100
AcDbLine
 10
86.12967623634181
 20
0.0
 30
0.0
 11
86.66572374411582
 21
0.5360475077740148
 31
0.0
  0
LINE
  5
8B4
330
1F
100
AcDbEntity
  8
SK1
  6
CONTINUOUS
370
50
 62
4
100
AcDbLine
 10
84.2854956475461
 20
-1.596693215380412
 30
0.0
 11
85.0
 21
-0.8821888629265118
 31
0.0
  0
LINE
  5
8B5
330
1F
100
AcDbEntity
  8
SK1
  6
CONTINUOUS
370
50
 62
4
100
AcDbLine
 10
85.88218886292651
 20
0.0
 30
0.0
 11
86.5966932153804
 21
0.7145043524538863
 31
0.0
  0
LINE
  5
8B6
330
1F
100
AcDbEntity
  8
SK1
  6
CONTINUOUS
370
50
 62
4
100
AcDbLine
 10
84.12188876250605
 20
-1.512812727005183
 30
0.0
 11
85.0
 21
-0.6347014895112295
 31
0.0
  0
LINE
  5
8B7
330
1F
100
AcDbEntity
  8
SK1
  6
CONTINUOUS
370
50
 62
4
100
AcDbLine
 10
85.63470148951123
 20
0.0
 30
0.0
 11
86.51281272700518
 21
0.8781112374939539
 31
0.0
  0
LINE
  5
8B8
330
1F
100
AcDbEntity
  8
SK1
  6
CONTINUOUS
370
50
 62
4
100
AcDbLine
 10
83.97141067838344
 20
-1.415803437712512
 30
0.0
 11
85.0
 21
-0.3872141160959473
 31
0.0
  0
LINE
  5
8B9
330
1F
100
AcDbEntity
  8
SK1
  6
CONTINUOUS
370
50
 62
4
100
AcDbLine
 10
85.38721411609595
 20
0.0
 30
0.0
 11
86.41580343771251
 21
1.028589321616565
 31
0.0
  0
LINE
  5
8BA
330
1F
100
AcDbEntity
  8
SK1
  6
CONTINUOUS
370
50
 62
4
100
AcDbLine
 10
83.83498711583192
 20
-1.304739626848729
 30
0.0
 11
85.0
 21
-0.1397267426806508
 31
0.0
  0
LINE
  5
8BB
330
1F
100
AcDbEntity
  8
SK1
  6
CONTINUOUS
370
50
 62
4
100
AcDbLine
 10
85.13972674268065
 20
0.0
 30
0.0
 11
86.30473962684873
 21
1.165012884168078
 31
0.0
  0
LINE
  5
8BC
330
1F
100
AcDbEntity
  8
SK1
  6
CONTINUOUS
370
50
 62
4
100
AcDbLine
 10
83.71023786047604
 20
-1.182001508789327
 30
0.0
 11
84.89223936926537
 21
0.0
 31
0.0
  0
LINE
  5
8BD
330
1F
100
AcDbEntity
  8
SK1
  6
CONTINUOUS
370
50
 62
4
100
AcDbLine
 10
85.0
 20
0.1077606307346315
 30
0.0
 11
86.18200150878934
 21
1.289762139523972
 31
0.0
  0
LINE
  5
8BE
330
1F
100
AcDbEntity
  8
SK1
  6
CONTINUOUS
370
50
 62
4
100
AcDbLine
 10
83.59815860195918
 20
-1.046593393890902
 30
0.0
 11
84.64475199585009
 21
0.0
 31
0.0
  0
LINE
  5
8BF
330
1F
100
AcDbEntity
  8
SK1
  6
CONTINUOUS
370
50
 62
4
100
AcDbLine
 10
85.0
 20
0.3552480041499138
 30
0.0
 11
86.0465933938909
 21
1.401841398040816
 31
0.0
  0
LINE
  5
8C0
330
1F
100
AcDbEntity
  8
SK1
  6
CONTINUOUS
370
50
 62
4
100
AcDbLine
 10
83.49906657768865
 20
-0.8981980447461382
 30
0.0
 11
84.39726462243479
 21
0.0
 31
0.0
  0
LINE
  5
8C1
330
1F
100
AcDbEntity
  8
SK1
  6
CONTINUOUS
370
50
 62
4
100
AcDbLine
 10
85.0
 20
0.6027353775652102
 30
0.0
 11
85.89819804474612
 21
1.500933422311334
 31
0.0
  0
LINE
  5
8C2
330
1F
100
AcDbEntity
  8
SK1
  6
CONTINUOUS
370
50
 62
4
100
AcDbLine
 10
83.41296170106672
 20
-0.7368155479527871
 30
0.0
 11
84.14977724901951
 21
0.0
 31
0.0
  0
LINE
  5
8C3
330
1F
100
AcDbEntity
  8
SK1
  6
CONTINUOUS
370
50
 62
4
100
AcDbLine
 10
85.0
 20
0.8502227509804925
 30
0.0
 11
85.7368155479528
 21
1.587038298933294
 31
0.0
  0
LINE
  5
8C4
330
1F
100
AcDbEntity
  8
SK1
  6
CONTINUOUS
370
50
 62
4
100
AcDbLine
 10
83.34249644592417
 20
-0.559793429680056
 30
0.0
 11
83.90228987560423
 21
0.0
 31
0.0
  0
LINE
  5
8C5
330
1F
100
AcDbEntity
  8
SK1
  6
CONTINUOUS
370
50
 62
4
100
AcDbLine
 10
85.0
 20
1.097710124395775
 30
0.0
 11
85.55979342968006
 21
1.657503554075831
 31
0.0
  0
LINE
  5
8C6
330
1F
100
AcDbEntity
  8
SK1
  6
CONTINUOUS
370
50
 62
4
100
AcDbLine
 10
83.28938058604622
 20
-0.3654219161427079
 30
0.0
 11
83.65480250218893
 21
0.0
 31
0.0
  0
LINE
  5
8C7
330
1F
100
AcDbEntity
  8
SK1
  6
CONTINUOUS
370
50
 62
4
100
AcDbLine
 10
85.0
 20
1.345197497811071
 30
0.0
 11
85.36542191614271
 21
1.710619413953779
 31
0.0
  0
LINE
  5
8C8
330
1F
100
AcDbEntity
  8
SK1
  6
CONTINUOUS
370
50
 62
4
100
AcDbLine
 10
83.25725138512432
 20
-0.1500637436493264
 30
0.0
 11
83.40731512877365
 21
0.0
 31
0.0
  0
LINE
  5
8C9
330
1F
100
AcDbEntity
  8
SK1
  6
CONTINUOUS
370
50
 62
4
100
AcDbLine
 10
85.0
 20
1.592684871226353
 30
0.0
 11
85.15006374364933
 21
1.74274861487568
 31
0.0
  0
LINE
  5
8CA
330
1F
100
AcDbEntity
  8
SK1
  6
CONTINUOUS
370
50
 62
4
100
AcDbLine
 10
83.42762274019266
 20
-0.7668400194849312
 30
0.0
 11
84.2331599805151
 21
-1.572377259807368
 31
0.0
  0
LINE
  5
8CB
330
1F
100
AcDbEntity
  8
SK1
  6
CONTINUOUS
370
50
 62
4
100
AcDbLine
 10
83.29389691801201
 20
-0.3856268238889982
 30
0.0
 11
84.614373176111
 21
-1.70610308198799
 31
0.0
  0
LINE
  5
8CC
330
1F
100
AcDbEntity
  8
SK1
  6
CONTINUOUS
370
50
 62
4
100
AcDbLine
 10
83.25305778568415
 20
-0.0973003181458409
 30
0.0
 11
84.90269968185414
 21
-1.746942214315837
 31
0.0
  0
LINE
  5
8CD
330
1F
100
AcDbEntity
  8
SK1
  6
CONTINUOUS
370
50
 62
4
100
AcDbLine
 10
83.40324484095359
 20
0.0
 30
0.0
 11
85.0
 21
-1.59675515904641
 31
0.0
  0
LINE
  5
8CE
330
1F
100
AcDbEntity
  8
SK1
  6
CONTINUOUS
370
50
 62
4
100
AcDbLine
 10
83.65073221436887
 20
0.0
 30
0.0
 11
85.0
 21
-1.349267785631127
 31
0.0
  0
LINE
  5
8CF
330
1F
100
AcDbEntity
  8
SK1
  6
CONTINUOUS
370
50
 62
4
100
AcDbLine
 10
83.89821958778417
 20
0.0
 30
0.0
 11
85.0
 21
-1.101780412215831
 31
0.0
  0
LINE
  5
8D0
330
1F
100
AcDbEntity
  8
SK1
  6
CONTINUOUS
370
50
 62
4
100
AcDbLine
 10
84.14570696119945
 20
0.0
 30
0.0
 11
85.0
 21
-0.8542930388005487
 31
0.0
  0
LINE
  5
8D1
330
1F
100
AcDbEntity
  8
SK1
  6
CONTINUOUS
370
50
 62
4
100
AcDbLine
 10
84.39319433461473
 20
0.0
 30
0.0
 11
85.0
 21
-0.6068056653852665
 31
0.0
  0
LINE
  5
8D2
330
1F
100
AcDbEntity
  8
SK1
  6
CONTINUOUS
370
50
 62
4
100
AcDbLine
 10
84.64068170803003
 20
0.0
 30
0.0
 11
85.0
 21
-0.35931829196997
 31
0.0
  0
LINE
  5
8D3
330
1F
100
AcDbEntity
  8
SK1
  6
CONTINUOUS
370
50
 62
4
100
AcDbLine
 10
84.88816908144531
 20
0.0
 30
0.0
 11
85.0
 21
-0.1118309185546877
 31
0.0
  0
LINE
  5
8D4
330
1F
100
AcDbEntity
  8
SK1
  6
CONTINUOUS
370
50
 62
4
100
AcDbLine
 10
85.0
 20
0.1356564548605945
 30
0.0
 11
85.1356564548606
 21
0.0
 31
0.0
  0
LINE
  5
8D5
330
1F
100
AcDbEntity
  8
SK1
  6
CONTINUOUS
370
50
 62
4
100
AcDbLine
 10
85.0
 20
0.383143828275891
 30
0.0
 11
85.38314382827589
 21
0.0
 31
0.0
  0
LINE
  5
8D6
330
1F
100
AcDbEntity
  8
SK1
  6
CONTINUOUS
370
50
 62
4
100
AcDbLine
 10
85.0
 20
0.6306312016911733
 30
0.0
 11
85.63063120169117
 21
0.0
 31
0.0
  0
LINE
  5
8D7
330
1F
100
AcDbEntity
  8
SK1
  6
CONTINUOUS
370
50
 62
4
100
AcDbLine
 10
85.0
 20
0.8781185751064555
 30
0.0
 11
85.87811857510646
 21
0.0
 31
0.0
  0
LINE
  5
8D8
330
1F
100
AcDbEntity
  8
SK1
  6
CONTINUOUS
370
50
 62
4
100
AcDbLine
 10
85.0
 20
1.125605948521738
 30
0.0
 11
86.12560594852174
 21
0.0
 31
0.0
  0
LINE
  5
8D9
330
1F
100
AcDbEntity
  8
SK1
  6
CONTINUOUS
370
50
 62
4
100
AcDbLine
 10
85.0
 20
1.373093321937034
 30
0.0
 11
86.37309332193703
 21
0.0
 31
0.0
  0
LINE
  5
8DA
330
1F
100
AcDbEntity
  8
SK1
  6
CONTINUOUS
370
50
 62
4
100
AcDbLine
 10
85.0
 20
1.620580695352317
 30
0.0
 11
86.62058069535232
 21
0.0
 31
0.0
  0
LINE
  5
8DB
330
1F
100
AcDbEntity
  8
SK1
  6
CONTINUOUS
370
50
 62
4
100
AcDbLine
 10
85.12273624468308
 20
1.745331824084516
 30
0.0
 11
86.74533182408452
 21
0.1227362446830824
 31
0.0
  0
LINE
  5
8DC
330
1F
100
AcDbEntity
  8
SK1
  6
CONTINUOUS
370
50
 62
4
100
AcDbLine
 10
85.41631111096527
 20
1.699244331217628
 30
0.0
 11
86.69924433121761
 21
0.4163111109652817
 31
0.0
  0
LINE
  5
8DD
330
1F
100
AcDbEntity
  8
SK1
  6
CONTINUOUS
370
50
 62
4
100
AcDbLine
 10
85.8154165180644
 20
1.547626297533782
 30
0.0
 11
86.54762629753378
 21
0.8154165180643957
 31
0.0
  0
ENDSEC
  0
SECTION
  2
OBJECTS
  0
DICTIONARY
  5
C
330
0
100
AcDbDictionary
281
     1
  3
ACAD_GROUP
350
D
  3
ACAD_LAYOUT
350
1A
  3
ACAD_MATERIAL
350
3B
  3
ACAD_MLEADERSTYLE
350
8E0
  3
ACAD_MLINESTYLE
350
17
  3
ACAD_PLOTSETTINGS
350
19
  3
ACAD_PLOTSTYLENAME
350
E
  3
ACAD_SCALELIST
350
21D
  3
ACAD_VISUALSTYLE
350
2A
  3
AcDbVariableDictionary
350
8DE
  0
DICTIONARY
  5
D
102
{ACAD_REACTORS
330
C
102
}
330
C
100
AcDbDictionary
281
     1
  0
DICTIONARY
  5
1A
102
{ACAD_REACTORS
330
C
102
}
330
C
100
AcDbDictionary
281
     1
  3
Layout1
350
1E
  3
Layout2
350
26
  3
Model
350
22
  0
DICTIONARY
  5
3B
102
{ACAD_REACTORS
330
C
102
}
330
C
100
AcDbDictionary
281
     1
  3
ByBlock
350
3D
  3
ByLayer
350
3C
  3
Global
350
3E
  0
DICTIONARY
  5
8E0
102
{ACAD_REACTORS
330
C
102
}
330
C
100
AcDbDictionary
281
     1
  0
DICTIONARY
  5
17
102
{ACAD_REACTORS
330
C
102
}
330
C
100
AcDbDictionary
281
     1
  3
Standard
350
18
  0
DICTIONARY
  5
19
102
{ACAD_REACTORS
330
C
102
}
330
C
100
AcDbDictionary
281
     1
  0
ACDBDICTIONARYWDFLT
  5
E
102
{ACAD_REACTORS
330
C
102
}
330
C
100
AcDbDictionary
281
     1
  3
Normal
350
F
100
AcDbDictionaryWithDefault
340
F
  0
DICTIONARY
  5
21D
102
{ACAD_REACTORS
330
C
102
}
330
C
100
AcDbDictionary
281
     1
  3
A0
350
21E
  3
A1
350
21F
  3
A2
350
220
  3
A3
350
221
  3
A4
350
222
  3
A5
350
223
  3
A6
350
224
  3
A7
350
225
  3
A8
350
226
  3
A9
350
227
  3
B0
350
228
  3
B1
350
229
  3
B2
350
22A
  3
B3
350
22B
  3
B4
350
22C
  3
B5
350
22D
  3
B6
350
22E
  3
B7
350
22F
  3
B8
350
230
  3
B9
350
231
  3
C0
350
232
  3
C1
350
233
  3
C2
350
234
  3
C3
350
235
  3
C4
350
236
  3
C5
350
237
  3
C6
350
238
  3
C7
350
239
  3
C8
350
23A
  3
C9
350
23B
  3
D0
350
23C
  3
D1
350
23D
  3
D2
350
23E
  0
DICTIONARY
  5
2A
102
{ACAD_REACTORS
330
C
102
}
330
C
100
AcDbDictionary
281
     1
  3
2dWireframe
350
2F
  3
3D Hidden
350
31
  3
3dWireframe
350
30
  3
Basic
350
32
  3
Brighten
350
36
  3
ColorChange
350
3A
  3
Conceptual
350
34
  3
Dim
350
35
  3
Facepattern
350
39
  3
Flat
350
2B
  3
FlatWithEdges
350
2C
  3
Gouraud
350
2D
  3
GouraudWithEdges
350
2E
  3
Linepattern
350
38
  3
Realistic
350
33
  3
Thicken
350
37
  0
DICTIONARY
  5
8DE
102
{ACAD_REACTORS
330
C
102
}
330
C
100
AcDbDictionary
281
     1
  3
CANNOSCALE
350
8E3
  3
DIMASSOC
350
8E4
  3
HIDETEXT
350
8E5
  3
PSOLHEIGHT
350
8E2
  3
PSOLWIDTH
350
8E1
  0
LAYOUT
  5
1E
102
{ACAD_REACTORS
330
1A
102
}
330
1A
100
AcDbPlotSettings
  1

  2
none_device
  4

  6

 40
0.0
 41
0.0
 42
0.0
 43
0.0
 44
0.0
 45
0.0
 46
0.0
 47
0.0
 48
0.0
 49
0.0
140
0.0
141
0.0
142
1.0
143
1.0
 70
   688
 72
     0
 73
     0
 74
     5
  7

 75
    16
147
1.0
148
0.0
149
0.0
100
AcDbLayout
  1
Layout1
 70
     1
 71
     1
 10
0.0
 20
0.0
 11
420.0
 21
297.0
 12
0.0
 22
0.0
 32
0.0
 14
1.000000000000000E+20
 24
1.000000000000000E+20
 34
1.000000000000000E+20
 15
-1.000000000000000E+20
 25
-1.000000000000000E+20
 35
-1.000000000000000E+20
146
0.0
 13
0.0
 23
0.0
 33
0.0
 16
1.0
 26
0.0
 36
0.0
 17
0.0
 27
1.0
 37
0.0
 76
     0
330
1B
  0
LAYOUT
  5
26
102
{ACAD_REACTORS
330
1A
102
}
330
1A
100
AcDbPlotSettings
  1

  2
none_device
  4

  6

 40
0.0
 41
0.0
 42
0.0
 43
0.0
 44
0.0
 45
0.0
 46
0.0
 47
0.0
 48
0.0
 49
0.0
140
0.0
141
0.0
142
1.0
143
1.0
 70
   688
 72
     0
 73
     0
 74
     5
  7

 75
    16
147
1.0
148
0.0
149
0.0
100
AcDbLayout
  1
Layout2
 70
     1
 71
     2
 10
0.0
 20
0.0
 11
0.0
 21
0.0
 12
0.0
 22
0.0
 32
0.0
 14
0.0
 24
0.0
 34
0.0
 15
0.0
 25
0.0
 35
0.0
146
0.0
 13
0.0
 23
0.0
 33
0.0
 16
1.0
 26
0.0
 36
0.0
 17
0.0
 27
1.0
 37
0.0
 76
     0
330
23
  0
LAYOUT
  5
22
102
{ACAD_REACTORS
330
1A
102
}
330
1A
100
AcDbPlotSettings
  1

  2
none_device
  4

  6

 40
0.0
 41
0.0
 42
0.0
 43
0.0
 44
0.0
 45
0.0
 46
0.0
 47
0.0
 48
0.0
 49
0.0
140
0.0
141
0.0
142
1.0
143
1.0
 70
  1712
 72
     0
 73
     0
 74
     0
  7

 75
     0
147
1.0
148
0.0
149
0.0
100
AcDbLayout
  1
Model
 70
     1
 71
     0
 10
0.0
 20
0.0
 11
420.0
 21
297.0
 12
0.0
 22
0.0
 32
0.0
 14
0.0
 24
0.0
 34
0.0
 15
25.0
 25
35.0
 35
0.0
146
0.0
 13
0.0
 23
0.0
 33
0.0
 16
1.0
 26
0.0
 36
0.0
 17
0.0
 27
1.0
 37
0.0
 76
     0
330
1F
331
29
  0
MATERIAL
  5
3D
102
{ACAD_REACTORS
330
3B
102
}
102
{ACAD_XDICTIONARY
360
908
102
}
330
3B
100
AcDbMaterial
  1
ByBlock
  0
MATERIAL
  5
3C
102
{ACAD_REACTORS
330
3B
102
}
102
{ACAD_XDICTIONARY
360
906
102
}
330
3B
100
AcDbMaterial
  1
ByLayer
  0
MATERIAL
  5
3E
102
{ACAD_REACTORS
330
3B
102
}
102
{ACAD_XDICTIONARY
360
90A
102
}
330
3B
100
AcDbMaterial
  1
Global
  0
MLINESTYLE
  5
18
102
{ACAD_REACTORS
330
17
102
}
330
17
100
AcDbMlineStyle
  2
Standard
 70
     0
  3

 62
   256
 51
90.0
 52
90.0
 71
     2
 49
0.5
 62
   256
  6
BYLAYER
 49
-0.5
 62
   256
  6
BYLAYER
  0
ACDBPLACEHOLDER
  5
F
102
{ACAD_REACTORS
330
E
102
}
330
E
  0
SCALE
  5
21E
102
{ACAD_REACTORS
330
21D
102
}
330
21D
100
AcDbScale
 70
     0
300
1:1
140
1.0
141
1.0
290
     1
  0
SCALE
  5
21F
102
{ACAD_REACTORS
330
21D
102
}
330
21D
100
AcDbScale
 70
     0
300
1:2
140
1.0
141
2.0
290
     0
  0
SCALE
  5
220
102
{ACAD_REACTORS
330
21D
102
}
330
21D
100
AcDbScale
 70
     0
300
1:4
140
1.0
141
4.0
290
     0
  0
SCALE
  5
221
102
{ACAD_REACTORS
330
21D
102
}
330
21D
100
AcDbScale
 70
     0
300
1:5
140
1.0
141
5.0
290
     0
  0
SCALE
  5
222
102
{ACAD_REACTORS
330
21D
102
}
330
21D
100
AcDbScale
 70
     0
300
1:8
140
1.0
141
8.0
290
     0
  0
SCALE
  5
223
102
{ACAD_REACTORS
330
21D
102
}
330
21D
100
AcDbScale
 70
     0
300
1:10
140
1.0
141
10.0
290
     0
  0
SCALE
  5
224
102
{ACAD_REACTORS
330
21D
102
}
330
21D
100
AcDbScale
 70
     0
300
1:16
140
1.0
141
16.0
290
     0
  0
SCALE
  5
225
102
{ACAD_REACTORS
330
21D
102
}
330
21D
100
AcDbScale
 70
     0
300
1:20
140
1.0
141
20.0
290
     0
  0
SCALE
  5
226
102
{ACAD_REACTORS
330
21D
102
}
330
21D
100
AcDbScale
 70
     0
300
1:30
140
1.0
141
30.0
290
     0
  0
SCALE
  5
227
102
{ACAD_REACTORS
330
21D
102
}
330
21D
100
AcDbScale
 70
     0
300
1:40
140
1.0
141
40.0
290
     0
  0
SCALE
  5
228
102
{ACAD_REACTORS
330
21D
102
}
330
21D
100
AcDbScale
 70
     0
300
1:50
140
1.0
141
50.0
290
     0
  0
SCALE
  5
229
102
{ACAD_REACTORS
330
21D
102
}
330
21D
100
AcDbScale
 70
     0
300
1:100
140
1.0
141
100.0
290
     0
  0
SCALE
  5
22A
102
{ACAD_REACTORS
330
21D
102
}
330
21D
100
AcDbScale
 70
     0
300
2:1
140
2.0
141
1.0
290
     0
  0
SCALE
  5
22B
102
{ACAD_REACTORS
330
21D
102
}
330
21D
100
AcDbScale
 70
     0
300
4:1
140
4.0
141
1.0
290
     0
  0
SCALE
  5
22C
102
{ACAD_REACTORS
330
21D
102
}
330
21D
100
AcDbScale
 70
     0
300
8:1
140
8.0
141
1.0
290
     0
  0
SCALE
  5
22D
102
{ACAD_REACTORS
330
21D
102
}
330
21D
100
AcDbScale
 70
     0
300
10:1
140
10.0
141
1.0
290
     0
  0
SCALE
  5
22E
102
{ACAD_REACTORS
330
21D
102
}
330
21D
100
AcDbScale
 70
     0
300
100:1
140
100.0
141
1.0
290
     0
  0
SCALE
  5
22F
102
{ACAD_REACTORS
330
21D
102
}
330
21D
100
AcDbScale
 70
     0
300
1/128" = 1'-0"
140
0.0078125
141
12.0
290
     0
  0
SCALE
  5
230
102
{ACAD_REACTORS
330
21D
102
}
330
21D
100
AcDbScale
 70
     0
300
1/64" = 1'-0"
140
0.015625
141
12.0
290
     0
  0
SCALE
  5
231
102
{ACAD_REACTORS
330
21D
102
}
330
21D
100
AcDbScale
 70
     0
300
1/32" = 1'-0"
140
0.03125
141
12.0
290
     0
  0
SCALE
  5
232
102
{ACAD_REACTORS
330
21D
102
}
330
21D
100
AcDbScale
 70
     0
300
1/16" = 1'-0"
140
0.0625
141
12.0
290
     0
  0
SCALE
  5
233
102
{ACAD_REACTORS
330
21D
102
}
330
21D
100
AcDbScale
 70
     0
300
3/32" = 1'-0"
140
0.09375
141
12.0
290
     0
  0
SCALE
  5
234
102
{ACAD_REACTORS
330
21D
102
}
330
21D
100
AcDbScale
 70
     0
300
1/8" = 1'-0"
140
0.125
141
12.0
290
     0
  0
SCALE
  5
235
102
{ACAD_REACTORS
330
21D
102
}
330
21D
100
AcDbScale
 70
     0
300
3/16" = 1'-0"
140
0.1875
141
12.0
290
     0
  0
SCALE
  5
236
102
{ACAD_REACTORS
330
21D
102
}
330
21D
100
AcDbScale
 70
     0
300
1/4" = 1'-0"
140
0.25
141
12.0
290
     0
  0
SCALE
  5
237
102
{ACAD_REACTORS
330
21D
102
}
330
21D
100
AcDbScale
 70
     0
300
3/8" = 1'-0"
140
0.375
141
12.0
290
     0
  0
SCALE
  5
238
102
{ACAD_REACTORS
330
21D
102
}
330
21D
100
AcDbScale
 70
     0
300
1/2" = 1'-0"
140
0.5
141
12.0
290
     0
  0
SCALE
  5
239
102
{ACAD_REACTORS
330
21D
102
}
330
21D
100
AcDbScale
 70
     0
300
3/4" = 1'-0"
140
0.75
141
12.0
290
     0
  0
SCALE
  5
23A
102
{ACAD_REACTORS
330
21D
102
}
330
21D
100
AcDbScale
 70
     0
300
1" = 1'-0"
140
1.0
141
12.0
290
     0
  0
SCALE
  5
23B
102
{ACAD_REACTORS
330
21D
102
}
330
21D
100
AcDbScale
 70
     0
300
1-1/2" = 1'-0"
140
1.5
141
12.0
290
     0
  0
SCALE
  5
23C
102
{ACAD_REACTORS
330
21D
102
}
330
21D
100
AcDbScale
 70
     0
300
3" = 1'-0"
140
3.0
141
12.0
290
     0
  0
SCALE
  5
23D
102
{ACAD_REACTORS
330
21D
102
}
330
21D
100
AcDbScale
 70
     0
300
6" = 1'-0"
140
6.0
141
12.0
290
     0
  0
SCALE
  5
23E
102
{ACAD_REACTORS
330
21D
102
}
330
21D
100
AcDbScale
 70
     0
300
1'-0" = 1'-0"
140
12.0
141
12.0
290
     0
  0
VISUALSTYLE
  5
2F
102
{ACAD_REACTORS
330
2A
102
}
102
{ACAD_XDICTIONARY
360
8EE
102
}
330
2A
100
AcDbVisualStyle
  2
2dWireframe
 70
     4
 71
     0
 72
     2
 73
     0
 90
        0
 40
-0.6
 41
-30.0
 62
     5
 63
     7
 74
     1
 91
        4
 64
     7
 65
   257
 75
     1
175
     1
 42
1.0
 92
        0
 66
   257
 43
1.0
 76
     1
 77
     6
 78
     2
 67
     7
 79
     5
170
     0
171
     0
290
     0
174
     0
 93
        1
 44
0.0
173
     0
291
     0
 45
0.0
1001
ACAD
1000
AcDbSavedByObjectVersion
1070
     0
  0
VISUALSTYLE
  5
31
102
{ACAD_REACTORS
330
2A
102
}
102
{ACAD_XDICTIONARY
360
8F2
102
}
330
2A
100
AcDbVisualStyle
  2
3D Hidden
 70
     6
 71
     1
 72
     2
 73
     2
 90
        0
 40
-0.6
 41
-30.0
 62
     5
 63
     7
 74
     2
 91
        2
 64
     7
 65
   257
 75
     2
175
     1
 42
40.0
 92
        0
 66
   257
 43
1.0
 76
     1
 77
     6
 78
     2
 67
     7
 79
     3
170
     0
171
     0
290
     0
174
     0
 93
        1
 44
0.0
173
     0
291
     0
 45
0.0
1001
ACAD
1000
AcDbSavedByObjectVersion
1070
     0
  0
VISUALSTYLE
  5
30
102
{ACAD_REACTORS
330
2A
102
}
102
{ACAD_XDICTIONARY
360
8F0
102
}
330
2A
100
AcDbVisualStyle
  2
3dWireframe
 70
     5
 71
     0
 72
     2
 73
     0
 90
        0
 40
-0.6
 41
-30.0
 62
     5
 63
     7
 74
     1
 91
        4
 64
     7
 65
   257
 75
     1
175
     1
 42
1.0
 92
        0
 66
   257
 43
1.0
 76
     1
 77
     6
 78
     2
 67
     7
 79
     5
170
     0
171
     0
290
     0
174
     0
 93
        1
 44
0.0
173
     0
291
     0
 45
0.0
1001
ACAD
1000
AcDbSavedByObjectVersion
1070
     0
  0
VISUALSTYLE
  5
32
102
{ACAD_REACTORS
330
2A
102
}
102
{ACAD_XDICTIONARY
360
8F4
102
}
330
2A
100
AcDbVisualStyle
  2
Basic
 70
     7
 71
     1
 72
     0
 73
     1
 90
        0
 40
-0.6
 41
-30.0
 62
     5
 63
     7
 74
     0
 91
        4
 64
     7
 65
   257
 75
     1
175
     1
 42
1.0
 92
        8
 66
     7
 43
1.0
 76
     1
 77
     6
 78
     2
 67
     7
 79
     5
170
     0
171
     0
290
     0
174
     0
 93
        1
 44
0.0
173
     0
291
     1
 45
0.0
1001
ACAD
1000
AcDbSavedByObjectVersion
1070
     0
  0
VISUALSTYLE
  5
36
102
{ACAD_REACTORS
330
2A
102
}
102
{ACAD_XDICTIONARY
360
8FC
102
}
330
2A
100
AcDbVisualStyle
  2
Brighten
 70
    12
 71
     2
 72
     2
 73
     0
 90
        0
 40
-0.6
 41
-30.0
 62
     5
 63
     7
 74
     1
 91
        4
 64
     7
 65
   257
 75
     1
175
     1
 42
1.0
 92
        8
 66
     7
 43
1.0
 76
     1
 77
     6
 78
     2
 67
     7
 79
     5
170
     0
171
     0
290
     0
174
     0
 93
        1
 44
50.0
173
     0
291
     1
 45
0.0
1001
ACAD
1000
AcDbSavedByObjectVersion
1070
     0
  0
VISUALSTYLE
  5
3A
102
{ACAD_REACTORS
330
2A
102
}
102
{ACAD_XDICTIONARY
360
904
102
}
330
2A
100
AcDbVisualStyle
  2
ColorChange
 70
    16
 71
     2
 72
     2
 73
     3
 90
        0
 40
-0.6
 41
-30.0
 62
     5
 63
     8
 74
     1
 91
        4
 64
     7
 65
   257
 75
     1
175
     1
 42
1.0
 92
        8
 66
     8
 43
1.0
 76
     1
 77
     6
 78
     2
 67
     7
 79
     5
170
     0
171
     0
290
     0
174
     0
 93
        1
 44
0.0
173
     0
291
     1
 45
0.0
1001
ACAD
1000
AcDbSavedByObjectVersion
1070
     0
  0
VISUALSTYLE
  5
34
102
{ACAD_REACTORS
330
2A
102
}
102
{ACAD_XDICTIONARY
360
8F8
102
}
330
2A
100
AcDbVisualStyle
  2
Conceptual
 70
     9
 71
     3
 72
     2
 73
     0
 90
        0
 40
-0.6
 41
-30.0
 62
     5
 63
     7
 74
     2
 91
        2
 64
     7
 65
   257
 75
     1
175
     1
 42
40.0
 92
        8
 66
     7
 43
1.0
 76
     1
 77
     6
 78
     2
 67
     7
 79
     3
170
     0
171
     0
290
     0
174
     0
 93
        1
 44
0.0
173
     0
291
     0
 45
0.0
1001
ACAD
1000
AcDbSavedByObjectVersion
1070
     0
  0
VISUALSTYLE
  5
35
102
{ACAD_REACTORS
330
2A
102
}
102
{ACAD_XDICTIONARY
360
8FA
102
}
330
2A
100
AcDbVisualStyle
  2
Dim
 70
    11
 71
     2
 72
     2
 73
     0
 90
        0
 40
-0.6
 41
-30.0
 62
     5
 63
     7
 74
     1
 91
        4
 64
     7
 65
   257
 75
     1
175
     1
 42
1.0
 92
        8
 66
     7
 43
1.0
 76
     1
 77
     6
 78
     2
 67
     7
 79
     5
170
     0
171
     0
290
     0
174
     0
 93
        1
 44
-50.0
173
     0
291
     1
 45
0.0
1001
ACAD
1000
AcDbSavedByObjectVersion
1070
     0
  0
VISUALSTYLE
  5
39
102
{ACAD_REACTORS
330
2A
102
}
102
{ACAD_XDICTIONARY
360
902
102
}
330
2A
100
AcDbVisualStyle
  2
Facepattern
 70
    15
 71
     2
 72
     2
 73
     0
 90
        0
 40
-0.6
 41
-30.0
 62
     5
 63
     7
 74
     1
 91
        4
 64
     7
 65
   257
 75
     1
175
     1
 42
1.0
 92
        8
 66
     7
 43
1.0
 76
     1
 77
     6
 78
     2
 67
     7
 79
     5
170
     0
171
     0
290
     0
174
     0
 93
        1
 44
0.0
173
     0
291
     1
 45
0.0
1001
ACAD
1000
AcDbSavedByObjectVersion
1070
     0
  0
VISUALSTYLE
  5
2B
102
{ACAD_REACTORS
330
2A
102
}
102
{ACAD_XDICTIONARY
360
8E6
102
}
330
2A
100
AcDbVisualStyle
  2
Flat
 70
     0
 71
     2
 72
     1
 73
     1
 90
        2
 40
-0.6
 41
30.0
 62
     5
 63
     7
 74
     0
 91
        4
 64
     7
 65
   257
 75
     1
175
     1
 42
1.0
 92
        8
 66
     7
 43
1.0
 76
     1
 77
     6
 78
     2
 67
     7
 79
     5
170
     0
171
     0
290
     0
174
     0
 93
       13
 44
0.0
173
     0
291
     1
 45
0.0
1001
ACAD
1000
AcDbSavedByObjectVersion
1070
     0
  0
VISUALSTYLE
  5
2C
102
{ACAD_REACTORS
330
2A
102
}
102
{ACAD_XDICTIONARY
360
8E8
102
}
330
2A
100
AcDbVisualStyle
  2
FlatWithEdges
 70
     1
 71
     2
 72
     1
 73
     1
 90
        2
 40
-0.6
 41
30.0
 62
     5
 63
     7
 74
     1
 91
        4
 64
     7
 65
   257
 75
     1
175
     1
 42
1.0
 92
        0
 66
   257
 43
1.0
 76
     1
 77
     6
 78
     2
 67
     7
 79
     5
170
     0
171
     0
290
     0
174
     0
 93
       13
 44
0.0
173
     0
291
     1
 45
0.0
1001
ACAD
1000
AcDbSavedByObjectVersion
1070
     0
  0
VISUALSTYLE
  5
2D
102
{ACAD_REACTORS
330
2A
102
}
102
{ACAD_XDICTIONARY
360
8EA
102
}
330
2A
100
AcDbVisualStyle
  2
Gouraud
 70
     2
 71
     2
 72
     2
 73
     1
 90
        2
 40
-0.6
 41
30.0
 62
     5
 63
     7
 74
     0
 91
        4
 64
     7
 65
   257
 75
     1
175
     1
 42
1.0
 92
        0
 66
     7
 43
1.0
 76
     1
 77
     6
 78
     2
 67
     7
 79
     5
170
     0
171
     0
290
     0
174
     0
 93
       13
 44
0.0
173
     0
291
     1
 45
0.0
1001
ACAD
1000
AcDbSavedByObjectVersion
1070
     0
  0
VISUALSTYLE
  5
2E
102
{ACAD_REACTORS
330
2A
102
}
102
{ACAD_XDICTIONARY
360
8EC
102
}
330
2A
100
AcDbVisualStyle
  2
GouraudWithEdges
 70
     3
 71
     2
 72
     2
 73
     1
 90
        2
 40
-0.6
 41
30.0
 62
     5
 63
     7
 74
     1
 91
        4
 64
     7
 65
   257
 75
     1
175
     1
 42
1.0
 92
        0
 66
   257
 43
1.0
 76
     1
 77
     6
 78
     2
 67
     7
 79
     5
170
     0
171
     0
290
     0
174
     0
 93
       13
 44
0.0
173
     0
291
     1
 45
0.0
1001
ACAD
1000
AcDbSavedByObjectVersion
1070
     0
  0
VISUALSTYLE
  5
38
102
{ACAD_REACTORS
330
2A
102
}
102
{ACAD_XDICTIONARY
360
900
102
}
330
2A
100
AcDbVisualStyle
  2
Linepattern
 70
    14
 71
     2
 72
     2
 73
     0
 90
        0
 40
-0.6
 41
-30.0
 62
     5
 63
     7
 74
     1
 91
        4
 64
     7
 65
   257
 75
     7
175
     7
 42
1.0
 92
        8
 66
     7
 43
1.0
 76
     1
 77
     6
 78
     2
 67
     7
 79
     5
170
     0
171
     0
290
     0
174
     0
 93
        1
 44
0.0
173
     0
291
     1
 45
0.0
1001
ACAD
1000
AcDbSavedByObjectVersion
1070
     0
  0
VISUALSTYLE
  5
33
102
{ACAD_REACTORS
330
2A
102
}
102
{ACAD_XDICTIONARY
360
8F6
102
}
330
2A
100
AcDbVisualStyle
  2
Realistic
 70
     8
 71
     2
 72
     2
 73
     0
 90
        0
 40
-0.6
 41
-30.0
 62
     5
 63
     7
 74
     1
 91
        0
 64
     7
 65
   257
 75
     1
175
     1
 42
1.0
 92
        8
 66
     8
 43
1.0
 76
     1
 77
     6
 78
     2
 67
     7
 79
     5
170
     0
171
     0
290
     0
174
     0
 93
       13
 44
0.0
173
     0
291
     0
 45
0.0
1001
ACAD
1000
AcDbSavedByObjectVersion
1070
     0
  0
VISUALSTYLE
  5
37
102
{ACAD_REACTORS
330
2A
102
}
102
{ACAD_XDICTIONARY
360
8FE
102
}
330
2A
100
AcDbVisualStyle
  2
Thicken
 70
    13
 71
     2
 72
     2
 73
     0
 90
        0
 40
-0.6
 41
-30.0
 62
     5
 63
     7
 74
     1
 91
        4
 64
     7
 65
   257
 75
     1
175
     1
 42
1.0
 92
       12
 66
     7
 43
1.0
 76
     1
 77
     6
 78
     2
 67
     7
 79
     5
170
     0
171
     0
290
     0
174
     0
 93
        1
 44
0.0
173
     0
291
     1
 45
0.0
1001
ACAD
1000
AcDbSavedByObjectVersion
1070
     0
  0
DICTIONARYVAR
  5
8E3
102
{ACAD_REACTORS
330
8DE
102
}
330
8DE
100
DictionaryVariables
280
     0
  1
1:1
  0
DICTIONARYVAR
  5
8E4
102
{ACAD_REACTORS
330
8DE
102
}
330
8DE
100
DictionaryVariables
280
     0
  1
2
  0
DICTIONARYVAR
  5
8E5
102
{ACAD_REACTORS
330
8DE
102
}
330
8DE
100
DictionaryVariables
280
     0
  1
1
  0
DICTIONARYVAR
  5
8E2
102
{ACAD_REACTORS
330
8DE
102
}
330
8DE
100
DictionaryVariables
280
     0
  1
80.000000
  0
DICTIONARYVAR
  5
8E1
102
{ACAD_REACTORS
330
8DE
102
}
330
8DE
100
DictionaryVariables
280
     0
  1
5.000000
  0
DICTIONARY
  5
908
330
3D
100
AcDbDictionary
280
     1
281
     1
  3
ACAD_XREC_ROUNDTRIP
360
909
  0
DICTIONARY
  5
906
330
3C
100
AcDbDictionary
280
     1
281
     1
  3
ACAD_XREC_ROUNDTRIP
360
907
  0
DICTIONARY
  5
90A
330
3E
100
AcDbDictionary
280
     1
281
     1
  3
ACAD_XREC_ROUNDTRIP
360
90B
  0
DICTIONARY
  5
8EE
330
2F
100
AcDbDictionary
280
     1
281
     1
  3
ACAD_XREC_ROUNDTRIP
360
8EF
  0
DICTIONARY
  5
8F2
330
31
100
AcDbDictionary
280
     1
281
     1
  3
ACAD_XREC_ROUNDTRIP
360
8F3
  0
DICTIONARY
  5
8F0
330
30
100
AcDbDictionary
280
     1
281
     1
  3
ACAD_XREC_ROUNDTRIP
360
8F1
  0
DICTIONARY
  5
8F4
330
32
100
AcDbDictionary
280
     1
281
     1
  3
ACAD_XREC_ROUNDTRIP
360
8F5
  0
DICTIONARY
  5
8FC
330
36
100
AcDbDictionary
280
     1
281
     1
  3
ACAD_XREC_ROUNDTRIP
360
8FD
  0
DICTIONARY
  5
904
330
3A
100
AcDbDictionary
280
     1
281
     1
  3
ACAD_XREC_ROUNDTRIP
360
905
  0
DICTIONARY
  5
8F8
330
34
100
AcDbDictionary
280
     1
281
     1
  3
ACAD_XREC_ROUNDTRIP
360
8F9
  0
DICTIONARY
  5
8FA
330
35
100
AcDbDictionary
280
     1
281
     1
  3
ACAD_XREC_ROUNDTRIP
360
8FB
  0
DICTIONARY
  5
902
330
39
100
AcDbDictionary
280
     1
281
     1
  3
ACAD_XREC_ROUNDTRIP
360
903
  0
DICTIONARY
  5
8E6
330
2B
100
AcDbDictionary
280
     1
281
     1
  3
ACAD_XREC_ROUNDTRIP
360
8E7
  0
DICTIONARY
  5
8E8
330
2C
100
AcDbDictionary
280
     1
281
     1
  3
ACAD_XREC_ROUNDTRIP
360
8E9
  0
DICTIONARY
  5
8EA
330
2D
100
AcDbDictionary
280
     1
281
     1
  3
ACAD_XREC_ROUNDTRIP
360
8EB
  0
DICTIONARY
  5
8EC
330
2E
100
AcDbDictionary
280
     1
281
     1
  3
ACAD_XREC_ROUNDTRIP
360
8ED
  0
DICTIONARY
  5
900
330
38
100
AcDbDictionary
280
     1
281
     1
  3
ACAD_XREC_ROUNDTRIP
360
901
  0
DICTIONARY
  5
8F6
330
33
100
AcDbDictionary
280
     1
281
     1
  3
ACAD_XREC_ROUNDTRIP
360
8F7
  0
DICTIONARY
  5
8FE
330
37
100
AcDbDictionary
280
     1
281
     1
  3
ACAD_XREC_ROUNDTRIP
360
8FF
  0
XRECORD
  5
909
102
{ACAD_REACTORS
330
908
102
}
330
908
100
AcDbXrecord
280
     1
102
MATERIAL
148
0.0
149
0.0
149
0.0
 93
        0
 94
      127
282
     0
 72
     1
 77
     1
171
     1
175
     1
179
     1
273
     0
  0
XRECORD
  5
907
102
{ACAD_REACTORS
330
906
102
}
330
906
100
AcDbXrecord
280
     1
102
MATERIAL
148
0.0
149
0.0
149
0.0
 93
        0
 94
      127
282
     0
 72
     1
 77
     1
171
     1
175
     1
179
     1
273
     0
  0
XRECORD
  5
90B
102
{ACAD_REACTORS
330
90A
102
}
330
90A
100
AcDbXrecord
280
     1
102
MATERIAL
148
0.0
149
0.0
149
0.0
 93
        0
 94
      127
282
     0
 72
     1
 77
     1
171
     1
175
     1
179
     1
273
     0
  0
XRECORD
  5
8EF
102
{ACAD_REACTORS
330
8EE
102
}
330
8EE
100
AcDbXrecord
280
     1
102
RTVSPropertyOp0
 70
     1
102
RTVSPropertyOp1
 70
     1
102
RTVSPropertyOp2
 70
     1
102
RTVSPropertyOp3
 70
     1
102
RTVSPropertyOp4
 70
     1
102
RTVSPropertyOp5
 70
     1
102
RTVSPropertyOp6
 70
     1
102
RTVSPropertyOp7
 70
     1
102
RTVSPropertyOp8
 70
     1
102
RTVSPropertyOp9
 70
     1
102
RTVSPropertyOp10
 70
     1
102
RTVSPropertyOp11
 70
     1
102
RTVSPropertyOp12
 70
     1
102
RTVSPropertyOp13
 70
     1
102
RTVSPropertyOp14
 70
     1
102
RTVSPropertyOp15
 70
     1
102
RTVSPropertyOp16
 70
     1
102
RTVSPropertyOp17
 70
     1
102
RTVSPropertyOp18
 70
     1
102
RTVSPropertyOp19
 70
     1
102
RTVSPropertyOp20
 70
     1
102
RTVSPropertyOp21
 70
     1
102
RTVSPropertyOp22
 70
     1
102
RTVSPropertyOp23
 70
     1
102
RTVSPropertyOp24
 70
     1
102
RTVSPropertyOp25
 70
     1
102
RTVSPropertyOp26
 70
     1
102
RTVSPropertyOp27
 70
     1
  0
XRECORD
  5
8F3
102
{ACAD_REACTORS
330
8F2
102
}
330
8F2
100
AcDbXrecord
280
     1
102
RTVSPropertyOp0
 70
     1
102
RTVSPropertyOp1
 70
     1
102
RTVSPropertyOp2
 70
     1
102
RTVSPropertyOp3
 70
     1
102
RTVSPropertyOp4
 70
     1
102
RTVSPropertyOp5
 70
     1
102
RTVSPropertyOp6
 70
     1
102
RTVSPropertyOp7
 70
     1
102
RTVSPropertyOp8
 70
     1
102
RTVSPropertyOp9
 70
     1
102
RTVSPropertyOp10
 70
     1
102
RTVSPropertyOp11
 70
     1
102
RTVSPropertyOp12
 70
     1
102
RTVSPropertyOp13
 70
     1
102
RTVSPropertyOp14
 70
     1
102
RTVSPropertyOp15
 70
     1
102
RTVSPropertyOp16
 70
     1
102
RTVSPropertyOp17
 70
     1
102
RTVSPropertyOp18
 70
     1
102
RTVSPropertyOp19
 70
     1
102
RTVSPropertyOp20
 70
     1
102
RTVSPropertyOp21
 70
     1
102
RTVSPropertyOp22
 70
     1
102
RTVSPropertyOp23
 70
     1
102
RTVSPropertyOp24
 70
     1
102
RTVSPropertyOp25
 70
     1
102
RTVSPropertyOp26
 70
     1
102
RTVSPropertyOp27
 70
     1
  0
XRECORD
  5
8F1
102
{ACAD_REACTORS
330
8F0
102
}
330
8F0
100
AcDbXrecord
280
     1
102
RTVSPropertyOp0
 70
     1
102
RTVSPropertyOp1
 70
     1
102
RTVSPropertyOp2
 70
     1
102
RTVSPropertyOp3
 70
     1
102
RTVSPropertyOp4
 70
     1
102
RTVSPropertyOp5
 70
     1
102
RTVSPropertyOp6
 70
     1
102
RTVSPropertyOp7
 70
     1
102
RTVSPropertyOp8
 70
     1
102
RTVSPropertyOp9
 70
     1
102
RTVSPropertyOp10
 70
     1
102
RTVSPropertyOp11
 70
     1
102
RTVSPropertyOp12
 70
     1
102
RTVSPropertyOp13
 70
     1
102
RTVSPropertyOp14
 70
     1
102
RTVSPropertyOp15
 70
     1
102
RTVSPropertyOp16
 70
     1
102
RTVSPropertyOp17
 70
     1
102
RTVSPropertyOp18
 70
     1
102
RTVSPropertyOp19
 70
     1
102
RTVSPropertyOp20
 70
     1
102
RTVSPropertyOp21
 70
     1
102
RTVSPropertyOp22
 70
     1
102
RTVSPropertyOp23
 70
     1
102
RTVSPropertyOp24
 70
     1
102
RTVSPropertyOp25
 70
     1
102
RTVSPropertyOp26
 70
     1
102
RTVSPropertyOp27
 70
     1
  0
XRECORD
  5
8F5
102
{ACAD_REACTORS
330
8F4
102
}
330
8F4
100
AcDbXrecord
280
     1
102
RTVSPropertyOp0
 70
     1
102
RTVSPropertyOp1
 70
     1
102
RTVSPropertyOp2
 70
     1
102
RTVSPropertyOp3
 70
     1
102
RTVSPropertyOp4
 70
     1
102
RTVSPropertyOp5
 70
     1
102
RTVSPropertyOp6
 70
     1
102
RTVSPropertyOp7
 70
     1
102
RTVSPropertyOp8
 70
     1
102
RTVSPropertyOp9
 70
     1
102
RTVSPropertyOp10
 70
     1
102
RTVSPropertyOp11
 70
     1
102
RTVSPropertyOp12
 70
     1
102
RTVSPropertyOp13
 70
     1
102
RTVSPropertyOp14
 70
     1
102
RTVSPropertyOp15
 70
     1
102
RTVSPropertyOp16
 70
     1
102
RTVSPropertyOp17
 70
     1
102
RTVSPropertyOp18
 70
     1
102
RTVSPropertyOp19
 70
     1
102
RTVSPropertyOp20
 70
     1
102
RTVSPropertyOp21
 70
     1
102
RTVSPropertyOp22
 70
     1
102
RTVSPropertyOp23
 70
     1
102
RTVSPropertyOp24
 70
     1
102
RTVSPropertyOp25
 70
     1
102
RTVSPropertyOp26
 70
     1
102
RTVSPropertyOp27
 70
     1
  0
XRECORD
  5
8FD
102
{ACAD_REACTORS
330
8FC
102
}
330
8FC
100
AcDbXrecord
280
     1
102
RTVSPropertyOp0
 70
     1
102
RTVSPropertyOp1
 70
     1
102
RTVSPropertyOp2
 70
     1
102
RTVSPropertyOp3
 70
     1
102
RTVSPropertyOp4
 70
     1
102
RTVSPropertyOp5
 70
     1
102
RTVSPropertyOp6
 70
     1
102
RTVSPropertyOp7
 70
     1
102
RTVSPropertyOp8
 70
     1
102
RTVSPropertyOp9
 70
     1
102
RTVSPropertyOp10
 70
     1
102
RTVSPropertyOp11
 70
     1
102
RTVSPropertyOp12
 70
     1
102
RTVSPropertyOp13
 70
     1
102
RTVSPropertyOp14
 70
     1
102
RTVSPropertyOp15
 70
     1
102
RTVSPropertyOp16
 70
     1
102
RTVSPropertyOp17
 70
     1
102
RTVSPropertyOp18
 70
     1
102
RTVSPropertyOp19
 70
     1
102
RTVSPropertyOp20
 70
     1
102
RTVSPropertyOp21
 70
     1
102
RTVSPropertyOp22
 70
     1
102
RTVSPropertyOp23
 70
     1
102
RTVSPropertyOp24
 70
     1
102
RTVSPropertyOp25
 70
     1
102
RTVSPropertyOp26
 70
     1
102
RTVSPropertyOp27
 70
     1
  0
XRECORD
  5
905
102
{ACAD_REACTORS
330
904
102
}
330
904
100
AcDbXrecord
280
     1
102
RTVSPropertyOp0
 70
     1
102
RTVSPropertyOp1
 70
     1
102
RTVSPropertyOp2
 70
     1
102
RTVSPropertyOp3
 70
     1
102
RTVSPropertyOp4
 70
     1
102
RTVSPropertyOp5
 70
     1
102
RTVSPropertyOp6
 70
     1
102
RTVSPropertyOp7
 70
     1
102
RTVSPropertyOp8
 70
     1
102
RTVSPropertyOp9
 70
     1
102
RTVSPropertyOp10
 70
     1
102
RTVSPropertyOp11
 70
     1
102
RTVSPropertyOp12
 70
     1
102
RTVSPropertyOp13
 70
     1
102
RTVSPropertyOp14
 70
     1
102
RTVSPropertyOp15
 70
     1
102
RTVSPropertyOp16
 70
     1
102
RTVSPropertyOp17
 70
     1
102
RTVSPropertyOp18
 70
     1
102
RTVSPropertyOp19
 70
     1
102
RTVSPropertyOp20
 70
     1
102
RTVSPropertyOp21
 70
     1
102
RTVSPropertyOp22
 70
     1
102
RTVSPropertyOp23
 70
     1
102
RTVSPropertyOp24
 70
     1
102
RTVSPropertyOp25
 70
     1
102
RTVSPropertyOp26
 70
     1
102
RTVSPropertyOp27
 70
     1
  0
XRECORD
  5
8F9
102
{ACAD_REACTORS
330
8F8
102
}
330
8F8
100
AcDbXrecord
280
     1
102
RTVSPropertyOp0
 70
     1
102
RTVSPropertyOp1
 70
     1
102
RTVSPropertyOp2
 70
     1
102
RTVSPropertyOp3
 70
     1
102
RTVSPropertyOp4
 70
     1
102
RTVSPropertyOp5
 70
     1
102
RTVSPropertyOp6
 70
     1
102
RTVSPropertyOp7
 70
     1
102
RTVSPropertyOp8
 70
     1
102
RTVSPropertyOp9
 70
     1
102
RTVSPropertyOp10
 70
     1
102
RTVSPropertyOp11
 70
     1
102
RTVSPropertyOp12
 70
     1
102
RTVSPropertyOp13
 70
     1
102
RTVSPropertyOp14
 70
     1
102
RTVSPropertyOp15
 70
     1
102
RTVSPropertyOp16
 70
     1
102
RTVSPropertyOp17
 70
     1
102
RTVSPropertyOp18
 70
     1
102
RTVSPropertyOp19
 70
     1
102
RTVSPropertyOp20
 70
     1
102
RTVSPropertyOp21
 70
     1
102
RTVSPropertyOp22
 70
     1
102
RTVSPropertyOp23
 70
     1
102
RTVSPropertyOp24
 70
     1
102
RTVSPropertyOp25
 70
     1
102
RTVSPropertyOp26
 70
     1
102
RTVSPropertyOp27
 70
     1
  0
XRECORD
  5
8FB
102
{ACAD_REACTORS
330
8FA
102
}
330
8FA
100
AcDbXrecord
280
     1
102
RTVSPropertyOp0
 70
     1
102
RTVSPropertyOp1
 70
     1
102
RTVSPropertyOp2
 70
     1
102
RTVSPropertyOp3
 70
     1
102
RTVSPropertyOp4
 70
     1
102
RTVSPropertyOp5
 70
     1
102
RTVSPropertyOp6
 70
     1
102
RTVSPropertyOp7
 70
     1
102
RTVSPropertyOp8
 70
     1
102
RTVSPropertyOp9
 70
     1
102
RTVSPropertyOp10
 70
     1
102
RTVSPropertyOp11
 70
     1
102
RTVSPropertyOp12
 70
     1
102
RTVSPropertyOp13
 70
     1
102
RTVSPropertyOp14
 70
     1
102
RTVSPropertyOp15
 70
     1
102
RTVSPropertyOp16
 70
     1
102
RTVSPropertyOp17
 70
     1
102
RTVSPropertyOp18
 70
     1
102
RTVSPropertyOp19
 70
     1
102
RTVSPropertyOp20
 70
     1
102
RTVSPropertyOp21
 70
     1
102
RTVSPropertyOp22
 70
     1
102
RTVSPropertyOp23
 70
     1
102
RTVSPropertyOp24
 70
     1
102
RTVSPropertyOp25
 70
     1
102
RTVSPropertyOp26
 70
     1
102
RTVSPropertyOp27
 70
     1
  0
XRECORD
  5
903
102
{ACAD_REACTORS
330
902
102
}
330
902
100
AcDbXrecord
280
     1
102
RTVSPropertyOp0
 70
     1
102
RTVSPropertyOp1
 70
     1
102
RTVSPropertyOp2
 70
     1
102
RTVSPropertyOp3
 70
     1
102
RTVSPropertyOp4
 70
     1
102
RTVSPropertyOp5
 70
     1
102
RTVSPropertyOp6
 70
     1
102
RTVSPropertyOp7
 70
     1
102
RTVSPropertyOp8
 70
     1
102
RTVSPropertyOp9
 70
     1
102
RTVSPropertyOp10
 70
     1
102
RTVSPropertyOp11
 70
     1
102
RTVSPropertyOp12
 70
     1
102
RTVSPropertyOp13
 70
     1
102
RTVSPropertyOp14
 70
     1
102
RTVSPropertyOp15
 70
     1
102
RTVSPropertyOp16
 70
     1
102
RTVSPropertyOp17
 70
     1
102
RTVSPropertyOp18
 70
     1
102
RTVSPropertyOp19
 70
     1
102
RTVSPropertyOp20
 70
     1
102
RTVSPropertyOp21
 70
     1
102
RTVSPropertyOp22
 70
     1
102
RTVSPropertyOp23
 70
     1
102
RTVSPropertyOp24
 70
     1
102
RTVSPropertyOp25
 70
     1
102
RTVSPropertyOp26
 70
     1
102
RTVSPropertyOp27
 70
     1
  0
XRECORD
  5
8E7
102
{ACAD_REACTORS
330
8E6
102
}
330
8E6
100
AcDbXrecord
280
     1
102
RTVSPropertyOp0
 70
     1
102
RTVSPropertyOp1
 70
     1
102
RTVSPropertyOp2
 70
     1
102
RTVSPropertyOp3
 70
     1
102
RTVSPropertyOp4
 70
     1
102
RTVSPropertyOp5
 70
     1
102
RTVSPropertyOp6
 70
     1
102
RTVSPropertyOp7
 70
     1
102
RTVSPropertyOp8
 70
     1
102
RTVSPropertyOp9
 70
     1
102
RTVSPropertyOp10
 70
     1
102
RTVSPropertyOp11
 70
     1
102
RTVSPropertyOp12
 70
     1
102
RTVSPropertyOp13
 70
     1
102
RTVSPropertyOp14
 70
     1
102
RTVSPropertyOp15
 70
     1
102
RTVSPropertyOp16
 70
     1
102
RTVSPropertyOp17
 70
     1
102
RTVSPropertyOp18
 70
     1
102
RTVSPropertyOp19
 70
     1
102
RTVSPropertyOp20
 70
     1
102
RTVSPropertyOp21
 70
     1
102
RTVSPropertyOp22
 70
     1
102
RTVSPropertyOp23
 70
     1
102
RTVSPropertyOp24
 70
     1
102
RTVSPropertyOp25
 70
     1
102
RTVSPropertyOp26
 70
     1
102
RTVSPropertyOp27
 70
     1
  0
XRECORD
  5
8E9
102
{ACAD_REACTORS
330
8E8
102
}
330
8E8
100
AcDbXrecord
280
     1
102
RTVSPropertyOp0
 70
     1
102
RTVSPropertyOp1
 70
     1
102
RTVSPropertyOp2
 70
     1
102
RTVSPropertyOp3
 70
     1
102
RTVSPropertyOp4
 70
     1
102
RTVSPropertyOp5
 70
     1
102
RTVSPropertyOp6
 70
     1
102
RTVSPropertyOp7
 70
     1
102
RTVSPropertyOp8
 70
     1
102
RTVSPropertyOp9
 70
     1
102
RTVSPropertyOp10
 70
     1
102
RTVSPropertyOp11
 70
     1
102
RTVSPropertyOp12
 70
     1
102
RTVSPropertyOp13
 70
     1
102
RTVSPropertyOp14
 70
     1
102
RTVSPropertyOp15
 70
     1
102
RTVSPropertyOp16
 70
     1
102
RTVSPropertyOp17
 70
     1
102
RTVSPropertyOp18
 70
     1
102
RTVSPropertyOp19
 70
     1
102
RTVSPropertyOp20
 70
     1
102
RTVSPropertyOp21
 70
     1
102
RTVSPropertyOp22
 70
     1
102
RTVSPropertyOp23
 70
     1
102
RTVSPropertyOp24
 70
     1
102
RTVSPropertyOp25
 70
     1
102
RTVSPropertyOp26
 70
     1
102
RTVSPropertyOp27
 70
     1
  0
XRECORD
  5
8EB
102
{ACAD_REACTORS
330
8EA
102
}
330
8EA
100
AcDbXrecord
280
     1
102
RTVSPropertyOp0
 70
     1
102
RTVSPropertyOp1
 70
     1
102
RTVSPropertyOp2
 70
     1
102
RTVSPropertyOp3
 70
     1
102
RTVSPropertyOp4
 70
     1
102
RTVSPropertyOp5
 70
     1
102
RTVSPropertyOp6
 70
     1
102
RTVSPropertyOp7
 70
     1
102
RTVSPropertyOp8
 70
     1
102
RTVSPropertyOp9
 70
     1
102
RTVSPropertyOp10
 70
     1
102
RTVSPropertyOp11
 70
     1
102
RTVSPropertyOp12
 70
     1
102
RTVSPropertyOp13
 70
     1
102
RTVSPropertyOp14
 70
     1
102
RTVSPropertyOp15
 70
     1
102
RTVSPropertyOp16
 70
     1
102
RTVSPropertyOp17
 70
     1
102
RTVSPropertyOp18
 70
     1
102
RTVSPropertyOp19
 70
     1
102
RTVSPropertyOp20
 70
     1
102
RTVSPropertyOp21
 70
     1
102
RTVSPropertyOp22
 70
     1
102
RTVSPropertyOp23
 70
     1
102
RTVSPropertyOp24
 70
     1
102
RTVSPropertyOp25
 70
     1
102
RTVSPropertyOp26
 70
     1
102
RTVSPropertyOp27
 70
     1
  0
XRECORD
  5
8ED
102
{ACAD_REACTORS
330
8EC
102
}
330
8EC
100
AcDbXrecord
280
     1
102
RTVSPropertyOp0
 70
     1
102
RTVSPropertyOp1
 70
     1
102
RTVSPropertyOp2
 70
     1
102
RTVSPropertyOp3
 70
     1
102
RTVSPropertyOp4
 70
     1
102
RTVSPropertyOp5
 70
     1
102
RTVSPropertyOp6
 70
     1
102
RTVSPropertyOp7
 70
     1
102
RTVSPropertyOp8
 70
     1
102
RTVSPropertyOp9
 70
     1
102
RTVSPropertyOp10
 70
     1
102
RTVSPropertyOp11
 70
     1
102
RTVSPropertyOp12
 70
     1
102
RTVSPropertyOp13
 70
     1
102
RTVSPropertyOp14
 70
     1
102
RTVSPropertyOp15
 70
     1
102
RTVSPropertyOp16
 70
     1
102
RTVSPropertyOp17
 70
     1
102
RTVSPropertyOp18
 70
     1
102
RTVSPropertyOp19
 70
     1
102
RTVSPropertyOp20
 70
     1
102
RTVSPropertyOp21
 70
     1
102
RTVSPropertyOp22
 70
     1
102
RTVSPropertyOp23
 70
     1
102
RTVSPropertyOp24
 70
     1
102
RTVSPropertyOp25
 70
     1
102
RTVSPropertyOp26
 70
     1
102
RTVSPropertyOp27
 70
     1
  0
XRECORD
  5
901
102
{ACAD_REACTORS
330
900
102
}
330
900
100
AcDbXrecord
280
     1
102
RTVSPropertyOp0
 70
     1
102
RTVSPropertyOp1
 70
     1
102
RTVSPropertyOp2
 70
     1
102
RTVSPropertyOp3
 70
     1
102
RTVSPropertyOp4
 70
     1
102
RTVSPropertyOp5
 70
     1
102
RTVSPropertyOp6
 70
     1
102
RTVSPropertyOp7
 70
     1
102
RTVSPropertyOp8
 70
     1
102
RTVSPropertyOp9
 70
     1
102
RTVSPropertyOp10
 70
     1
102
RTVSPropertyOp11
 70
     1
102
RTVSPropertyOp12
 70
     1
102
RTVSPropertyOp13
 70
     1
102
RTVSPropertyOp14
 70
     1
102
RTVSPropertyOp15
 70
     1
102
RTVSPropertyOp16
 70
     1
102
RTVSPropertyOp17
 70
     1
102
RTVSPropertyOp18
 70
     1
102
RTVSPropertyOp19
 70
     1
102
RTVSPropertyOp20
 70
     1
102
RTVSPropertyOp21
 70
     1
102
RTVSPropertyOp22
 70
     1
102
RTVSPropertyOp23
 70
     1
102
RTVSPropertyOp24
 70
     1
102
RTVSPropertyOp25
 70
     1
102
RTVSPropertyOp26
 70
     1
102
RTVSPropertyOp27
 70
     1
  0
XRECORD
  5
8F7
102
{ACAD_REACTORS
330
8F6
102
}
330
8F6
100
AcDbXrecord
280
     1
102
RTVSPropertyOp0
 70
     1
102
RTVSPropertyOp1
 70
     1
102
RTVSPropertyOp2
 70
     1
102
RTVSPropertyOp3
 70
     1
102
RTVSPropertyOp4
 70
     1
102
RTVSPropertyOp5
 70
     1
102
RTVSPropertyOp6
 70
     1
102
RTVSPropertyOp7
 70
     1
102
RTVSPropertyOp8
 70
     1
102
RTVSPropertyOp9
 70
     1
102
RTVSPropertyOp10
 70
     1
102
RTVSPropertyOp11
 70
     1
102
RTVSPropertyOp12
 70
     1
102
RTVSPropertyOp13
 70
     1
102
RTVSPropertyOp14
 70
     1
102
RTVSPropertyOp15
 70
     1
102
RTVSPropertyOp16
 70
     1
102
RTVSPropertyOp17
 70
     1
102
RTVSPropertyOp18
 70
     1
102
RTVSPropertyOp19
 70
     1
102
RTVSPropertyOp20
 70
     1
102
RTVSPropertyOp21
 70
     1
102
RTVSPropertyOp22
 70
     1
102
RTVSPropertyOp23
 70
     1
102
RTVSPropertyOp24
 70
     1
102
RTVSPropertyOp25
 70
     1
102
RTVSPropertyOp26
 70
     1
102
RTVSPropertyOp27
 70
     1
  0
XRECORD
  5
8FF
102
{ACAD_REACTORS
330
8FE
102
}
330
8FE
100
AcDbXrecord
280
     1
102
RTVSPropertyOp0
 70
     1
102
RTVSPropertyOp1
 70
     1
102
RTVSPropertyOp2
 70
     1
102
RTVSPropertyOp3
 70
     1
102
RTVSPropertyOp4
 70
     1
102
RTVSPropertyOp5
 70
     1
102
RTVSPropertyOp6
 70
     1
102
RTVSPropertyOp7
 70
     1
102
RTVSPropertyOp8
 70
     1
102
RTVSPropertyOp9
 70
     1
102
RTVSPropertyOp10
 70
     1
102
RTVSPropertyOp11
 70
     1
102
RTVSPropertyOp12
 70
     1
102
RTVSPropertyOp13
 70
     1
102
RTVSPropertyOp14
 70
     1
102
RTVSPropertyOp15
 70
     1
102
RTVSPropertyOp16
 70
     1
102
RTVSPropertyOp17
 70
     1
102
RTVSPropertyOp18
 70
     1
102
RTVSPropertyOp19
 70
     1
102
RTVSPropertyOp20
 70
     1
102
RTVSPropertyOp21
 70
     1
102
RTVSPropertyOp22
 70
     1
102
RTVSPropertyOp23
 70
     1
102
RTVSPropertyOp24
 70
     1
102
RTVSPropertyOp25
 70
     1
102
RTVSPropertyOp26
 70
     1
102
RTVSPropertyOp27
 70
     1
  0
ENDSEC
  0
EOF
