  0
SECTION
  2
HEADER
  9
$ACADVER
  1
AC1015
  9
$ACADMAINTVER
 70
     6
  9
$DWGCODEPAGE
  3
ANSI_1252
  9
$INSBASE
 10
0.0
 20
0.0
 30
0.0
  9
$EXTMIN
 10
0.0
 20
0.0
 30
0.0
  9
$EXTMAX
 10
25.0
 20
35.0
 30
0.0
  9
$LIMMIN
 10
0.0
 20
0.0
  9
$LIMMAX
 10
420.0
 20
297.0
  9
$ORTHOMODE
 70
     0
  9
$REGENMODE
 70
     1
  9
$FILLMODE
 70
     1
  9
$QTEXTMODE
 70
     0
  9
$MIRRTEXT
 70
     1
  9
$LTSCALE
 40
4.45
  9
$ATTMODE
 70
     1
  9
$TEXTSIZE
 40
2.5
  9
$TRACEWID
 40
1.0
  9
$TEXTSTYLE
  7
Standard
  9
$CLAYER
  8
0
  9
$CELTYPE
  6
ByLayer
  9
$CECOLOR
 62
   256
  9
$CELTSCALE
 40
1.0
  9
$DISPSILH
 70
     0
  9
$DIMSCALE
 40
1.0
  9
$DIMASZ
 40
2.5
  9
$DIMEXO
 40
0.625
  9
$DIMDLI
 40
3.75
  9
$DIMRND
 40
0.0
  9
$DIMDLE
 40
0.0
  9
$DIMEXE
 40
1.25
  9
$DIMTP
 40
0.0
  9
$DIMTM
 40
0.0
  9
$DIMTXT
 40
2.5
  9
$DIMCEN
 40
2.5
  9
$DIMTSZ
 40
0.0
  9
$DIMTOL
 70
     0
  9
$DIMLIM
 70
     0
  9
$DIMTIH
 70
     0
  9
$DIMTOH
 70
     0
  9
$DIMSE1
 70
     0
  9
$DIMSE2
 70
     0
  9
$DIMTAD
 70
     1
  9
$DIMZIN
 70
     8
  9
$DIMBLK
  1

  9
$DIMASO
 70
     1
  9
$DIMSHO
 70
     1
  9
$DIMPOST
  1

  9
$DIMAPOST
  1

  9
$DIMALT
 70
     0
  9
$DIMALTD
 70
     3
  9
$DIMALTF
 40
0.03937007874016
  9
$DIMLFAC
 40
1.0
  9
$DIMTOFL
 70
     1
  9
$DIMTVP
 40
0.0
  9
$DIMTIX
 70
     0
  9
$DIMSOXD
 70
     0
  9
$DIMSAH
 70
     0
  9
$DIMBLK1
  1

  9
$DIMBLK2
  1

  9
$DIMSTYLE
  2
ISO-25
  9
$DIMCLRD
 70
     0
  9
$DIMCLRE
 70
     0
  9
$DIMCLRT
 70
     0
  9
$DIMTFAC
 40
1.0
  9
$DIMGAP
 40
0.625
  9
$DIMJUST
 70
     0
  9
$DIMSD1
 70
     0
  9
$DIMSD2
 70
     0
  9
$DIMTOLJ
 70
     0
  9
$DIMTZIN
 70
     8
  9
$DIMALTZ
 70
     0
  9
$DIMALTTZ
 70
     0
  9
$DIMUPT
 70
     0
  9
$DIMDEC
 70
     2
  9
$DIMTDEC
 70
     2
  9
$DIMALTU
 70
     2
  9
$DIMALTTD
 70
     3
  9
$DIMTXSTY
  7
Standard
  9
$DIMAUNIT
 70
     0
  9
$DIMADEC
 70
     0
  9
$DIMALTRND
 40
0.0
  9
$DIMAZIN
 70
     0
  9
$DIMDSEP
 70
    44
  9
$DIMATFIT
 70
     3
  9
$DIMFRAC
 70
     0
  9
$DIMLDRBLK
  1

  9
$DIMLUNIT
 70
     2
  9
$DIMLWD
 70
    -2
  9
$DIMLWE
 70
    -2
  9
$DIMTMOVE
 70
     0
  9
$LUNITS
 70
     2
  9
$LUPREC
 70
     4
  9
$SKETCHINC
 40
1.0
  9
$FILLETRAD
 40
10.0
  9
$AUNITS
 70
     0
  9
$AUPREC
 70
     0
  9
$MENU
  1
.
  9
$ELEVATION
 40
0.0
  9
$PELEVATION
 40
0.0
  9
$THICKNESS
 40
0.0
  9
$LIMCHECK
 70
     0
  9
$CHAMFERA
 40
10.0
  9
$CHAMFERB
 40
10.0
  9
$CHAMFERC
 40
20.0
  9
$CHAMFERD
 40
0.0
  9
$SKPOLY
 70
     0
  9
$TDCREATE
 40
2458622.672916667
  9
$TDUCREATE
 40
2458622.589583333
  9
$TDUPDATE
 40
2458622.676388889
  9
$TDUUPDATE
 40
2458622.593055556
  9
$TDINDWG
 40
0.0000000116
  9
$TDUSRTIMER
 40
0.0000000116
  9
$USRTIMER
 70
     1
  9
$ANGBASE
 50
0.0
  9
$ANGDIR
 70
     0
  9
$PDMODE
 70
     0
  9
$PDSIZE
 40
0.0
  9
$PLINEWID
 40
0.0
  9
$SPLFRAME
 70
     0
  9
$SPLINETYPE
 70
     6
  9
$SPLINESEGS
 70
     8
  9
$HANDSEED
  5
43D
  9
$SURFTAB1
 70
     6
  9
$SURFTAB2
 70
     6
  9
$SURFTYPE
 70
     6
  9
$SURFU
 70
     6
  9
$SURFV
 70
     6
  9
$UCSBASE
  2

  9
$UCSNAME
  2

  9
$UCSORG
 10
0.0
 20
0.0
 30
0.0
  9
$UCSXDIR
 10
1.0
 20
0.0
 30
0.0
  9
$UCSYDIR
 10
0.0
 20
1.0
 30
0.0
  9
$UCSORTHOREF
  2

  9
$UCSORTHOVIEW
 70
     0
  9
$UCSORGTOP
 10
0.0
 20
0.0
 30
0.0
  9
$UCSORGBOTTOM
 10
0.0
 20
0.0
 30
0.0
  9
$UCSORGLEFT
 10
0.0
 20
0.0
 30
0.0
  9
$UCSORGRIGHT
 10
0.0
 20
0.0
 30
0.0
  9
$UCSORGFRONT
 10
0.0
 20
0.0
 30
0.0
  9
$UCSORGBACK
 10
0.0
 20
0.0
 30
0.0
  9
$PUCSBASE
  2

  9
$PUCSNAME
  2

  9
$PUCSORG
 10
0.0
 20
0.0
 30
0.0
  9
$PUCSXDIR
 10
1.0
 20
0.0
 30
0.0
  9
$PUCSYDIR
 10
0.0
 20
1.0
 30
0.0
  9
$PUCSORTHOREF
  2

  9
$PUCSORTHOVIEW
 70
     0
  9
$PUCSORGTOP
 10
0.0
 20
0.0
 30
0.0
  9
$PUCSORGBOTTOM
 10
0.0
 20
0.0
 30
0.0
  9
$PUCSORGLEFT
 10
0.0
 20
0.0
 30
0.0
  9
$PUCSORGRIGHT
 10
0.0
 20
0.0
 30
0.0
  9
$PUCSORGFRONT
 10
0.0
 20
0.0
 30
0.0
  9
$PUCSORGBACK
 10
0.0
 20
0.0
 30
0.0
  9
$USERI1
 70
     0
  9
$USERI2
 70
     0
  9
$USERI3
 70
     0
  9
$USERI4
 70
     0
  9
$USERI5
 70
     0
  9
$USERR1
 40
0.0
  9
$USERR2
 40
0.0
  9
$USERR3
 40
0.0
  9
$USERR4
 40
0.0
  9
$USERR5
 40
0.0
  9
$WORLDVIEW
 70
     1
  9
$SHADEDGE
 70
     3
  9
$SHADEDIF
 70
    70
  9
$TILEMODE
 70
     1
  9
$MAXACTVP
 70
    64
  9
$PINSBASE
 10
0.0
 20
0.0
 30
0.0
  9
$PLIMCHECK
 70
     0
  9
$PEXTMIN
 10
1.000000000000000E+20
 20
1.000000000000000E+20
 30
1.000000000000000E+20
  9
$PEXTMAX
 10
-1.000000000000000E+20
 20
-1.000000000000000E+20
 30
-1.000000000000000E+20
  9
$PLIMMIN
 10
0.0
 20
0.0
  9
$PLIMMAX
 10
420.0
 20
297.0
  9
$UNITMODE
 70
     0
  9
$VISRETAIN
 70
     1
  9
$PLINEGEN
 70
     0
  9
$PSLTSCALE
 70
     1
  9
$TREEDEPTH
 70
  3020
  9
$CMLSTYLE
  2
Standard
  9
$CMLJUST
 70
     0
  9
$CMLSCALE
 40
20.0
  9
$PROXYGRAPHICS
 70
     1
  9
$MEASUREMENT
 70
     1
  9
$CELWEIGHT
370
    -1
  9
$ENDCAPS
280
     0
  9
$JOINSTYLE
280
     0
  9
$LWDISPLAY
290
     0
  9
$INSUNITS
 70
     4
  9
$HYPERLINKBASE
  1

  9
$STYLESHEET
  1

  9
$XEDIT
290
     1
  9
$CEPSNTYPE
380
     0
  9
$PSTYLEMODE
290
     1
  9
$FINGERPRINTGUID
  2
{50A076E7-7616-4B5F-A0DA-9CCAB70C7461}
  9
$VERSIONGUID
  2
{FAEB1C32-E019-11D5-929B-00C0DF256EC4}
  9
$EXTNAMES
290
     1
  9
$PSVPSCALE
 40
0.0
  9
$OLESTARTUP
290
     0
  0
ENDSEC
  0
SECTION
  2
CLASSES
  0
CLASS
  1
ACDBDICTIONARYWDFLT
  2
AcDbDictionaryWithDefault
  3
ObjectDBX Classes
 90
        0
280
     0
281
     0
  0
CLASS
  1
VISUALSTYLE
  2
AcDbVisualStyle
  3
ObjectDBX Classes
 90
     4095
280
     0
281
     0
  0
CLASS
  1
MATERIAL
  2
AcDbMaterial
  3
ObjectDBX Classes
 90
     1153
280
     0
281
     0
  0
CLASS
  1
SCALE
  2
AcDbScale
  3
ObjectDBX Classes
 90
     1153
280
     0
281
     0
  0
CLASS
  1
DICTIONARYVAR
  2
AcDbDictionaryVar
  3
ObjectDBX Classes
 90
        0
280
     0
281
     0
  0
CLASS
  1
ACDBPLACEHOLDER
  2
AcDbPlaceHolder
  3
ObjectDBX Classes
 90
        0
280
     0
281
     0
  0
CLASS
  1
LAYOUT
  2
AcDbLayout
  3
ObjectDBX Classes
 90
        0
280
     0
281
     0
  0
ENDSEC
  0
SECTION
  2
TABLES
  0
TABLE
  2
VPORT
  5
8
330
0
100
AcDbSymbolTable
 70
     1
  0
VPORT
  5
29
330
8
100
AcDbSymbolTableRecord
100
AcDbViewportTableRecord
  2
*Active
 70
     0
 10
0.0
 20
0.0
 11
1.0
 21
1.0
 12
11.26
 22
4.5
 13
0.0
 23
0.0
 14
10.0
 24
10.0
 15
10.0
 25
10.0
 16
0.0
 26
0.0
 36
1.0
 17
0.0
 27
0.0
 37
0.0
 40
9.0
 41
2.503333333333333
 42
50.0
 43
0.0
 44
0.0
 50
0.0
 51
0.0
 71
     0
 72
   100
 73
     1
 74
     3
 75
     0
 76
     0
 77
     0
 78
     0
281
     0
 65
     1
110
0.0
120
0.0
130
0.0
111
1.0
121
0.0
131
0.0
112
0.0
122
1.0
132
0.0
 79
     0
146
0.0
  0
ENDTAB
  0
TABLE
  2
LTYPE
  5
5
330
0
100
AcDbSymbolTable
 70
     8
  0
LTYPE
  5
14
330
5
100
AcDbSymbolTableRecord
100
AcDbLinetypeTableRecord
  2
ByBlock
 70
     0
  3

 72
    65
 73
     0
 40
0.0
  0
LTYPE
  5
15
330
5
100
AcDbSymbolTableRecord
100
AcDbLinetypeTableRecord
  2
ByLayer
 70
     0
  3

 72
    65
 73
     0
 40
0.0
  0
LTYPE
  5
16
330
5
100
AcDbSymbolTableRecord
100
AcDbLinetypeTableRecord
  2
Continuous
 70
     0
  3
Solid line
 72
    65
 73
     0
 40
0.0
  0
LTYPE
  5
45
330
5
100
AcDbSymbolTableRecord
100
AcDbLinetypeTableRecord
  2
phl_thick
 70
     0
  3
THICK
 72
    65
 73
     0
 40
0.0
  0
LTYPE
  5
4F
330
5
100
AcDbSymbolTableRecord
100
AcDbLinetypeTableRecord
  2
CUT
 70
     0
  3
THICK
 72
    65
 73
     0
 40
0.0
  0
LTYPE
  5
59
330
5
100
AcDbSymbolTableRecord
100
AcDbLinetypeTableRecord
  2
SKVIEW1
 70
     0
  3
THICK
 72
    65
 73
     0
 40
0.0
  0
LTYPE
  5
5F
330
5
100
AcDbSymbolTableRecord
100
AcDbLinetypeTableRecord
  2
ls_SKVIEW2
 70
     0
  3
THIN
 72
    65
 73
     0
 40
0.0
  0
LTYPE
  5
107
330
5
100
AcDbSymbolTableRecord
100
AcDbLinetypeTableRecord
  2
LONGDASH_DASH
 70
     0
  3
THIN_DASHDOT
 72
    65
 73
     4
 40
0.85
 49
0.4
 74
     0
 49
-0.2
 74
     0
 49
0.05
 74
     0
 49
-0.2
 74
     0
  0
LTYPE
  5
10A
330
5
100
AcDbSymbolTableRecord
100
AcDbLinetypeTableRecord
  2
ls_SK2
 70
     0
  3
THIN
 72
    65
 73
     0
 40
0.0
  0
LTYPE
  5
22D
330
5
100
AcDbSymbolTableRecord
100
AcDbLinetypeTableRecord
  2
ls1
 70
     0
  3
THICK
 72
    65
 73
     0
 40
0.0
  0
ENDTAB
  0
TABLE
  2
LAYER
  5
2
330
0
100
AcDbSymbolTable
 70
     8
  0
LAYER
  5
10
330
2
100
AcDbSymbolTableRecord
100
AcDbLayerTableRecord
  2
0
 70
     0
 62
     7
  6
Continuous
370
    -3
390
F
  0
LAYER
  5
44
330
2
100
AcDbSymbolTableRecord
100
AcDbLayerTableRecord
  2
1
 70
     0
 62
4
  6
CONTINUOUS
370
50
370
    -3
390
F
  0
LAYER
  5
4E
330
2
100
AcDbSymbolTableRecord
100
AcDbLayerTableRecord
  2
CUT
 70
     0
 62
1
  6
CONTINUOUS
370
25
370
    -3
390
F
  0
LAYER
  5
58
330
2
100
AcDbSymbolTableRecord
100
AcDbLayerTableRecord
  2
SKVIEW1
 70
     0
 62
4
  6
CONTINUOUS
370
50
370
    -3
390
F
  0
LAYER
  5
5E
330
2
100
AcDbSymbolTableRecord
100
AcDbLayerTableRecord
  2
SKVIEW2
 70
     0
 62
7
  6
CONTINUOUS
370
25
370
    -3
390
F
  0
LAYER
  5
106
330
2
100
AcDbSymbolTableRecord
100
AcDbLayerTableRecord
  2
SK4
 70
     0
 62
2
  6
LONGDASH_DASH
370
25
370
    -3
390
F
  0
LAYER
  5
109
330
2
100
AcDbSymbolTableRecord
100
AcDbLayerTableRecord
  2
SK2
 70
     0
 62
7
  6
CONTINUOUS
370
25
370
    -3
390
F
  0
LAYER
  5
22C
330
2
100
AcDbSymbolTableRecord
100
AcDbLayerTableRecord
  2
SK6
 70
     0
 62
5
  6
CONTINUOUS
370
25
370
    -3
390
F
  0
ENDTAB
  0
TABLE
  2
STYLE
  5
3
330
0
100
AcDbSymbolTable
 70
     1
  0
STYLE
  5
11
330
3
100
AcDbSymbolTableRecord
100
AcDbTextStyleTableRecord
  2
Standard
 70
     0
 40
0.0
 41
1.0
 50
0.0
 71
     0
 42
2.5
  3
Monospac821 BT
  4

  0
ENDTAB
  0
TABLE
  2
VIEW
  5
6
330
0
100
AcDbSymbolTable
 70
     0
  0
ENDTAB
  0
TABLE
  2
UCS
  5
7
330
0
100
AcDbSymbolTable
 70
     0
  0
ENDTAB
  0
TABLE
  2
APPID
  5
9
330
0
100
AcDbSymbolTable
 70
     2
  0
APPID
  5
12
330
9
100
AcDbSymbolTableRecord
100
AcDbRegAppTableRecord
  2
ACAD
 70
     0
  0
APPID
  5
3F
330
9
100
AcDbSymbolTableRecord
100
AcDbRegAppTableRecord
  2
ccLab
 70
     0
  0
ENDTAB
  0
TABLE
  2
DIMSTYLE
  5
A
330
0
100
AcDbSymbolTable
 70
     1
100
AcDbDimStyleTable
  0
DIMSTYLE
105
27
330
A
100
AcDbSymbolTableRecord
100
AcDbDimStyleTableRecord
  2
ISO-25
 70
     0
 41
2.5
 42
0.625
 43
3.75
 44
1.25
 73
     0
 74
     0
 77
     1
 78
     8
140
2.5
141
2.5
143
0.03937007874016
147
0.625
171
     3
172
     1
271
     2
272
     2
274
     3
278
    44
283
     0
284
     8
340
11
  0
ENDTAB
  0
TABLE
  2
BLOCK_RECORD
  5
1
330
0
100
AcDbSymbolTable
 70
     2
  0
BLOCK_RECORD
  5
1F
330
1
100
AcDbSymbolTableRecord
100
AcDbBlockTableRecord
  2
*Model_Space
340
22
  0
BLOCK_RECORD
  5
1B
330
1
100
AcDbSymbolTableRecord
100
AcDbBlockTableRecord
  2
*Paper_Space
340
1E
  0
BLOCK_RECORD
  5
23
330
1
100
AcDbSymbolTableRecord
100
AcDbBlockTableRecord
  2
*Paper_Space0
340
26
  0
ENDTAB
  0
ENDSEC
  0
SECTION
  2
BLOCKS
  0
BLOCK
  5
20
330
1F
100
AcDbEntity
  8
0
100
AcDbBlockBegin
  2
*Model_Space
 70
     0
 10
0.0
 20
0.0
 30
0.0
  3
*Model_Space
  1

  0
ENDBLK
  5
21
330
1F
100
AcDbEntity
  8
0
100
AcDbBlockEnd
  0
BLOCK
  5
1C
330
1B
100
AcDbEntity
 67
     1
  8
0
100
AcDbBlockBegin
  2
*Paper_Space
 70
     0
 10
0.0
 20
0.0
 30
0.0
  3
*Paper_Space
  1

  0
ENDBLK
  5
1D
330
1B
100
AcDbEntity
 67
     1
  8
0
100
AcDbBlockEnd
  0
BLOCK
  5
24
330
23
100
AcDbEntity
  8
0
100
AcDbBlockBegin
  2
*Paper_Space0
 70
     0
 10
0.0
 20
0.0
 30
0.0
  3
*Paper_Space0
  1

  0
ENDBLK
  5
25
330
23
100
AcDbEntity
  8
0
100
AcDbBlockEnd
  0
ENDSEC
  0
SECTION
  2
ENTITIES
  0
LINE
  5
241
330
1F
100
AcDbEntity
  8
1
  6
CONTINUOUS
370
50
 62
4
100
AcDbLine
 10
0.444245
 20
0.0
 30
0.0
 11
6.628120999999999
 21
0.0
 31
0.0
  0
LINE
  5
242
330
1F
100
AcDbEntity
  8
1
  6
CONTINUOUS
370
50
 62
4
100
AcDbLine
 10
1.090636
 20
6.949999999999999
 30
0.0
 11
7.274512
 21
6.949999999999999
 31
0.0
  0
LINE
  5
243
330
1F
100
AcDbEntity
  8
1
  6
CONTINUOUS
370
50
 62
4
100
AcDbLine
 10
7.025929
 20
0.358189
 30
0.0
 11
7.672320999999999
 21
6.508189
 31
0.0
  0
LINE
  5
244
330
1F
100
AcDbEntity
  8
1
  6
CONTINUOUS
370
50
 62
4
100
AcDbLine
 10
0.046436
 20
0.441811
 30
0.0
 11
0.692827
 21
6.591811
 31
0.0
  0
ARC
  5
245
330
1F
100
AcDbEntity
  8
1
  6
CONTINUOUS
370
50
 62
4
100
AcDbCircle
 10
0.444245
 20
0.4
 30
0.0
 40
0.4000002002524499
100
AcDbArc
 50
174.0000000159084
 51
269.9999999840917
  0
ARC
  5
246
330
1F
100
AcDbEntity
  8
1
  6
CONTINUOUS
370
50
 62
4
100
AcDbCircle
 10
1.090636
 20
6.55
 30
0.0
 40
0.4000000000000004
100
AcDbArc
 50
90.00000001289744
 51
173.9999999871025
  0
ARC
  5
247
330
1F
100
AcDbEntity
  8
1
  6
CONTINUOUS
370
50
 62
4
100
AcDbCircle
 10
6.628120999999999
 20
0.4
 30
0.0
 40
0.4
100
AcDbArc
 50
270.0000000128973
 51
353.9999999871027
  0
ARC
  5
248
330
1F
100
AcDbEntity
  8
1
  6
CONTINUOUS
370
50
 62
4
100
AcDbCircle
 10
7.274512
 20
6.55
 30
0.0
 40
0.4000002002524494
100
AcDbArc
 50
354.0000000159087
 51
89.99999998409126
  0
LINE
  5
249
330
1F
100
AcDbEntity
  8
CUT
  6
CONTINUOUS
370
25
 62
1
100
AcDbLine
 10
0.4442450059316772
 20
0.0
 30
0.0
 11
6.628120922280864
 21
0.0
 31
0.0
  0
ARC
  5
24A
330
1F
100
AcDbEntity
  8
CUT
  6
CONTINUOUS
370
25
 62
1
100
AcDbCircle
 10
6.628120922190824
 20
0.4000000001
 30
0.0
 40
0.4
100
AcDbArc
 50
270.0000000128973
 51
353.9999999871027
  0
LINE
  5
24B
330
1F
100
AcDbEntity
  8
CUT
  6
CONTINUOUS
370
25
 62
1
100
AcDbLine
 10
7.025929680428174
 20
0.3581886146929386
 30
0.0
 11
7.672320727312083
 21
6.508188614692939
 31
0.0
  0
ARC
  5
24C
330
1F
100
AcDbEntity
  8
CUT
  6
CONTINUOUS
370
25
 62
1
100
AcDbCircle
 10
7.274511969053712
 20
6.549999999900001
 30
0.0
 40
0.3999999999999999
100
AcDbArc
 50
354.0000000159083
 51
89.9999999840915
  0
LINE
  5
24D
330
1F
100
AcDbEntity
  8
CUT
  6
CONTINUOUS
370
25
 62
1
100
AcDbLine
 10
7.274511969164775
 20
6.95
 30
0.0
 11
1.090636052815587
 21
6.95
 31
0.0
  0
ARC
  5
24E
330
1F
100
AcDbEntity
  8
CUT
  6
CONTINUOUS
370
25
 62
1
100
AcDbCircle
 10
1.090636052905628
 20
6.5499999999
 30
0.0
 40
0.4000000000000004
100
AcDbArc
 50
90.00000001289735
 51
173.9999999871027
  0
LINE
  5
24F
330
1F
100
AcDbEntity
  8
CUT
  6
CONTINUOUS
370
25
 62
1
100
AcDbLine
 10
0.6928272946682781
 20
6.591811385307062
 30
0.0
 11
0.0464362477843678
 21
0.4418113853070614
 31
0.0
  0
ARC
  5
250
330
1F
100
AcDbEntity
  8
CUT
  6
CONTINUOUS
370
25
 62
1
100
AcDbCircle
 10
0.4442450060427384
 20
0.4000000001
 30
0.0
 40
0.4
100
AcDbArc
 50
174.0000000159083
 51
269.9999999840917
  0
LINE
  5
251
330
1F
100
AcDbEntity
  8
SKVIEW1
  6
CONTINUOUS
370
50
 62
4
100
AcDbLine
 10
-80.93
 20
0.0
 30
0.0
 11
-80.93
 21
6.95
 31
0.0
  0
LINE
  5
252
330
1F
100
AcDbEntity
  8
SKVIEW1
  6
CONTINUOUS
370
50
 62
4
100
AcDbLine
 10
-80.93
 20
6.95
 30
0.0
 11
-78.0
 21
6.380465694226485
 31
0.0
  0
LINE
  5
253
330
1F
100
AcDbEntity
  8
SKVIEW1
  6
CONTINUOUS
370
50
 62
4
100
AcDbLine
 10
-78.0
 20
6.380465694226485
 30
0.0
 11
-78.0
 21
0.5695343057735158
 31
0.0
  0
LINE
  5
254
330
1F
100
AcDbEntity
  8
SKVIEW1
  6
CONTINUOUS
370
50
 62
4
100
AcDbLine
 10
-78.0
 20
0.5695343057735158
 30
0.0
 11
-80.93
 21
0.0
 31
0.0
  0
LINE
  5
255
330
1F
100
AcDbEntity
  8
SKVIEW2
  6
CONTINUOUS
370
25
 62
7
100
AcDbLine
 10
-62.83861113959205
 20
3.516610778133465
 30
0.0
 11
-61.85698401642082
 21
3.707419761793459
 31
0.0
  0
LINE
  5
256
330
1F
100
AcDbEntity
  8
SKVIEW2
  6
CONTINUOUS
370
25
 62
7
100
AcDbLine
 10
-78.00000018709724
 20
0.5695352881221881
 30
0.0
 11
-62.83861153990349
 21
3.516610700320804
 31
0.0
  0
LINE
  5
257
330
1F
100
AcDbEntity
  8
SKVIEW2
  6
CONTINUOUS
370
25
 62
7
100
AcDbLine
 10
-80.93
 20
0.0
 30
0.0
 11
-61.50000000000001
 21
0.0
 31
0.0
  0
ARC
  5
258
330
1F
100
AcDbEntity
  8
SKVIEW2
  6
CONTINUOUS
370
25
 62
7
100
AcDbCircle
 10
-80.93000000000002
 20
-0.0000000000000068
 30
0.0
 40
18.43000000000001
100
AcDbArc
 50
338.1051976493456
 51
51.47364299417698
  0
LINE
  5
259
330
1F
100
AcDbEntity
  8
SKVIEW2
  6
CONTINUOUS
370
25
 62
7
100
AcDbLine
 10
-62.83861100905956
 20
3.51660978478971
 30
0.0
 11
-65.39628967465224
 21
7.927763811070367
 31
0.0
  0
LINE
  5
25A
330
1F
100
AcDbEntity
  8
SKVIEW2
  6
CONTINUOUS
370
25
 62
7
100
AcDbLine
 10
-65.39628967465224
 20
7.927763811070367
 30
0.0
 11
-63.5029474594987
 21
8.572166834276732
 31
0.0
  0
LINE
  5
25B
330
1F
100
AcDbEntity
  8
SKVIEW2
  6
CONTINUOUS
370
25
 62
7
100
AcDbLine
 10
-63.5029474594987
 20
8.572166834276732
 30
0.0
 11
-62.83861100905956
 21
3.51660978478971
 31
0.0
  0
LINE
  5
25C
330
1F
100
AcDbEntity
  8
SKVIEW2
  6
CONTINUOUS
370
25
 62
7
100
AcDbLine
 10
-62.96585421946409
 20
3.736062449991001
 30
0.0
 11
-62.87887796637001
 21
3.82303870308508
 31
0.0
  0
LINE
  5
25D
330
1F
100
AcDbEntity
  8
SKVIEW2
  6
CONTINUOUS
370
25
 62
7
100
AcDbLine
 10
-63.12156625978721
 20
4.004614478379811
 30
0.0
 11
-62.92815407360183
 21
4.198026664565191
 31
0.0
  0
LINE
  5
25E
330
1F
100
AcDbEntity
  8
SKVIEW2
  6
CONTINUOUS
370
25
 62
7
100
AcDbLine
 10
-63.27727830011032
 20
4.273166506768625
 30
0.0
 11
-62.97743018083365
 21
4.573014626045296
 31
0.0
  0
LINE
  5
25F
330
1F
100
AcDbEntity
  8
SKVIEW2
  6
CONTINUOUS
370
25
 62
7
100
AcDbLine
 10
-63.43299034043345
 20
4.541718535157429
 30
0.0
 11
-63.02670628806547
 21
4.948002587525405
 31
0.0
  0
LINE
  5
260
330
1F
100
AcDbEntity
  8
SKVIEW2
  6
CONTINUOUS
370
25
 62
7
100
AcDbLine
 10
-63.58870238075656
 20
4.810270563546243
 30
0.0
 11
-63.07598239529729
 21
5.322990549005514
 31
0.0
  0
LINE
  5
261
330
1F
100
AcDbEntity
  8
SKVIEW2
  6
CONTINUOUS
370
25
 62
7
100
AcDbLine
 10
-63.74441442107968
 20
5.078822591935051
 30
0.0
 11
-63.12525850252911
 21
5.697978510485623
 31
0.0
  0
LINE
  5
262
330
1F
100
AcDbEntity
  8
SKVIEW2
  6
CONTINUOUS
370
25
 62
7
100
AcDbLine
 10
-63.90012646140279
 20
5.347374620323864
 30
0.0
 11
-63.17453460976093
 21
6.07296647196573
 31
0.0
  0
LINE
  5
263
330
1F
100
AcDbEntity
  8
SKVIEW2
  6
CONTINUOUS
370
25
 62
7
100
AcDbLine
 10
-64.05583850172592
 20
5.615926648712675
 30
0.0
 11
-63.22381071699274
 21
6.447954433445839
 31
0.0
  0
LINE
  5
264
330
1F
100
AcDbEntity
  8
SKVIEW2
  6
CONTINUOUS
370
25
 62
7
100
AcDbLine
 10
-64.21155054204903
 20
5.884478677101482
 30
0.0
 11
-63.27308682422456
 21
6.822942394925947
 31
0.0
  0
LINE
  5
265
330
1F
100
AcDbEntity
  8
SKVIEW2
  6
CONTINUOUS
370
25
 62
7
100
AcDbLine
 10
-64.36726258237215
 20
6.153030705490293
 30
0.0
 11
-63.32236293145638
 21
7.197930356406056
 31
0.0
  0
LINE
  5
266
330
1F
100
AcDbEntity
  8
SKVIEW2
  6
CONTINUOUS
370
25
 62
7
100
AcDbLine
 10
-64.52297462269527
 20
6.421582733879101
 30
0.0
 11
-63.37163903868821
 21
7.572918317886161
 31
0.0
  0
LINE
  5
267
330
1F
100
AcDbEntity
  8
SKVIEW2
  6
CONTINUOUS
370
25
 62
7
100
AcDbLine
 10
-64.67868666301838
 20
6.690134762267911
 30
0.0
 11
-63.42091514592003
 21
7.94790627936627
 31
0.0
  0
LINE
  5
268
330
1F
100
AcDbEntity
  8
SKVIEW2
  6
CONTINUOUS
370
25
 62
7
100
AcDbLine
 10
-64.8343987033415
 20
6.958686790656722
 30
0.0
 11
-63.47019125315185
 21
8.322894240846379
 31
0.0
  0
LINE
  5
269
330
1F
100
AcDbEntity
  8
SKVIEW2
  6
CONTINUOUS
370
25
 62
7
100
AcDbLine
 10
-64.99011074366462
 20
7.22723881904553
 30
0.0
 11
-63.71857047853292
 21
8.498779084177228
 31
0.0
  0
LINE
  5
26A
330
1F
100
AcDbEntity
  8
SKVIEW2
  6
CONTINUOUS
370
25
 62
7
100
AcDbLine
 10
-65.14582278398774
 20
7.495790847434339
 30
0.0
 11
-64.36173795765795
 21
8.279875673764135
 31
0.0
  0
LINE
  5
26B
330
1F
100
AcDbEntity
  8
SKVIEW2
  6
CONTINUOUS
370
25
 62
7
100
AcDbLine
 10
-65.30153482431086
 20
7.764342875823147
 30
0.0
 11
-65.00490543678296
 21
8.060972263351053
 31
0.0
  0
LINE
  5
26C
330
1F
100
AcDbEntity
  8
SKVIEW2
  6
CONTINUOUS
370
25
 62
7
100
AcDbLine
 10
-62.87927598901302
 20
3.586743493321379
 30
0.0
 11
-62.8430692570799
 21
3.550536761388251
 31
0.0
  0
LINE
  5
26D
330
1F
100
AcDbEntity
  8
SKVIEW2
  6
CONTINUOUS
370
25
 62
7
100
AcDbLine
 10
-63.46473354627953
 20
4.596465119299811
 30
0.0
 11
-62.9072550749179
 21
4.038986647938181
 31
0.0
  0
LINE
  5
26E
330
1F
100
AcDbEntity
  8
SKVIEW2
  6
CONTINUOUS
370
25
 62
7
100
AcDbLine
 10
-64.05019110354604
 20
5.60618674527824
 30
0.0
 11
-62.97144089275589
 21
4.5274365344881
 31
0.0
  0
LINE
  5
26F
330
1F
100
AcDbEntity
  8
SKVIEW2
  6
CONTINUOUS
370
25
 62
7
100
AcDbLine
 10
-64.63564866081254
 20
6.615908371256666
 30
0.0
 11
-63.03562671059389
 21
5.015886421038022
 31
0.0
  0
LINE
  5
270
330
1F
100
AcDbEntity
  8
SKVIEW2
  6
CONTINUOUS
370
25
 62
7
100
AcDbLine
 10
-65.22110621807904
 20
7.625629997235102
 30
0.0
 11
-63.09981252843189
 21
5.504336307587948
 31
0.0
  0
LINE
  5
271
330
1F
100
AcDbEntity
  8
SKVIEW2
  6
CONTINUOUS
370
25
 62
7
100
AcDbLine
 10
-65.17447205776813
 20
8.003259905636114
 30
0.0
 11
-63.16399834626989
 21
5.992786194137878
 31
0.0
  0
LINE
  5
272
330
1F
100
AcDbEntity
  8
SKVIEW2
  6
CONTINUOUS
370
25
 62
7
100
AcDbLine
 10
-64.85794025641826
 20
8.11099217299818
 30
0.0
 11
-63.22818416410789
 21
6.481236080687804
 31
0.0
  0
LINE
  5
273
330
1F
100
AcDbEntity
  8
SKVIEW2
  6
CONTINUOUS
370
25
 62
7
100
AcDbLine
 10
-64.5414084550684
 20
8.218724440360244
 30
0.0
 11
-63.29236998194589
 21
6.969685967237734
 31
0.0
  0
LINE
  5
274
330
1F
100
AcDbEntity
  8
SKVIEW2
  6
CONTINUOUS
370
25
 62
7
100
AcDbLine
 10
-64.22487665371854
 20
8.326456707722311
 30
0.0
 11
-63.35655579978388
 21
7.458135853787656
 31
0.0
  0
LINE
  5
275
330
1F
100
AcDbEntity
  8
SKVIEW2
  6
CONTINUOUS
370
25
 62
7
100
AcDbLine
 10
-63.90834485236869
 20
8.434188975084378
 30
0.0
 11
-63.42074161762189
 21
7.946585740337579
 31
0.0
  0
LINE
  5
276
330
1F
100
AcDbEntity
  8
SKVIEW2
  6
CONTINUOUS
370
25
 62
7
100
AcDbLine
 10
-63.59181305101882
 20
8.541921242446445
 30
0.0
 11
-63.48492743545988
 21
8.435035626887501
 31
0.0
  0
LINE
  5
277
330
1F
100
AcDbEntity
  8
SKVIEW2
  6
CONTINUOUS
370
25
 62
7
100
AcDbLine
 10
-62.50000000000001
 20
0.0
 30
0.0
 11
-62.18748495702478
 21
-5.08943359794724
 31
0.0
  0
LINE
  5
278
330
1F
100
AcDbEntity
  8
SKVIEW2
  6
CONTINUOUS
370
25
 62
7
100
AcDbLine
 10
-62.18748495702478
 20
-5.08943359794724
 30
0.0
 11
-64.16899903646411
 21
-4.818136799249464
 31
0.0
  0
LINE
  5
279
330
1F
100
AcDbEntity
  8
SKVIEW2
  6
CONTINUOUS
370
25
 62
7
100
AcDbLine
 10
-64.16899903646411
 20
-4.818136799249464
 30
0.0
 11
-62.50000000000001
 21
0.0
 31
0.0
  0
LINE
  5
27A
330
1F
100
AcDbEntity
  8
SKVIEW2
  6
CONTINUOUS
370
25
 62
7
100
AcDbLine
 10
-62.36219668440582
 20
-5.065513135899931
 30
0.0
 11
-62.19897628197837
 21
-4.902292733472482
 31
0.0
  0
LINE
  5
27B
330
1F
100
AcDbEntity
  8
SKVIEW2
  6
CONTINUOUS
370
25
 62
7
100
AcDbLine
 10
-62.73536836681889
 20
-5.014420749601079
 30
0.0
 11
-62.22352092549126
 21
-4.50257330827344
 31
0.0
  0
LINE
  5
27C
330
1F
100
AcDbEntity
  8
SKVIEW2
  6
CONTINUOUS
370
25
 62
7
100
AcDbLine
 10
-63.10854004923197
 20
-4.963328363302228
 30
0.0
 11
-62.24806556900414
 21
-4.102853883074395
 31
0.0
  0
LINE
  5
27D
330
1F
100
AcDbEntity
  8
SKVIEW2
  6
CONTINUOUS
370
25
 62
7
100
AcDbLine
 10
-63.48171173164505
 20
-4.912235977003373
 30
0.0
 11
-62.27261021251702
 21
-3.70313445787535
 31
0.0
  0
LINE
  5
27E
330
1F
100
AcDbEntity
  8
SKVIEW2
  6
CONTINUOUS
370
25
 62
7
100
AcDbLine
 10
-63.85488341405812
 20
-4.861143590704522
 30
0.0
 11
-62.29715485602991
 21
-3.303415032676309
 31
0.0
  0
LINE
  5
27F
330
1F
100
AcDbEntity
  8
SKVIEW2
  6
CONTINUOUS
370
25
 62
7
100
AcDbLine
 10
-64.13341489702856
 20
-4.715411004963038
 30
0.0
 11
-62.32169949954279
 21
-2.903695607477264
 31
0.0
  0
LINE
  5
280
330
1F
100
AcDbEntity
  8
SKVIEW2
  6
CONTINUOUS
370
25
 62
7
100
AcDbLine
 10
-63.90856086547288
 20
-4.066292904695423
 30
0.0
 11
-62.34624414305568
 21
-2.503976182278222
 31
0.0
  0
LINE
  5
281
330
1F
100
AcDbEntity
  8
SKVIEW2
  6
CONTINUOUS
370
25
 62
7
100
AcDbLine
 10
-63.68370683391719
 20
-3.417174804427805
 30
0.0
 11
-62.37078878656856
 21
-2.104256757079177
 31
0.0
  0
LINE
  5
282
330
1F
100
AcDbEntity
  8
SKVIEW2
  6
CONTINUOUS
370
25
 62
7
100
AcDbLine
 10
-63.4588528023615
 20
-2.768056704160188
 30
0.0
 11
-62.39533343008145
 21
-1.704537331880136
 31
0.0
  0
LINE
  5
283
330
1F
100
AcDbEntity
  8
SKVIEW2
  6
CONTINUOUS
370
25
 62
7
100
AcDbLine
 10
-63.23399877080581
 20
-2.118938603892573
 30
0.0
 11
-62.41987807359433
 21
-1.304817906681091
 31
0.0
  0
LINE
  5
284
330
1F
100
AcDbEntity
  8
SKVIEW2
  6
CONTINUOUS
370
25
 62
7
100
AcDbLine
 10
-63.00914473925012
 20
-1.469820503624952
 30
0.0
 11
-62.44442271710722
 21
-0.9050984814820495
 31
0.0
  0
LINE
  5
285
330
1F
100
AcDbEntity
  8
SKVIEW2
  6
CONTINUOUS
370
25
 62
7
100
AcDbLine
 10
-62.78429070769443
 20
-0.8207024033573376
 30
0.0
 11
-62.4689673606201
 21
-0.5053790562830045
 31
0.0
  0
LINE
  5
286
330
1F
100
AcDbEntity
  8
SKVIEW2
  6
CONTINUOUS
370
25
 62
7
100
AcDbLine
 10
-62.55943667613874
 20
-0.1715843030897162
 30
0.0
 11
-62.49351200413298
 21
-0.105659631083963
 31
0.0
  0
LINE
  5
287
330
1F
100
AcDbEntity
  8
SKVIEW2
  6
CONTINUOUS
370
25
 62
7
100
AcDbLine
 10
-64.07617462718025
 20
-4.550167380173784
 30
0.0
 11
-63.75097142165762
 21
-4.875370585696418
 31
0.0
  0
LINE
  5
288
330
1F
100
AcDbEntity
  8
SKVIEW2
  6
CONTINUOUS
370
25
 62
7
100
AcDbLine
 10
-63.96702070473759
 20
-4.235057233904525
 30
0.0
 11
-63.25940509554239
 21
-4.94267284309972
 31
0.0
  0
LINE
  5
289
330
1F
100
AcDbEntity
  8
SKVIEW2
  6
CONTINUOUS
370
25
 62
7
100
AcDbLine
 10
-63.85786678229492
 20
-3.919947087635268
 30
0.0
 11
-62.76783876942716
 21
-5.00997510050302
 31
0.0
  0
LINE
  5
28A
330
1F
100
AcDbEntity
  8
SKVIEW2
  6
CONTINUOUS
370
25
 62
7
100
AcDbLine
 10
-63.74871285985225
 20
-3.60483694136601
 30
0.0
 11
-62.27627244331194
 21
-5.077277357906315
 31
0.0
  0
LINE
  5
28B
330
1F
100
AcDbEntity
  8
SKVIEW2
  6
CONTINUOUS
370
25
 62
7
100
AcDbLine
 10
-63.63955893740957
 20
-3.289726795096755
 30
0.0
 11
-62.2102277534954
 21
-4.719057979010934
 31
0.0
  0
LINE
  5
28C
330
1F
100
AcDbEntity
  8
SKVIEW2
  6
CONTINUOUS
370
25
 62
7
100
AcDbLine
 10
-63.5304050149669
 20
-2.974616648827496
 30
0.0
 11
-62.23798391097235
 21
-4.267037752822059
 31
0.0
  0
LINE
  5
28D
330
1F
100
AcDbEntity
  8
SKVIEW2
  6
CONTINUOUS
370
25
 62
7
100
AcDbLine
 10
-63.42125109252423
 20
-2.659506502558239
 30
0.0
 11
-62.26574006844929
 21
-3.815017526633182
 31
0.0
  0
LINE
  5
28E
330
1F
100
AcDbEntity
  8
SKVIEW2
  6
CONTINUOUS
370
25
 62
7
100
AcDbLine
 10
-63.31209717008156
 20
-2.34439635628898
 30
0.0
 11
-62.29349622592623
 21
-3.362997300444308
 31
0.0
  0
LINE
  5
28F
330
1F
100
AcDbEntity
  8
SKVIEW2
  6
CONTINUOUS
370
25
 62
7
100
AcDbLine
 10
-63.20294324763889
 20
-2.029286210019725
 30
0.0
 11
-62.32125238340318
 21
-2.910977074255433
 31
0.0
  0
LINE
  5
290
330
1F
100
AcDbEntity
  8
SKVIEW2
  6
CONTINUOUS
370
25
 62
7
100
AcDbLine
 10
-63.09378932519622
 20
-1.714176063750468
 30
0.0
 11
-62.34900854088013
 21
-2.458956848066553
 31
0.0
  0
LINE
  5
291
330
1F
100
AcDbEntity
  8
SKVIEW2
  6
CONTINUOUS
370
25
 62
7
100
AcDbLine
 10
-62.98463540275355
 20
-1.399065917481213
 30
0.0
 11
-62.37676469835708
 21
-2.006936621877678
 31
0.0
  0
LINE
  5
292
330
1F
100
AcDbEntity
  8
SKVIEW2
  6
CONTINUOUS
370
25
 62
7
100
AcDbLine
 10
-62.87548148031088
 20
-1.083955771211954
 30
0.0
 11
-62.40452085583403
 21
-1.554916395688803
 31
0.0
  0
LINE
  5
293
330
1F
100
AcDbEntity
  8
SKVIEW2
  6
CONTINUOUS
370
25
 62
7
100
AcDbLine
 10
-62.76632755786821
 20
-0.7688456249426991
 30
0.0
 11
-62.43227701331098
 21
-1.102896169499928
 31
0.0
  0
LINE
  5
294
330
1F
100
AcDbEntity
  8
SKVIEW2
  6
CONTINUOUS
370
25
 62
7
100
AcDbLine
 10
-62.65717363542554
 20
-0.4537354786734404
 30
0.0
 11
-62.46003317078792
 21
-0.6508759433110534
 31
0.0
  0
LINE
  5
295
330
1F
100
AcDbEntity
  8
SKVIEW2
  6
CONTINUOUS
370
25
 62
7
100
AcDbLine
 10
-62.54801971298286
 20
-0.1386253324041853
 30
0.0
 11
-62.48778932826487
 21
-0.1988557171221785
 31
0.0
  0
TEXT
  5
296
330
1F
100
AcDbEntity
  8
SKVIEW2
  6
CONTINUOUS
370
25
 62
7
100
AcDbText
 10
-67.84273406296077
 20
15.31128063676116
 30
0.0
 40
3.5
  1
11°
 50
311.1520648588866
 72
     1
 11
-65.92339315531576
 21
13.11513061349661
 31
0.0
100
AcDbText
  0
LINE
  5
297
330
1F
100
AcDbEntity
  8
SKVIEW2
  6
CONTINUOUS
370
25
 62
7
100
AcDbLine
 10
-80.93
 20
0.0
 30
0.0
 11
-80.93
 21
-13.0
 31
0.0
  0
LINE
  5
298
330
1F
100
AcDbEntity
  8
SKVIEW2
  6
CONTINUOUS
370
25
 62
7
100
AcDbLine
 10
-78.00000000000001
 20
-13.0
 30
0.0
 11
-78.0
 21
0.5695343099999999
 31
0.0
  0
LINE
  5
299
330
1F
100
AcDbEntity
  8
SKVIEW2
  6
CONTINUOUS
370
25
 62
7
100
AcDbLine
 10
-99.83000000000001
 20
-12.0
 30
0.0
 11
-71.0
 21
-12.0
 31
0.0
  0
LINE
  5
29A
330
1F
100
AcDbEntity
  8
SKVIEW2
  6
CONTINUOUS
370
25
 62
7
100
AcDbLine
 10
-80.93
 20
-12.0
 30
0.0
 11
-85.93
 21
-13.0
 31
0.0
  0
LINE
  5
29B
330
1F
100
AcDbEntity
  8
SKVIEW2
  6
CONTINUOUS
370
25
 62
7
100
AcDbLine
 10
-85.93
 20
-13.0
 30
0.0
 11
-85.93
 21
-11.0
 31
0.0
  0
LINE
  5
29C
330
1F
100
AcDbEntity
  8
SKVIEW2
  6
CONTINUOUS
370
25
 62
7
100
AcDbLine
 10
-85.93
 20
-11.0
 30
0.0
 11
-80.93
 21
-12.0
 31
0.0
  0
LINE
  5
29D
330
1F
100
AcDbEntity
  8
SKVIEW2
  6
CONTINUOUS
370
25
 62
7
100
AcDbLine
 10
-81.33052010206593
 20
-12.08010402041319
 30
0.0
 11
-81.19701340137729
 21
-11.94659731972454
 31
0.0
  0
LINE
  5
29E
330
1F
100
AcDbEntity
  8
SKVIEW2
  6
CONTINUOUS
370
25
 62
7
100
AcDbLine
 10
-81.86085018795585
 20
-12.18617003759117
 30
0.0
 11
-81.55056679197057
 21
-11.87588664160589
 31
0.0
  0
LINE
  5
29F
330
1F
100
AcDbEntity
  8
SKVIEW2
  6
CONTINUOUS
370
25
 62
7
100
AcDbLine
 10
-82.39118027384576
 20
-12.29223605476915
 30
0.0
 11
-81.90412018256384
 21
-11.80517596348723
 31
0.0
  0
LINE
  5
2A0
330
1F
100
AcDbEntity
  8
SKVIEW2
  6
CONTINUOUS
370
25
 62
7
100
AcDbLine
 10
-82.92151035973566
 20
-12.39830207194713
 30
0.0
 11
-82.2576735731571
 21
-11.73446528536858
 31
0.0
  0
LINE
  5
2A1
330
1F
100
AcDbEntity
  8
SKVIEW2
  6
CONTINUOUS
370
25
 62
7
100
AcDbLine
 10
-83.45184044562558
 20
-12.50436808912511
 30
0.0
 11
-82.61122696375038
 21
-11.66375460724992
 31
0.0
  0
LINE
  5
2A2
330
1F
100
AcDbEntity
  8
SKVIEW2
  6
CONTINUOUS
370
25
 62
7
100
AcDbLine
 10
-83.98217053151548
 20
-12.6104341063031
 30
0.0
 11
-82.96478035434366
 21
-11.59304392913127
 31
0.0
  0
LINE
  5
2A3
330
1F
100
AcDbEntity
  8
SKVIEW2
  6
CONTINUOUS
370
25
 62
7
100
AcDbLine
 10
-84.5125006174054
 20
-12.71650012348108
 30
0.0
 11
-83.31833374493694
 21
-11.52233325101261
 31
0.0
  0
LINE
  5
2A4
330
1F
100
AcDbEntity
  8
SKVIEW2
  6
CONTINUOUS
370
25
 62
7
100
AcDbLine
 10
-85.04283070329531
 20
-12.82256614065906
 30
0.0
 11
-83.67188713553021
 21
-11.45162257289396
 31
0.0
  0
LINE
  5
2A5
330
1F
100
AcDbEntity
  8
SKVIEW2
  6
CONTINUOUS
370
25
 62
7
100
AcDbLine
 10
-85.57316078918521
 20
-12.92863215783704
 30
0.0
 11
-84.02544052612348
 21
-11.38091189477531
 31
0.0
  0
LINE
  5
2A6
330
1F
100
AcDbEntity
  8
SKVIEW2
  6
CONTINUOUS
370
25
 62
7
100
AcDbLine
 10
-85.93
 20
-12.86120729993991
 30
0.0
 11
-84.37899391671675
 21
-11.31020121665665
 31
0.0
  0
LINE
  5
2A7
330
1F
100
AcDbEntity
  8
SKVIEW2
  6
CONTINUOUS
370
25
 62
7
100
AcDbLine
 10
-85.93
 20
-12.43694323122798
 30
0.0
 11
-84.73254730731003
 21
-11.239490538538
 31
0.0
  0
LINE
  5
2A8
330
1F
100
AcDbEntity
  8
SKVIEW2
  6
CONTINUOUS
370
25
 62
7
100
AcDbLine
 10
-85.93
 20
-12.01267916251605
 30
0.0
 11
-85.0861006979033
 21
-11.16877986041934
 31
0.0
  0
LINE
  5
2A9
330
1F
100
AcDbEntity
  8
SKVIEW2
  6
CONTINUOUS
370
25
 62
7
100
AcDbLine
 10
-85.93
 20
-11.58841509380412
 30
0.0
 11
-85.43965408849657
 21
-11.09806918230069
 31
0.0
  0
LINE
  5
2AA
330
1F
100
AcDbEntity
  8
SKVIEW2
  6
CONTINUOUS
370
25
 62
7
100
AcDbLine
 10
-85.93
 20
-11.16415102509219
 30
0.0
 11
-85.79320747908984
 21
-11.02735850418203
 31
0.0
  0
LINE
  5
2AB
330
1F
100
AcDbEntity
  8
SKVIEW2
  6
CONTINUOUS
370
25
 62
7
100
AcDbLine
 10
-85.93
 20
-12.8612072999399
 30
0.0
 11
-85.81433941661659
 21
-12.97686788332332
 31
0.0
  0
LINE
  5
2AC
330
1F
100
AcDbEntity
  8
SKVIEW2
  6
CONTINUOUS
370
25
 62
7
100
AcDbLine
 10
-85.93
 20
-12.43694323122797
 30
0.0
 11
-85.46078602602331
 21
-12.90615720520466
 31
0.0
  0
LINE
  5
2AD
330
1F
100
AcDbEntity
  8
SKVIEW2
  6
CONTINUOUS
370
25
 62
7
100
AcDbLine
 10
-85.93
 20
-12.01267916251604
 30
0.0
 11
-85.10723263543004
 21
-12.83544652708601
 31
0.0
  0
LINE
  5
2AE
330
1F
100
AcDbEntity
  8
SKVIEW2
  6
CONTINUOUS
370
25
 62
7
100
AcDbLine
 10
-85.93
 20
-11.58841509380412
 30
0.0
 11
-84.75367924483677
 21
-12.76473584896735
 31
0.0
  0
LINE
  5
2AF
330
1F
100
AcDbEntity
  8
SKVIEW2
  6
CONTINUOUS
370
25
 62
7
100
AcDbLine
 10
-85.93
 20
-11.16415102509219
 30
0.0
 11
-84.4001258542435
 21
-12.6940251708487
 31
0.0
  0
LINE
  5
2B0
330
1F
100
AcDbEntity
  8
SKVIEW2
  6
CONTINUOUS
370
25
 62
7
100
AcDbLine
 10
-85.60485869547533
 20
-11.06502826090493
 30
0.0
 11
-84.04657246365022
 21
-12.62331449273004
 31
0.0
  0
LINE
  5
2B1
330
1F
100
AcDbEntity
  8
SKVIEW2
  6
CONTINUOUS
370
25
 62
7
100
AcDbLine
 10
-85.07452860958543
 20
-11.17109427808292
 30
0.0
 11
-83.69301907305694
 21
-12.55260381461139
 31
0.0
  0
LINE
  5
2B2
330
1F
100
AcDbEntity
  8
SKVIEW2
  6
CONTINUOUS
370
25
 62
7
100
AcDbLine
 10
-84.54419852369551
 20
-11.2771602952609
 30
0.0
 11
-83.33946568246368
 21
-12.48189313649273
 31
0.0
  0
LINE
  5
2B3
330
1F
100
AcDbEntity
  8
SKVIEW2
  6
CONTINUOUS
370
25
 62
7
100
AcDbLine
 10
-84.0138684378056
 20
-11.38322631243888
 30
0.0
 11
-82.9859122918704
 21
-12.41118245837408
 31
0.0
  0
LINE
  5
2B4
330
1F
100
AcDbEntity
  8
SKVIEW2
  6
CONTINUOUS
370
25
 62
7
100
AcDbLine
 10
-83.48353835191568
 20
-11.48929232961686
 30
0.0
 11
-82.63235890127713
 21
-12.34047178025542
 31
0.0
  0
LINE
  5
2B5
330
1F
100
AcDbEntity
  8
SKVIEW2
  6
CONTINUOUS
370
25
 62
7
100
AcDbLine
 10
-82.95320826602578
 20
-11.59535834679485
 30
0.0
 11
-82.27880551068385
 21
-12.26976110213677
 31
0.0
  0
LINE
  5
2B6
330
1F
100
AcDbEntity
  8
SKVIEW2
  6
CONTINUOUS
370
25
 62
7
100
AcDbLine
 10
-82.42287818013587
 20
-11.70142436397283
 30
0.0
 11
-81.92525212009058
 21
-12.19905042401811
 31
0.0
  0
LINE
  5
2B7
330
1F
100
AcDbEntity
  8
SKVIEW2
  6
CONTINUOUS
370
25
 62
7
100
AcDbLine
 10
-81.89254809424595
 20
-11.80749038115081
 30
0.0
 11
-81.57169872949731
 21
-12.12833974589946
 31
0.0
  0
LINE
  5
2B8
330
1F
100
AcDbEntity
  8
SKVIEW2
  6
CONTINUOUS
370
25
 62
7
100
AcDbLine
 10
-81.36221800835605
 20
-11.91355639832879
 30
0.0
 11
-81.21814533890404
 21
-12.05762906778081
 31
0.0
  0
LINE
  5
2B9
330
1F
100
AcDbEntity
  8
SKVIEW2
  6
CONTINUOUS
370
25
 62
7
100
AcDbLine
 10
-78.00000000000001
 20
-12.0
 30
0.0
 11
-73.0
 21
-11.0
 31
0.0
  0
LINE
  5
2BA
330
1F
100
AcDbEntity
  8
SKVIEW2
  6
CONTINUOUS
370
25
 62
7
100
AcDbLine
 10
-73.0
 20
-11.0
 30
0.0
 11
-73.0
 21
-13.0
 31
0.0
  0
LINE
  5
2BB
330
1F
100
AcDbEntity
  8
SKVIEW2
  6
CONTINUOUS
370
25
 62
7
100
AcDbLine
 10
-73.0
 20
-13.0
 30
0.0
 11
-78.00000000000001
 21
-12.0
 31
0.0
  0
LINE
  5
2BC
330
1F
100
AcDbEntity
  8
SKVIEW2
  6
CONTINUOUS
370
25
 62
7
100
AcDbLine
 10
-73.14886765086968
 20
-12.97022646982607
 30
0.0
 11
-73.0
 21
-12.8213588189564
 31
0.0
  0
LINE
  5
2BD
330
1F
100
AcDbEntity
  8
SKVIEW2
  6
CONTINUOUS
370
25
 62
7
100
AcDbLine
 10
-73.50242104146295
 20
-12.89951579170741
 30
0.0
 11
-73.0
 21
-12.39709475024447
 31
0.0
  0
LINE
  5
2BE
330
1F
100
AcDbEntity
  8
SKVIEW2
  6
CONTINUOUS
370
25
 62
7
100
AcDbLine
 10
-73.85597443205621
 20
-12.82880511358876
 30
0.0
 11
-73.0
 21
-11.97283068153255
 31
0.0
  0
LINE
  5
2BF
330
1F
100
AcDbEntity
  8
SKVIEW2
  6
CONTINUOUS
370
25
 62
7
100
AcDbLine
 10
-74.20952782264949
 20
-12.7580944354701
 30
0.0
 11
-73.0
 21
-11.54856661282061
 31
0.0
  0
LINE
  5
2C0
330
1F
100
AcDbEntity
  8
SKVIEW2
  6
CONTINUOUS
370
25
 62
7
100
AcDbLine
 10
-74.56308121324277
 20
-12.68738375735145
 30
0.0
 11
-73.0
 21
-11.12430254410869
 31
0.0
  0
LINE
  5
2C1
330
1F
100
AcDbEntity
  8
SKVIEW2
  6
CONTINUOUS
370
25
 62
7
100
AcDbLine
 10
-74.91663460383604
 20
-12.61667307923279
 30
0.0
 11
-73.37495190575406
 21
-11.07499038115081
 31
0.0
  0
LINE
  5
2C2
330
1F
100
AcDbEntity
  8
SKVIEW2
  6
CONTINUOUS
370
25
 62
7
100
AcDbLine
 10
-75.2701879944293
 20
-12.54596240111414
 30
0.0
 11
-73.90528199164396
 21
-11.18105639832879
 31
0.0
  0
LINE
  5
2C3
330
1F
100
AcDbEntity
  8
SKVIEW2
  6
CONTINUOUS
370
25
 62
7
100
AcDbLine
 10
-75.62374138502258
 20
-12.47525172299548
 30
0.0
 11
-74.43561207753388
 21
-11.28712241550677
 31
0.0
  0
LINE
  5
2C4
330
1F
100
AcDbEntity
  8
SKVIEW2
  6
CONTINUOUS
370
25
 62
7
100
AcDbLine
 10
-75.97729477561586
 20
-12.40454104487683
 30
0.0
 11
-74.96594216342379
 21
-11.39318843268476
 31
0.0
  0
LINE
  5
2C5
330
1F
100
AcDbEntity
  8
SKVIEW2
  6
CONTINUOUS
370
25
 62
7
100
AcDbLine
 10
-76.33084816620914
 20
-12.33383036675817
 30
0.0
 11
-75.49627224931369
 21
-11.49925444986274
 31
0.0
  0
LINE
  5
2C6
330
1F
100
AcDbEntity
  8
SKVIEW2
  6
CONTINUOUS
370
25
 62
7
100
AcDbLine
 10
-76.68440155680241
 20
-12.26311968863952
 30
0.0
 11
-76.0266023352036
 21
-11.60532046704072
 31
0.0
  0
LINE
  5
2C7
330
1F
100
AcDbEntity
  8
SKVIEW2
  6
CONTINUOUS
370
25
 62
7
100
AcDbLine
 10
-77.03795494739568
 20
-12.19240901052087
 30
0.0
 11
-76.55693242109352
 21
-11.7113864842187
 31
0.0
  0
LINE
  5
2C8
330
1F
100
AcDbEntity
  8
SKVIEW2
  6
CONTINUOUS
370
25
 62
7
100
AcDbLine
 10
-77.39150833798895
 20
-12.12169833240221
 30
0.0
 11
-77.08726250698342
 21
-11.81745250139668
 31
0.0
  0
LINE
  5
2C9
330
1F
100
AcDbEntity
  8
SKVIEW2
  6
CONTINUOUS
370
25
 62
7
100
AcDbLine
 10
-77.74506172858223
 20
-12.05098765428356
 30
0.0
 11
-77.61759259287334
 21
-11.92351851857467
 31
0.0
  0
LINE
  5
2CA
330
1F
100
AcDbEntity
  8
SKVIEW2
  6
CONTINUOUS
370
25
 62
7
100
AcDbLine
 10
-77.76619366610898
 20
-11.95323873322179
 30
0.0
 11
-77.64929049916346
 21
-12.07014190016731
 31
0.0
  0
LINE
  5
2CB
330
1F
100
AcDbEntity
  8
SKVIEW2
  6
CONTINUOUS
370
25
 62
7
100
AcDbLine
 10
-77.4126402755157
 20
-11.88252805510314
 30
0.0
 11
-77.11896041327354
 21
-12.17620791734529
 31
0.0
  0
LINE
  5
2CC
330
1F
100
AcDbEntity
  8
SKVIEW2
  6
CONTINUOUS
370
25
 62
7
100
AcDbLine
 10
-77.05908688492242
 20
-11.81181737698448
 30
0.0
 11
-76.58863032738364
 21
-12.28227393452327
 31
0.0
  0
LINE
  5
2CD
330
1F
100
AcDbEntity
  8
SKVIEW2
  6
CONTINUOUS
370
25
 62
7
100
AcDbLine
 10
-76.70553349432916
 20
-11.74110669886583
 30
0.0
 11
-76.05830024149373
 21
-12.38833995170126
 31
0.0
  0
LINE
  5
2CE
330
1F
100
AcDbEntity
  8
SKVIEW2
  6
CONTINUOUS
370
25
 62
7
100
AcDbLine
 10
-76.35198010373588
 20
-11.67039602074717
 30
0.0
 11
-75.52797015560381
 21
-12.49440596887924
 31
0.0
  0
LINE
  5
2CF
330
1F
100
AcDbEntity
  8
SKVIEW2
  6
CONTINUOUS
370
25
 62
7
100
AcDbLine
 10
-75.9984267131426
 20
-11.59968534262852
 30
0.0
 11
-74.99764006971391
 21
-12.60047198605722
 31
0.0
  0
LINE
  5
2D0
330
1F
100
AcDbEntity
  8
SKVIEW2
  6
CONTINUOUS
370
25
 62
7
100
AcDbLine
 10
-75.64487332254933
 20
-11.52897466450986
 30
0.0
 11
-74.467309983824
 21
-12.7065380032352
 31
0.0
  0
LINE
  5
2D1
330
1F
100
AcDbEntity
  8
SKVIEW2
  6
CONTINUOUS
370
25
 62
7
100
AcDbLine
 10
-75.29131993195605
 20
-11.45826398639121
 30
0.0
 11
-73.93697989793408
 21
-12.81260402041318
 31
0.0
  0
LINE
  5
2D2
330
1F
100
AcDbEntity
  8
SKVIEW2
  6
CONTINUOUS
370
25
 62
7
100
AcDbLine
 10
-74.93776654136279
 20
-11.38755330827256
 30
0.0
 11
-73.40664981204418
 21
-12.91867003759117
 31
0.0
  0
LINE
  5
2D3
330
1F
100
AcDbEntity
  8
SKVIEW2
  6
CONTINUOUS
370
25
 62
7
100
AcDbLine
 10
-74.58421315076951
 20
-11.3168426301539
 30
0.0
 11
-73.0
 21
-12.90105578092341
 31
0.0
  0
LINE
  5
2D4
330
1F
100
AcDbEntity
  8
SKVIEW2
  6
CONTINUOUS
370
25
 62
7
100
AcDbLine
 10
-74.23065976017624
 20
-11.24613195203525
 30
0.0
 11
-73.0
 21
-12.47679171221148
 31
0.0
  0
LINE
  5
2D5
330
1F
100
AcDbEntity
  8
SKVIEW2
  6
CONTINUOUS
370
25
 62
7
100
AcDbLine
 10
-73.87710636958296
 20
-11.17542127391659
 30
0.0
 11
-73.0
 21
-12.05252764349955
 31
0.0
  0
LINE
  5
2D6
330
1F
100
AcDbEntity
  8
SKVIEW2
  6
CONTINUOUS
370
25
 62
7
100
AcDbLine
 10
-73.52355297898968
 20
-11.10471059579794
 30
0.0
 11
-73.0
 21
-11.62826357478762
 31
0.0
  0
LINE
  5
2D7
330
1F
100
AcDbEntity
  8
SKVIEW2
  6
CONTINUOUS
370
25
 62
7
100
AcDbLine
 10
-73.16999958839642
 20
-11.03399991767928
 30
0.0
 11
-73.0
 21
-11.20399950607569
 31
0.0
  0
TEXT
  5
2D8
330
1F
100
AcDbEntity
  8
SKVIEW2
  6
CONTINUOUS
370
25
 62
7
100
AcDbText
 10
-98.13000000000001
 20
-10.5
 30
0.0
 40
3.5
  1
2.93
 72
     1
 11
-92.88000000000001
 21
-10.5
 31
0.0
100
AcDbText
  0
CIRCLE
  5
2D9
330
1F
100
AcDbEntity
  8
SK4
  6
LONGDASH_DASH
370
25
 62
2
100
AcDbCircle
 10
3.859378487548226
 20
3.475
 30
0.0
 40
3.475
  0
LINE
  5
2DA
330
1F
100
AcDbEntity
  8
SK2
  6
CONTINUOUS
370
25
 62
7
100
AcDbLine
 10
7.672320731790378
 20
6.508188610646902
 30
0.0
 11
10.08110024984897
 21
29.42619483532298
 31
0.0
  0
LINE
  5
2DB
330
1F
100
AcDbEntity
  8
SK2
  6
CONTINUOUS
370
25
 62
7
100
AcDbLine
 10
7.27451197
 20
6.950001
 30
0.0
 11
29.31875665592363
 21
6.950001
 31
0.0
  0
LINE
  5
2DC
330
1F
100
AcDbEntity
  8
SK2
  6
CONTINUOUS
370
25
 62
7
100
AcDbLine
 10
29.31875706157507
 20
6.950001
 30
0.0
 11
30.31875698000004
 21
6.950001
 31
0.0
  0
ARC
  5
2DD
330
1F
100
AcDbEntity
  8
SK2
  6
CONTINUOUS
370
25
 62
7
100
AcDbCircle
 10
7.718756979999982
 20
6.949999999999978
 30
0.0
 40
21.60000000000002
100
AcDbArc
 50
0.0
 51
84.00000000000003
  0
LINE
  5
2DE
330
1F
100
AcDbEntity
  8
SK2
  6
CONTINUOUS
370
25
 62
7
100
AcDbLine
 10
9.976571786581296
 20
28.43167293995471
 30
0.0
 11
15.07420429801949
 21
28.31274952624514
 31
0.0
  0
LINE
  5
2DF
330
1F
100
AcDbEntity
  8
SK2
  6
CONTINUOUS
370
25
 62
7
100
AcDbLine
 10
15.07420429801949
 20
28.31274952624514
 30
0.0
 11
14.63633894571287
 21
26.36126959213118
 31
0.0
  0
LINE
  5
2E0
330
1F
100
AcDbEntity
  8
SK2
  6
CONTINUOUS
370
25
 62
7
100
AcDbLine
 10
14.63633894571287
 20
26.36126959213118
 30
0.0
 11
9.976571786581296
 21
28.43167293995471
 31
0.0
  0
LINE
  5
2E1
330
1F
100
AcDbEntity
  8
SK2
  6
CONTINUOUS
370
25
 62
7
100
AcDbLine
 10
14.52939322909019
 20
26.40878715302413
 30
0.0
 11
14.68102278943421
 21
26.56041671336815
 31
0.0
  0
LINE
  5
2E2
330
1F
100
AcDbEntity
  8
SK2
  6
CONTINUOUS
370
25
 62
7
100
AcDbLine
 10
14.23564557854547
 20
26.53930357119134
 30
0.0
 11
14.80375584060221
 21
27.10741383324807
 31
0.0
  0
LINE
  5
2E3
330
1F
100
AcDbEntity
  8
SK2
  6
CONTINUOUS
370
25
 62
7
100
AcDbLine
 10
13.94189792800076
 20
26.66981998935856
 30
0.0
 11
14.9264888917702
 21
27.654410953128
 31
0.0
  0
LINE
  5
2E4
330
1F
100
AcDbEntity
  8
SK2
  6
CONTINUOUS
370
25
 62
7
100
AcDbLine
 10
13.64815027745605
 20
26.80033640752577
 30
0.0
 11
15.0492219429382
 21
28.20140807300793
 31
0.0
  0
LINE
  5
2E5
330
1F
100
AcDbEntity
  8
SK2
  6
CONTINUOUS
370
25
 62
7
100
AcDbLine
 10
13.35440262691134
 20
26.93085282569299
 30
0.0
 11
14.74400264995912
 21
28.32045284874078
 31
0.0
  0
LINE
  5
2E6
330
1F
100
AcDbEntity
  8
SK2
  6
CONTINUOUS
370
25
 62
7
100
AcDbLine
 10
13.06065497636662
 20
27.0613692438602
 30
0.0
 11
14.32941065839724
 21
28.33012492589082
 31
0.0
  0
LINE
  5
2E7
330
1F
100
AcDbEntity
  8
SK2
  6
CONTINUOUS
370
25
 62
7
100
AcDbLine
 10
12.76690732582191
 20
27.19188566202742
 30
0.0
 11
13.91481866683535
 21
28.33979700304086
 31
0.0
  0
LINE
  5
2E8
330
1F
100
AcDbEntity
  8
SK2
  6
CONTINUOUS
370
25
 62
7
100
AcDbLine
 10
12.47315967527719
 20
27.32240208019463
 30
0.0
 11
13.50022667527346
 21
28.3494690801909
 31
0.0
  0
LINE
  5
2E9
330
1F
100
AcDbEntity
  8
SK2
  6
CONTINUOUS
370
25
 62
7
100
AcDbLine
 10
12.17941202473248
 20
27.45291849836185
 30
0.0
 11
13.08563468371157
 21
28.35914115734094
 31
0.0
  0
LINE
  5
2EA
330
1F
100
AcDbEntity
  8
SK2
  6
CONTINUOUS
370
25
 62
7
100
AcDbLine
 10
11.88566437418777
 20
27.58343491652906
 30
0.0
 11
12.67104269214969
 21
28.36881323449098
 31
0.0
  0
LINE
  5
2EB
330
1F
100
AcDbEntity
  8
SK2
  6
CONTINUOUS
370
25
 62
7
100
AcDbLine
 10
11.59191672364305
 20
27.71395133469628
 30
0.0
 11
12.25645070058779
 21
28.37848531164102
 31
0.0
  0
LINE
  5
2EC
330
1F
100
AcDbEntity
  8
SK2
  6
CONTINUOUS
370
25
 62
7
100
AcDbLine
 10
11.29816907309834
 20
27.84446775286349
 30
0.0
 11
11.84185870902591
 21
28.38815738879106
 31
0.0
  0
LINE
  5
2ED
330
1F
100
AcDbEntity
  8
SK2
  6
CONTINUOUS
370
25
 62
7
100
AcDbLine
 10
11.00442142255362
 20
27.97498417103071
 30
0.0
 11
11.42726671746402
 21
28.3978294659411
 31
0.0
  0
LINE
  5
2EE
330
1F
100
AcDbEntity
  8
SK2
  6
CONTINUOUS
370
25
 62
7
100
AcDbLine
 10
10.71067377200891
 20
28.10550058919792
 30
0.0
 11
11.01267472590213
 21
28.40750154309114
 31
0.0
  0
LINE
  5
2EF
330
1F
100
AcDbEntity
  8
SK2
  6
CONTINUOUS
370
25
 62
7
100
AcDbLine
 10
10.41692612146419
 20
28.23601700736513
 30
0.0
 11
10.59808273434025
 21
28.41717362024119
 31
0.0
  0
LINE
  5
2F0
330
1F
100
AcDbEntity
  8
SK2
  6
CONTINUOUS
370
25
 62
7
100
AcDbLine
 10
10.12317847091948
 20
28.36653342553235
 30
0.0
 11
10.18349074277836
 21
28.42684569739123
 31
0.0
  0
LINE
  5
2F1
330
1F
100
AcDbEntity
  8
SK2
  6
CONTINUOUS
370
25
 62
7
100
AcDbLine
 10
10.18112946889069
 20
28.42690078389477
 30
0.0
 11
10.33610181091448
 21
28.27192844187098
 31
0.0
  0
LINE
  5
2F2
330
1F
100
AcDbEntity
  8
SK2
  6
CONTINUOUS
370
25
 62
7
100
AcDbLine
 10
10.61552767686947
 20
28.41676664462792
 30
0.0
 11
11.09959891609133
 21
27.93269540540606
 31
0.0
  0
LINE
  5
2F3
330
1F
100
AcDbEntity
  8
SK2
  6
CONTINUOUS
370
25
 62
7
100
AcDbLine
 10
11.04992588484825
 20
28.40663250536107
 30
0.0
 11
11.86309602126818
 21
27.59346236894115
 31
0.0
  0
LINE
  5
2F4
330
1F
100
AcDbEntity
  8
SK2
  6
CONTINUOUS
370
25
 62
7
100
AcDbLine
 10
11.48432409282704
 20
28.39649836609421
 30
0.0
 11
12.62659312644503
 21
27.25422933247622
 31
0.0
  0
LINE
  5
2F5
330
1F
100
AcDbEntity
  8
SK2
  6
CONTINUOUS
370
25
 62
7
100
AcDbLine
 10
11.91872230080582
 20
28.38636422682736
 30
0.0
 11
13.39009023162188
 21
26.9149962960113
 31
0.0
  0
LINE
  5
2F6
330
1F
100
AcDbEntity
  8
SK2
  6
CONTINUOUS
370
25
 62
7
100
AcDbLine
 10
12.3531205087846
 20
28.37623008756051
 30
0.0
 11
14.15358733679873
 21
26.57576325954638
 31
0.0
  0
LINE
  5
2F7
330
1F
100
AcDbEntity
  8
SK2
  6
CONTINUOUS
370
25
 62
7
100
AcDbLine
 10
12.78751871676339
 20
28.36609594829365
 30
0.0
 11
14.66492823259507
 21
26.48868643246197
 31
0.0
  0
LINE
  5
2F8
330
1F
100
AcDbEntity
  8
SK2
  6
CONTINUOUS
370
25
 62
7
100
AcDbLine
 10
13.22191692474217
 20
28.3559618090268
 30
0.0
 11
14.74267778891637
 21
26.8352009448526
 31
0.0
  0
LINE
  5
2F9
330
1F
100
AcDbEntity
  8
SK2
  6
CONTINUOUS
370
25
 62
7
100
AcDbLine
 10
13.65631513272096
 20
28.34582766975995
 30
0.0
 11
14.82042734523767
 21
27.18171545724323
 31
0.0
  0
LINE
  5
2FA
330
1F
100
AcDbEntity
  8
SK2
  6
CONTINUOUS
370
25
 62
7
100
AcDbLine
 10
14.09071334069974
 20
28.33569353049309
 30
0.0
 11
14.89817690155897
 21
27.52822996963386
 31
0.0
  0
LINE
  5
2FB
330
1F
100
AcDbEntity
  8
SK2
  6
CONTINUOUS
370
25
 62
7
100
AcDbLine
 10
14.52511154867852
 20
28.32555939122624
 30
0.0
 11
14.97592645788027
 21
27.87474448202449
 31
0.0
  0
LINE
  5
2FC
330
1F
100
AcDbEntity
  8
SK2
  6
CONTINUOUS
370
25
 62
7
100
AcDbLine
 10
14.9595097566573
 20
28.31542525195938
 30
0.0
 11
15.05367601420157
 21
28.22125899441512
 31
0.0
  0
LINE
  5
2FD
330
1F
100
AcDbEntity
  8
SK2
  6
CONTINUOUS
370
25
 62
7
100
AcDbLine
 10
29.31875698
 20
6.949999999999997
 30
0.0
 11
27.74677381867484
 21
11.80065654736656
 31
0.0
  0
LINE
  5
2FE
330
1F
100
AcDbEntity
  8
SK2
  6
CONTINUOUS
370
25
 62
7
100
AcDbLine
 10
27.74677381867484
 20
11.80065654736656
 30
0.0
 11
29.73333273391776
 21
12.03213802884805
 31
0.0
  0
LINE
  5
2FF
330
1F
100
AcDbEntity
  8
SK2
  6
CONTINUOUS
370
25
 62
7
100
AcDbLine
 10
29.73333273391776
 20
12.03213802884805
 30
0.0
 11
29.31875698
 21
6.949999999999997
 31
0.0
  0
LINE
  5
300
330
1F
100
AcDbEntity
  8
SK2
  6
CONTINUOUS
370
25
 62
7
100
AcDbLine
 10
29.21745751156262
 20
7.262579003331275
 30
0.0
 11
29.35551792058464
 21
7.4006394123533
 31
0.0
  0
LINE
  5
301
330
1F
100
AcDbEntity
  8
SK2
  6
CONTINUOUS
370
25
 62
7
100
AcDbLine
 10
29.11361610020835
 20
7.583001660688943
 30
0.0
 11
29.39320131628162
 21
7.862586876762204
 31
0.0
  0
LINE
  5
302
330
1F
100
AcDbEntity
  8
SK2
  6
CONTINUOUS
370
25
 62
7
100
AcDbLine
 10
29.0097746888541
 20
7.903424318046614
 30
0.0
 11
29.43088471197859
 21
8.324534341171102
 31
0.0
  0
LINE
  5
303
330
1F
100
AcDbEntity
  8
SK2
  6
CONTINUOUS
370
25
 62
7
100
AcDbLine
 10
28.90593327749984
 20
8.223846975404285
 30
0.0
 11
29.46856810767556
 21
8.786481805580006
 31
0.0
  0
LINE
  5
304
330
1F
100
AcDbEntity
  8
SK2
  6
CONTINUOUS
370
25
 62
7
100
AcDbLine
 10
28.80209186614558
 20
8.544269632761957
 30
0.0
 11
29.50625150337253
 21
9.248429269988911
 31
0.0
  0
LINE
  5
305
330
1F
100
AcDbEntity
  8
SK2
  6
CONTINUOUS
370
25
 62
7
100
AcDbLine
 10
28.69825045479132
 20
8.864692290119628
 30
0.0
 11
29.54393489906951
 21
9.710376734397816
 31
0.0
  0
LINE
  5
306
330
1F
100
AcDbEntity
  8
SK2
  6
CONTINUOUS
370
25
 62
7
100
AcDbLine
 10
28.59440904343706
 20
9.185114947477299
 30
0.0
 11
29.58161829476648
 21
10.17232419880672
 31
0.0
  0
LINE
  5
307
330
1F
100
AcDbEntity
  8
SK2
  6
CONTINUOUS
370
25
 62
7
100
AcDbLine
 10
28.4905676320828
 20
9.505537604834966
 30
0.0
 11
29.61930169046345
 21
10.63427166321562
 31
0.0
  0
LINE
  5
308
330
1F
100
AcDbEntity
  8
SK2
  6
CONTINUOUS
370
25
 62
7
100
AcDbLine
 10
28.38672622072854
 20
9.825960262192638
 30
0.0
 11
29.65698508616043
 21
11.09621912762453
 31
0.0
  0
LINE
  5
309
330
1F
100
AcDbEntity
  8
SK2
  6
CONTINUOUS
370
25
 62
7
100
AcDbLine
 10
28.28288480937428
 20
10.14638291955031
 30
0.0
 11
29.6946684818574
 21
11.55816659203343
 31
0.0
  0
LINE
  5
30A
330
1F
100
AcDbEntity
  8
SK2
  6
CONTINUOUS
370
25
 62
7
100
AcDbLine
 10
28.17904339802003
 20
10.46680557690798
 30
0.0
 11
29.73235187755438
 21
12.02011405644234
 31
0.0
  0
LINE
  5
30B
330
1F
100
AcDbEntity
  8
SK2
  6
CONTINUOUS
370
25
 62
7
100
AcDbLine
 10
28.07520198666576
 20
10.78722823426565
 30
0.0
 11
29.26561105298219
 21
11.97763730058209
 31
0.0
  0
LINE
  5
30C
330
1F
100
AcDbEntity
  8
SK2
  6
CONTINUOUS
370
25
 62
7
100
AcDbLine
 10
27.97136057531151
 20
11.10765089162332
 30
0.0
 11
28.78538975225555
 21
11.92168006856737
 31
0.0
  0
LINE
  5
30D
330
1F
100
AcDbEntity
  8
SK2
  6
CONTINUOUS
370
25
 62
7
100
AcDbLine
 10
27.86751916395724
 20
11.42807354898099
 30
0.0
 11
28.30516845152889
 21
11.86572283655264
 31
0.0
  0
LINE
  5
30E
330
1F
100
AcDbEntity
  8
SK2
  6
CONTINUOUS
370
25
 62
7
100
AcDbLine
 10
27.76367775260299
 20
11.74849620633866
 30
0.0
 11
27.82494715080224
 21
11.80976560453791
 31
0.0
  0
LINE
  5
30F
330
1F
100
AcDbEntity
  8
SK2
  6
CONTINUOUS
370
25
 62
7
100
AcDbLine
 10
29.21425790541598
 20
7.272452003809907
 30
0.0
 11
29.33519552919929
 21
7.151514380026597
 31
0.0
  0
LINE
  5
310
330
1F
100
AcDbEntity
  8
SK2
  6
CONTINUOUS
370
25
 62
7
100
AcDbLine
 10
29.01084149473907
 20
7.900132483198746
 30
0.0
 11
29.36719457501061
 21
7.543779402927203
 31
0.0
  0
LINE
  5
311
330
1F
100
AcDbEntity
  8
SK2
  6
CONTINUOUS
370
25
 62
7
100
AcDbLine
 10
28.80742508406216
 20
8.52781296258759
 30
0.0
 11
29.39919362082194
 21
7.936044425827809
 31
0.0
  0
LINE
  5
312
330
1F
100
AcDbEntity
  8
SK2
  6
CONTINUOUS
370
25
 62
7
100
AcDbLine
 10
28.60400867338524
 20
9.155493441976432
 30
0.0
 11
29.43119266663326
 21
8.328309448728419
 31
0.0
  0
LINE
  5
313
330
1F
100
AcDbEntity
  8
SK2
  6
CONTINUOUS
370
25
 62
7
100
AcDbLine
 10
28.40059226270834
 20
9.783173921365268
 30
0.0
 11
29.46319171244459
 21
8.720574471629021
 31
0.0
  0
LINE
  5
314
330
1F
100
AcDbEntity
  8
SK2
  6
CONTINUOUS
370
25
 62
7
100
AcDbLine
 10
28.19717585203143
 20
10.4108544007541
 30
0.0
 11
29.49519075825592
 21
9.11283949452962
 31
0.0
  0
LINE
  5
315
330
1F
100
AcDbEntity
  8
SK2
  6
CONTINUOUS
370
25
 62
7
100
AcDbLine
 10
27.99375944135452
 20
11.03853488014294
 30
0.0
 11
29.52718980406724
 21
9.50510451743023
 31
0.0
  0
LINE
  5
316
330
1F
100
AcDbEntity
  8
SK2
  6
CONTINUOUS
370
25
 62
7
100
AcDbLine
 10
27.7903430306776
 20
11.66621535953178
 30
0.0
 11
29.55918884987856
 21
9.897369540330835
 31
0.0
  0
LINE
  5
317
330
1F
100
AcDbEntity
  8
SK2
  6
CONTINUOUS
370
25
 62
7
100
AcDbLine
 10
28.04537209279111
 20
11.8354503661302
 30
0.0
 11
29.59118789568988
 21
10.28963456323144
 31
0.0
  0
LINE
  5
318
330
1F
100
AcDbEntity
  8
SK2
  6
CONTINUOUS
370
25
 62
7
100
AcDbLine
 10
28.42535866533578
 20
11.87972786229746
 30
0.0
 11
29.62318694150121
 21
10.68189958613204
 31
0.0
  0
LINE
  5
319
330
1F
100
AcDbEntity
  8
SK2
  6
CONTINUOUS
370
25
 62
7
100
AcDbLine
 10
28.80534523788045
 20
11.92400535846473
 30
0.0
 11
29.65518598731254
 21
11.07416460903264
 31
0.0
  0
LINE
  5
31A
330
1F
100
AcDbEntity
  8
SK2
  6
CONTINUOUS
370
25
 62
7
100
AcDbLine
 10
29.18533181042512
 20
11.96828285463199
 30
0.0
 11
29.68718503312386
 21
11.46642963193326
 31
0.0
  0
LINE
  5
31B
330
1F
100
AcDbEntity
  8
SK2
  6
CONTINUOUS
370
25
 62
7
100
AcDbLine
 10
29.56531838296979
 20
12.01256035079925
 30
0.0
 11
29.71918407893519
 21
11.85869465483385
 31
0.0
  0
TEXT
  5
31C
330
1F
100
AcDbEntity
  8
SK2
  6
CONTINUOUS
370
25
 62
7
100
AcDbText
 10
22.15311913922914
 20
25.44142504425565
 30
0.0
 40
3.499999999999999
  1
84°
 50
311.9999999999999
 72
     1
 11
24.88540244852781
 21
22.40691700688962
 31
0.0
100
AcDbText
  0
LINE
  5
31D
330
1F
100
AcDbEntity
  8
SK2
  6
CONTINUOUS
370
25
 62
7
100
AcDbLine
 10
0.0
 20
0.0
 30
0.0
 11
-0.0000000000000016
 21
-25.5
 31
0.0
  0
LINE
  5
31E
330
1F
100
AcDbEntity
  8
SK2
  6
CONTINUOUS
370
25
 62
7
100
AcDbLine
 10
6.989999999999998
 20
-25.5
 30
0.0
 11
6.989999999999998
 21
-0.1120138073672408
 31
0.0
  0
LINE
  5
31F
330
1F
100
AcDbEntity
  8
SK2
  6
CONTINUOUS
370
25
 62
7
100
AcDbLine
 10
-7.0
 20
-24.5
 30
0.0
 11
25.89
 21
-24.5
 31
0.0
  0
LINE
  5
320
330
1F
100
AcDbEntity
  8
SK2
  6
CONTINUOUS
370
25
 62
7
100
AcDbLine
 10
0.0
 20
-24.5
 30
0.0
 11
-5.0
 21
-25.5
 31
0.0
  0
LINE
  5
321
330
1F
100
AcDbEntity
  8
SK2
  6
CONTINUOUS
370
25
 62
7
100
AcDbLine
 10
-5.0
 20
-25.5
 30
0.0
 11
-5.0
 21
-23.5
 31
0.0
  0
LINE
  5
322
330
1F
100
AcDbEntity
  8
SK2
  6
CONTINUOUS
370
25
 62
7
100
AcDbLine
 10
-5.0
 20
-23.5
 30
0.0
 11
0.0
 21
-24.5
 31
0.0
  0
LINE
  5
323
330
1F
100
AcDbEntity
  8
SK2
  6
CONTINUOUS
370
25
 62
7
100
AcDbLine
 10
-0.155092592873296
 20
-24.53101851857466
 30
0.0
 11
-0.1033950619155307
 21
-24.47932098761689
 31
0.0
  0
LINE
  5
324
330
1F
100
AcDbEntity
  8
SK2
  6
CONTINUOUS
370
25
 62
7
100
AcDbLine
 10
-0.6854226787632098
 20
-24.63708453575264
 30
0.0
 11
-0.4569484525088066
 21
-24.40861030949824
 31
0.0
  0
LINE
  5
325
330
1F
100
AcDbEntity
  8
SK2
  6
CONTINUOUS
370
25
 62
7
100
AcDbLine
 10
-1.215752764653119
 20
-24.74315055293062
 30
0.0
 11
-0.8105018431020796
 21
-24.33789963137959
 31
0.0
  0
LINE
  5
326
330
1F
100
AcDbEntity
  8
SK2
  6
CONTINUOUS
370
25
 62
7
100
AcDbLine
 10
-1.746082850543029
 20
-24.84921657010861
 30
0.0
 11
-1.164055233695353
 21
-24.26718895326093
 31
0.0
  0
LINE
  5
327
330
1F
100
AcDbEntity
  8
SK2
  6
CONTINUOUS
370
25
 62
7
100
AcDbLine
 10
-2.276412936432938
 20
-24.95528258728659
 30
0.0
 11
-1.517608624288625
 21
-24.19647827514228
 31
0.0
  0
LINE
  5
328
330
1F
100
AcDbEntity
  8
SK2
  6
CONTINUOUS
370
25
 62
7
100
AcDbLine
 10
-2.806743022322847
 20
-25.06134860446457
 30
0.0
 11
-1.871162014881898
 21
-24.12576759702362
 31
0.0
  0
LINE
  5
329
330
1F
100
AcDbEntity
  8
SK2
  6
CONTINUOUS
370
25
 62
7
100
AcDbLine
 10
-3.337073108212756
 20
-25.16741462164255
 30
0.0
 11
-2.224715405475171
 21
-24.05505691890497
 31
0.0
  0
LINE
  5
32A
330
1F
100
AcDbEntity
  8
SK2
  6
CONTINUOUS
370
25
 62
7
100
AcDbLine
 10
-3.867403194102665
 20
-25.27348063882053
 30
0.0
 11
-2.578268796068444
 21
-23.98434624078631
 31
0.0
  0
LINE
  5
32B
330
1F
100
AcDbEntity
  8
SK2
  6
CONTINUOUS
370
25
 62
7
100
AcDbLine
 10
-4.397733279992575
 20
-25.37954665599851
 30
0.0
 11
-2.931822186661717
 21
-23.91363556266766
 31
0.0
  0
LINE
  5
32C
330
1F
100
AcDbEntity
  8
SK2
  6
CONTINUOUS
370
25
 62
7
100
AcDbLine
 10
-4.928063365882482
 20
-25.4856126731765
 30
0.0
 11
-3.28537557725499
 21
-23.842924884549
 31
0.0
  0
LINE
  5
32D
330
1F
100
AcDbEntity
  8
SK2
  6
CONTINUOUS
370
25
 62
7
100
AcDbLine
 10
-5.0
 20
-25.13328523858209
 30
0.0
 11
-3.638928967848262
 21
-23.77221420643035
 31
0.0
  0
LINE
  5
32E
330
1F
100
AcDbEntity
  8
SK2
  6
CONTINUOUS
370
25
 62
7
100
AcDbLine
 10
-5.0
 20
-24.70902116987016
 30
0.0
 11
-3.992482358441535
 21
-23.70150352831169
 31
0.0
  0
LINE
  5
32F
330
1F
100
AcDbEntity
  8
SK2
  6
CONTINUOUS
370
25
 62
7
100
AcDbLine
 10
-5.0
 20
-24.28475710115823
 30
0.0
 11
-4.346035749034808
 21
-23.63079285019304
 31
0.0
  0
LINE
  5
330
330
1F
100
AcDbEntity
  8
SK2
  6
CONTINUOUS
370
25
 62
7
100
AcDbLine
 10
-5.0
 20
-23.8604930324463
 30
0.0
 11
-4.699589139628081
 21
-23.56008217207438
 31
0.0
  0
LINE
  5
331
330
1F
100
AcDbEntity
  8
SK2
  6
CONTINUOUS
370
25
 62
7
100
AcDbLine
 10
-5.0
 20
-25.13328523858208
 30
0.0
 11
-4.694404365485067
 21
-25.43888087309701
 31
0.0
  0
LINE
  5
332
330
1F
100
AcDbEntity
  8
SK2
  6
CONTINUOUS
370
25
 62
7
100
AcDbLine
 10
-5.0
 20
-24.70902116987016
 30
0.0
 11
-4.340850974891796
 21
-25.36817019497836
 31
0.0
  0
LINE
  5
333
330
1F
100
AcDbEntity
  8
SK2
  6
CONTINUOUS
370
25
 62
7
100
AcDbLine
 10
-5.0
 20
-24.28475710115823
 30
0.0
 11
-3.987297584298522
 21
-25.2974595168597
 31
0.0
  0
LINE
  5
334
330
1F
100
AcDbEntity
  8
SK2
  6
CONTINUOUS
370
25
 62
7
100
AcDbLine
 10
-5.0
 20
-23.8604930324463
 30
0.0
 11
-3.633744193705249
 21
-25.22674883874105
 31
0.0
  0
LINE
  5
335
330
1F
100
AcDbEntity
  8
SK2
  6
CONTINUOUS
370
25
 62
7
100
AcDbLine
 10
-4.920286204667963
 20
-23.51594275906641
 30
0.0
 11
-3.280190803111973
 21
-25.15603816062239
 31
0.0
  0
LINE
  5
336
330
1F
100
AcDbEntity
  8
SK2
  6
CONTINUOUS
370
25
 62
7
100
AcDbLine
 10
-4.389956118778052
 20
-23.62200877624439
 30
0.0
 11
-2.926637412518699
 21
-25.08532748250374
 31
0.0
  0
LINE
  5
337
330
1F
100
AcDbEntity
  8
SK2
  6
CONTINUOUS
370
25
 62
7
100
AcDbLine
 10
-3.859626032888141
 20
-23.72807479342237
 30
0.0
 11
-2.573084021925426
 21
-25.01461680438508
 31
0.0
  0
LINE
  5
338
330
1F
100
AcDbEntity
  8
SK2
  6
CONTINUOUS
370
25
 62
7
100
AcDbLine
 10
-3.329295946998235
 20
-23.83414081060035
 30
0.0
 11
-2.219530631332155
 21
-24.94390612626643
 31
0.0
  0
LINE
  5
339
330
1F
100
AcDbEntity
  8
SK2
  6
CONTINUOUS
370
25
 62
7
100
AcDbLine
 10
-2.798965861108324
 20
-23.94020682777834
 30
0.0
 11
-1.865977240738881
 21
-24.87319544814778
 31
0.0
  0
LINE
  5
33A
330
1F
100
AcDbEntity
  8
SK2
  6
CONTINUOUS
370
25
 62
7
100
AcDbLine
 10
-2.268635775218414
 20
-24.04627284495632
 30
0.0
 11
-1.512423850145608
 21
-24.80248477002912
 31
0.0
  0
LINE
  5
33B
330
1F
100
AcDbEntity
  8
SK2
  6
CONTINUOUS
370
25
 62
7
100
AcDbLine
 10
-1.738305689328503
 20
-24.1523388621343
 30
0.0
 11
-1.158870459552334
 21
-24.73177409191047
 31
0.0
  0
LINE
  5
33C
330
1F
100
AcDbEntity
  8
SK2
  6
CONTINUOUS
370
25
 62
7
100
AcDbLine
 10
-1.207975603438592
 20
-24.25840487931228
 30
0.0
 11
-0.8053170689590606
 21
-24.66106341379181
 31
0.0
  0
LINE
  5
33D
330
1F
100
AcDbEntity
  8
SK2
  6
CONTINUOUS
370
25
 62
7
100
AcDbLine
 10
-0.6776455175486812
 20
-24.36447089649026
 30
0.0
 11
-0.451763678365787
 21
-24.59035273567316
 31
0.0
  0
LINE
  5
33E
330
1F
100
AcDbEntity
  8
SK2
  6
CONTINUOUS
370
25
 62
7
100
AcDbLine
 10
-0.1473154316587703
 20
-24.47053691366824
 30
0.0
 11
-0.0982102877725134
 21
-24.5196420575545
 31
0.0
  0
LINE
  5
33F
330
1F
100
AcDbEntity
  8
SK2
  6
CONTINUOUS
370
25
 62
7
100
AcDbLine
 10
6.989999999999998
 20
-24.5
 30
0.0
 11
11.99
 21
-23.5
 31
0.0
  0
LINE
  5
340
330
1F
100
AcDbEntity
  8
SK2
  6
CONTINUOUS
370
25
 62
7
100
AcDbLine
 10
11.99
 20
-23.5
 30
0.0
 11
11.99
 21
-25.5
 31
0.0
  0
LINE
  5
341
330
1F
100
AcDbEntity
  8
SK2
  6
CONTINUOUS
370
25
 62
7
100
AcDbLine
 10
11.99
 20
-25.5
 30
0.0
 11
6.989999999999998
 21
-24.5
 31
0.0
  0
LINE
  5
342
330
1F
100
AcDbEntity
  8
SK2
  6
CONTINUOUS
370
25
 62
7
100
AcDbLine
 10
11.85255011599267
 20
-25.47251002319853
 30
0.0
 11
11.99
 21
-25.33506013919121
 31
0.0
  0
LINE
  5
343
330
1F
100
AcDbEntity
  8
SK2
  6
CONTINUOUS
370
25
 62
7
100
AcDbLine
 10
11.49899672539939
 20
-25.40179934507988
 30
0.0
 11
11.99
 21
-24.91079607047927
 31
0.0
  0
LINE
  5
344
330
1F
100
AcDbEntity
  8
SK2
  6
CONTINUOUS
370
25
 62
7
100
AcDbLine
 10
11.14544333480613
 20
-25.33108866696123
 30
0.0
 11
11.99
 21
-24.48653200176735
 31
0.0
  0
LINE
  5
345
330
1F
100
AcDbEntity
  8
SK2
  6
CONTINUOUS
370
25
 62
7
100
AcDbLine
 10
10.79188994421285
 20
-25.26037798884257
 30
0.0
 11
11.99
 21
-24.06226793305542
 31
0.0
  0
LINE
  5
346
330
1F
100
AcDbEntity
  8
SK2
  6
CONTINUOUS
370
25
 62
7
100
AcDbLine
 10
10.43833655361957
 20
-25.18966731072392
 30
0.0
 11
11.99
 21
-23.63800386434349
 31
0.0
  0
LINE
  5
347
330
1F
100
AcDbEntity
  8
SK2
  6
CONTINUOUS
370
25
 62
7
100
AcDbLine
 10
10.0847831630263
 20
-25.11895663260526
 30
0.0
 11
11.63217474453945
 21
-23.57156505109211
 31
0.0
  0
LINE
  5
348
330
1F
100
AcDbEntity
  8
SK2
  6
CONTINUOUS
370
25
 62
7
100
AcDbLine
 10
9.731229772433029
 20
-25.0482459544866
 30
0.0
 11
11.10184465864954
 21
-23.6776310682701
 31
0.0
  0
LINE
  5
349
330
1F
100
AcDbEntity
  8
SK2
  6
CONTINUOUS
370
25
 62
7
100
AcDbLine
 10
9.377676381839755
 20
-24.97753527636795
 30
0.0
 11
10.57151457275963
 21
-23.78369708544808
 31
0.0
  0
LINE
  5
34A
330
1F
100
AcDbEntity
  8
SK2
  6
CONTINUOUS
370
25
 62
7
100
AcDbLine
 10
9.024122991246482
 20
-24.90682459824929
 30
0.0
 11
10.04118448686972
 21
-23.88976310262606
 31
0.0
  0
LINE
  5
34B
330
1F
100
AcDbEntity
  8
SK2
  6
CONTINUOUS
370
25
 62
7
100
AcDbLine
 10
8.67056960065321
 20
-24.83611392013064
 30
0.0
 11
9.510854400979813
 21
-23.99582911980404
 31
0.0
  0
LINE
  5
34C
330
1F
100
AcDbEntity
  8
SK2
  6
CONTINUOUS
370
25
 62
7
100
AcDbLine
 10
8.317016210059936
 20
-24.76540324201198
 30
0.0
 11
8.980524315089903
 21
-24.10189513698202
 31
0.0
  0
LINE
  5
34D
330
1F
100
AcDbEntity
  8
SK2
  6
CONTINUOUS
370
25
 62
7
100
AcDbLine
 10
7.963462819466662
 20
-24.69469256389333
 30
0.0
 11
8.450194229199994
 21
-24.20796115416
 31
0.0
  0
LINE
  5
34E
330
1F
100
AcDbEntity
  8
SK2
  6
CONTINUOUS
370
25
 62
7
100
AcDbLine
 10
7.609909428873389
 20
-24.62398188577468
 30
0.0
 11
7.919864143310084
 21
-24.31402717133798
 31
0.0
  0
LINE
  5
34F
330
1F
100
AcDbEntity
  8
SK2
  6
CONTINUOUS
370
25
 62
7
100
AcDbLine
 10
7.256356038280118
 20
-24.55327120765602
 30
0.0
 11
7.389534057420177
 21
-24.42009318851596
 31
0.0
  0
LINE
  5
350
330
1F
100
AcDbEntity
  8
SK2
  6
CONTINUOUS
370
25
 62
7
100
AcDbLine
 10
7.261540812423132
 20
-24.44569183751537
 30
0.0
 11
7.3973112186347
 21
-24.58146224372694
 31
0.0
  0
LINE
  5
351
330
1F
100
AcDbEntity
  8
SK2
  6
CONTINUOUS
370
25
 62
7
100
AcDbLine
 10
7.615094203016405
 20
-24.37498115939672
 30
0.0
 11
7.92764130452461
 21
-24.68752826090492
 31
0.0
  0
LINE
  5
352
330
1F
100
AcDbEntity
  8
SK2
  6
CONTINUOUS
370
25
 62
7
100
AcDbLine
 10
7.968647593609679
 20
-24.30427048127806
 30
0.0
 11
8.45797139041452
 21
-24.79359427808291
 31
0.0
  0
LINE
  5
353
330
1F
100
AcDbEntity
  8
SK2
  6
CONTINUOUS
370
25
 62
7
100
AcDbLine
 10
8.322200984202953
 20
-24.23355980315941
 30
0.0
 11
8.98830147630443
 21
-24.89966029526089
 31
0.0
  0
LINE
  5
354
330
1F
100
AcDbEntity
  8
SK2
  6
CONTINUOUS
370
25
 62
7
100
AcDbLine
 10
8.675754374796226
 20
-24.16284912504075
 30
0.0
 11
9.518631562194342
 21
-25.00572631243887
 31
0.0
  0
LINE
  5
355
330
1F
100
AcDbEntity
  8
SK2
  6
CONTINUOUS
370
25
 62
7
100
AcDbLine
 10
9.029307765389499
 20
-24.0921384469221
 30
0.0
 11
10.04896164808425
 21
-25.11179232961685
 31
0.0
  0
LINE
  5
356
330
1F
100
AcDbEntity
  8
SK2
  6
CONTINUOUS
370
25
 62
7
100
AcDbLine
 10
9.382861155982772
 20
-24.02142776880344
 30
0.0
 11
10.57929173397416
 21
-25.21785834679483
 31
0.0
  0
LINE
  5
357
330
1F
100
AcDbEntity
  8
SK2
  6
CONTINUOUS
370
25
 62
7
100
AcDbLine
 10
9.736414546576045
 20
-23.95071709068479
 30
0.0
 11
11.10962181986407
 21
-25.32392436397281
 31
0.0
  0
LINE
  5
358
330
1F
100
AcDbEntity
  8
SK2
  6
CONTINUOUS
370
25
 62
7
100
AcDbLine
 10
10.08996793716932
 20
-23.88000641256613
 30
0.0
 11
11.63995190575398
 21
-25.42999038115079
 31
0.0
  0
LINE
  5
359
330
1F
100
AcDbEntity
  8
SK2
  6
CONTINUOUS
370
25
 62
7
100
AcDbLine
 10
10.44352132776259
 20
-23.80929573444748
 30
0.0
 11
11.99
 21
-25.35577440668489
 31
0.0
  0
LINE
  5
35A
330
1F
100
AcDbEntity
  8
SK2
  6
CONTINUOUS
370
25
 62
7
100
AcDbLine
 10
10.79707471835587
 20
-23.73858505632883
 30
0.0
 11
11.99
 21
-24.93151033797296
 31
0.0
  0
LINE
  5
35B
330
1F
100
AcDbEntity
  8
SK2
  6
CONTINUOUS
370
25
 62
7
100
AcDbLine
 10
11.15062810894914
 20
-23.66787437821017
 30
0.0
 11
11.99
 21
-24.50724626926103
 31
0.0
  0
LINE
  5
35C
330
1F
100
AcDbEntity
  8
SK2
  6
CONTINUOUS
370
25
 62
7
100
AcDbLine
 10
11.50418149954241
 20
-23.59716370009152
 30
0.0
 11
11.99
 21
-24.0829822005491
 31
0.0
  0
LINE
  5
35D
330
1F
100
AcDbEntity
  8
SK2
  6
CONTINUOUS
370
25
 62
7
100
AcDbLine
 10
11.85773489013568
 20
-23.52645302197286
 30
0.0
 11
11.99
 21
-23.65871813183718
 31
0.0
  0
TEXT
  5
35E
330
1F
100
AcDbEntity
  8
SK2
  6
CONTINUOUS
370
25
 62
7
100
AcDbText
 10
13.69
 20
-23.0
 30
0.0
 40
3.5
  1
6.99
 72
     1
 11
18.94
 21
-23.0
 31
0.0
100
AcDbText
  0
LINE
  5
35F
330
1F
100
AcDbEntity
  8
SK2
  6
CONTINUOUS
370
25
 62
7
100
AcDbLine
 10
7.003323915911088
 20
0.0
 30
0.0
 11
42.21875698
 21
-0.0000000000000043
 31
0.0
  0
LINE
  5
360
330
1F
100
AcDbEntity
  8
SK2
  6
CONTINUOUS
370
25
 62
7
100
AcDbLine
 10
6.62812092
 20
0.0
 30
0.0
 11
6.94085253435679
 21
0.0
 31
0.0
  0
LINE
  5
361
330
1F
100
AcDbEntity
  8
SK2
  6
CONTINUOUS
370
25
 62
7
100
AcDbLine
 10
42.21875698
 20
6.949999999999996
 30
0.0
 11
7.274511969999999
 21
6.95
 31
0.0
  0
LINE
  5
362
330
1F
100
AcDbEntity
  8
SK2
  6
CONTINUOUS
370
25
 62
7
100
AcDbLine
 10
41.21875698
 20
-18.9
 30
0.0
 11
41.21875698
 21
13.95
 31
0.0
  0
LINE
  5
363
330
1F
100
AcDbEntity
  8
SK2
  6
CONTINUOUS
370
25
 62
7
100
AcDbLine
 10
41.21875698
 20
0.0
 30
0.0
 11
42.21875698
 21
-5.0
 31
0.0
  0
LINE
  5
364
330
1F
100
AcDbEntity
  8
SK2
  6
CONTINUOUS
370
25
 62
7
100
AcDbLine
 10
42.21875698
 20
-5.0
 30
0.0
 11
40.21875698
 21
-5.0
 31
0.0
  0
LINE
  5
365
330
1F
100
AcDbEntity
  8
SK2
  6
CONTINUOUS
370
25
 62
7
100
AcDbLine
 10
40.21875698
 20
-5.0
 30
0.0
 11
41.21875698
 21
0.0
 31
0.0
  0
LINE
  5
366
330
1F
100
AcDbEntity
  8
SK2
  6
CONTINUOUS
370
25
 62
7
100
AcDbLine
 10
42.02450051881684
 20
-5.0
 30
0.0
 11
42.18638090313615
 21
-4.838119615680696
 31
0.0
  0
LINE
  5
367
330
1F
100
AcDbEntity
  8
SK2
  6
CONTINUOUS
370
25
 62
7
100
AcDbLine
 10
41.60023645010491
 20
-5.0
 30
0.0
 11
42.11567022501749
 21
-4.48456622508742
 31
0.0
  0
LINE
  5
368
330
1F
100
AcDbEntity
  8
SK2
  6
CONTINUOUS
370
25
 62
7
100
AcDbLine
 10
41.17597238139297
 20
-5.0
 30
0.0
 11
42.04495954689883
 21
-4.131012834494143
 31
0.0
  0
LINE
  5
369
330
1F
100
AcDbEntity
  8
SK2
  6
CONTINUOUS
370
25
 62
7
100
AcDbLine
 10
40.75170831268104
 20
-5.0
 30
0.0
 11
41.97424886878017
 21
-3.777459443900867
 31
0.0
  0
LINE
  5
36A
330
1F
100
AcDbEntity
  8
SK2
  6
CONTINUOUS
370
25
 62
7
100
AcDbLine
 10
40.32744424396911
 20
-5.0
 30
0.0
 11
41.90353819066152
 21
-3.42390605330759
 31
0.0
  0
LINE
  5
36B
330
1F
100
AcDbEntity
  8
SK2
  6
CONTINUOUS
370
25
 62
7
100
AcDbLine
 10
40.29765118118571
 20
-4.60552899407147
 30
0.0
 11
41.83282751254286
 21
-3.070352662714313
 31
0.0
  0
LINE
  5
36C
330
1F
100
AcDbEntity
  8
SK2
  6
CONTINUOUS
370
25
 62
7
100
AcDbLine
 10
40.40371719836369
 20
-4.075198908181562
 30
0.0
 11
41.76211683442421
 21
-2.716799272121044
 31
0.0
  0
LINE
  5
36D
330
1F
100
AcDbEntity
  8
SK2
  6
CONTINUOUS
370
25
 62
7
100
AcDbLine
 10
40.50978321554167
 20
-3.544868822291654
 30
0.0
 11
41.69140615630555
 21
-2.363245881527767
 31
0.0
  0
LINE
  5
36E
330
1F
100
AcDbEntity
  8
SK2
  6
CONTINUOUS
370
25
 62
7
100
AcDbLine
 10
40.61584923271965
 20
-3.014538736401732
 30
0.0
 11
41.6206954781869
 21
-2.009692490934491
 31
0.0
  0
LINE
  5
36F
330
1F
100
AcDbEntity
  8
SK2
  6
CONTINUOUS
370
25
 62
7
100
AcDbLine
 10
40.72191524989764
 20
-2.48420865051181
 30
0.0
 11
41.54998480006824
 21
-1.656139100341214
 31
0.0
  0
LINE
  5
370
330
1F
100
AcDbEntity
  8
SK2
  6
CONTINUOUS
370
25
 62
7
100
AcDbLine
 10
40.82798126707562
 20
-1.953878564621903
 30
0.0
 11
41.47927412194959
 21
-1.302585709747937
 31
0.0
  0
LINE
  5
371
330
1F
100
AcDbEntity
  8
SK2
  6
CONTINUOUS
370
25
 62
7
100
AcDbLine
 10
40.9340472842536
 20
-1.423548478731995
 30
0.0
 11
41.40856344383093
 21
-0.9490323191546679
 31
0.0
  0
LINE
  5
372
330
1F
100
AcDbEntity
  8
SK2
  6
CONTINUOUS
370
25
 62
7
100
AcDbLine
 10
41.04011330143158
 20
-0.8932183928420798
 30
0.0
 11
41.33785276571228
 21
-0.5954789285613842
 31
0.0
  0
LINE
  5
373
330
1F
100
AcDbEntity
  8
SK2
  6
CONTINUOUS
370
25
 62
7
100
AcDbLine
 10
41.14617931860957
 20
-0.3628883069521578
 30
0.0
 11
41.26714208759362
 21
-0.2419255379681076
 31
0.0
  0
LINE
  5
374
330
1F
100
AcDbEntity
  8
SK2
  6
CONTINUOUS
370
25
 62
7
100
AcDbLine
 10
40.288661111967
 20
-4.65047934016502
 30
0.0
 11
40.63818177180197
 21
-5.0
 31
0.0
  0
LINE
  5
375
330
1F
100
AcDbEntity
  8
SK2
  6
CONTINUOUS
370
25
 62
7
100
AcDbLine
 10
40.35937179008565
 20
-4.296925949571744
 30
0.0
 11
41.06244584051391
 21
-5.0
 31
0.0
  0
LINE
  5
376
330
1F
100
AcDbEntity
  8
SK2
  6
CONTINUOUS
370
25
 62
7
100
AcDbLine
 10
40.4300824682043
 20
-3.943372558978467
 30
0.0
 11
41.48670990922584
 21
-5.0
 31
0.0
  0
LINE
  5
377
330
1F
100
AcDbEntity
  8
SK2
  6
CONTINUOUS
370
25
 62
7
100
AcDbLine
 10
40.50079314632296
 20
-3.589819168385191
 30
0.0
 11
41.91097397793777
 21
-5.0
 31
0.0
  0
LINE
  5
378
330
1F
100
AcDbEntity
  8
SK2
  6
CONTINUOUS
370
25
 62
7
100
AcDbLine
 10
40.57150382444162
 20
-3.236265777791921
 30
0.0
 11
42.18963671333757
 21
-4.854398666687871
 31
0.0
  0
LINE
  5
379
330
1F
100
AcDbEntity
  8
SK2
  6
CONTINUOUS
370
25
 62
7
100
AcDbLine
 10
40.64221450256027
 20
-2.882712387198637
 30
0.0
 11
42.08357069615959
 21
-4.324068580797956
 31
0.0
  0
LINE
  5
37A
330
1F
100
AcDbEntity
  8
SK2
  6
CONTINUOUS
370
25
 62
7
100
AcDbLine
 10
40.71292518067892
 20
-2.529158996605361
 30
0.0
 11
41.97750467898161
 21
-3.793738494908048
 31
0.0
  0
LINE
  5
37B
330
1F
100
AcDbEntity
  8
SK2
  6
CONTINUOUS
370
25
 62
7
100
AcDbLine
 10
40.78363585879758
 20
-2.175605606012084
 30
0.0
 11
41.87143866180362
 21
-3.263408409018126
 31
0.0
  0
LINE
  5
37C
330
1F
100
AcDbEntity
  8
SK2
  6
CONTINUOUS
370
25
 62
7
100
AcDbLine
 10
40.85434653691624
 20
-1.822052215418807
 30
0.0
 11
41.76537264462564
 21
-2.733078323128204
 31
0.0
  0
LINE
  5
37D
330
1F
100
AcDbEntity
  8
SK2
  6
CONTINUOUS
370
25
 62
7
100
AcDbLine
 10
40.9250572150349
 20
-1.468498824825538
 30
0.0
 11
41.65930662744766
 21
-2.202748237238296
 31
0.0
  0
LINE
  5
37E
330
1F
100
AcDbEntity
  8
SK2
  6
CONTINUOUS
370
25
 62
7
100
AcDbLine
 10
40.99576789315355
 20
-1.114945434232254
 30
0.0
 11
41.55324061026968
 21
-1.672418151348381
 31
0.0
  0
LINE
  5
37F
330
1F
100
AcDbEntity
  8
SK2
  6
CONTINUOUS
370
25
 62
7
100
AcDbLine
 10
41.0664785712722
 20
-0.7613920436389776
 30
0.0
 11
41.4471745930917
 21
-1.142088065458474
 31
0.0
  0
LINE
  5
380
330
1F
100
AcDbEntity
  8
SK2
  6
CONTINUOUS
370
25
 62
7
100
AcDbLine
 10
41.13718924939086
 20
-0.407838653045701
 30
0.0
 11
41.34110857591371
 21
-0.6117579795685515
 31
0.0
  0
LINE
  5
381
330
1F
100
AcDbEntity
  8
SK2
  6
CONTINUOUS
370
25
 62
7
100
AcDbLine
 10
41.20789992750952
 20
-0.0542852624524315
 30
0.0
 11
41.23504255873573
 21
-0.0814278936786437
 31
0.0
  0
LINE
  5
382
330
1F
100
AcDbEntity
  8
SK2
  6
CONTINUOUS
370
25
 62
7
100
AcDbLine
 10
41.21875698
 20
6.949999999999996
 30
0.0
 11
40.21875698
 21
11.95
 31
0.0
  0
LINE
  5
383
330
1F
100
AcDbEntity
  8
SK2
  6
CONTINUOUS
370
25
 62
7
100
AcDbLine
 10
40.21875698
 20
11.95
 30
0.0
 11
42.21875698
 21
11.95
 31
0.0
  0
LINE
  5
384
330
1F
100
AcDbEntity
  8
SK2
  6
CONTINUOUS
370
25
 62
7
100
AcDbLine
 10
42.21875698
 20
11.95
 30
0.0
 11
41.21875698
 21
6.949999999999996
 31
0.0
  0
LINE
  5
385
330
1F
100
AcDbEntity
  8
SK2
  6
CONTINUOUS
370
25
 62
7
100
AcDbLine
 10
41.19985853422116
 20
7.044492228894164
 30
0.0
 11
41.24710464866826
 21
7.091738343341255
 31
0.0
  0
LINE
  5
386
330
1F
100
AcDbEntity
  8
SK2
  6
CONTINUOUS
370
25
 62
7
100
AcDbLine
 10
41.12914785610251
 20
7.398045619487441
 30
0.0
 11
41.35317066584624
 21
7.622068429231177
 31
0.0
  0
LINE
  5
387
330
1F
100
AcDbEntity
  8
SK2
  6
CONTINUOUS
370
25
 62
7
100
AcDbLine
 10
41.05843717798385
 20
7.751599010080717
 30
0.0
 11
41.45923668302422
 21
8.152398515121085
 31
0.0
  0
LINE
  5
388
330
1F
100
AcDbEntity
  8
SK2
  6
CONTINUOUS
370
25
 62
7
100
AcDbLine
 10
40.9877264998652
 20
8.105152400673994
 30
0.0
 11
41.56530270020221
 21
8.682728601011007
 31
0.0
  0
LINE
  5
389
330
1F
100
AcDbEntity
  8
SK2
  6
CONTINUOUS
370
25
 62
7
100
AcDbLine
 10
40.91701582174654
 20
8.45870579126727
 30
0.0
 11
41.67136871738019
 21
9.213058686900922
 31
0.0
  0
LINE
  5
38A
330
1F
100
AcDbEntity
  8
SK2
  6
CONTINUOUS
370
25
 62
7
100
AcDbLine
 10
40.84630514362789
 20
8.812259181860547
 30
0.0
 11
41.77743473455817
 21
9.74338877279083
 31
0.0
  0
LINE
  5
38B
330
1F
100
AcDbEntity
  8
SK2
  6
CONTINUOUS
370
25
 62
7
100
AcDbLine
 10
40.77559446550923
 20
9.16581257245382
 30
0.0
 11
41.88350075173616
 21
10.27371885868075
 31
0.0
  0
LINE
  5
38C
330
1F
100
AcDbEntity
  8
SK2
  6
CONTINUOUS
370
25
 62
7
100
AcDbLine
 10
40.70488378739058
 20
9.5193659630471
 30
0.0
 11
41.98956676891414
 21
10.80404894457066
 31
0.0
  0
LINE
  5
38D
330
1F
100
AcDbEntity
  8
SK2
  6
CONTINUOUS
370
25
 62
7
100
AcDbLine
 10
40.63417310927192
 20
9.872919353640373
 30
0.0
 11
42.09563278609212
 21
11.33437903046057
 31
0.0
  0
LINE
  5
38E
330
1F
100
AcDbEntity
  8
SK2
  6
CONTINUOUS
370
25
 62
7
100
AcDbLine
 10
40.56346243115326
 20
10.22647274423365
 30
0.0
 11
42.20169880327011
 21
11.86470911635049
 31
0.0
  0
LINE
  5
38F
330
1F
100
AcDbEntity
  8
SK2
  6
CONTINUOUS
370
25
 62
7
100
AcDbLine
 10
40.49275175303461
 20
10.58002613482693
 30
0.0
 11
41.86272561820768
 21
11.94999999999999
 31
0.0
  0
LINE
  5
390
330
1F
100
AcDbEntity
  8
SK2
  6
CONTINUOUS
370
25
 62
7
100
AcDbLine
 10
40.42204107491596
 20
10.93357952542021
 30
0.0
 11
41.43846154949575
 21
11.95
 31
0.0
  0
LINE
  5
391
330
1F
100
AcDbEntity
  8
SK2
  6
CONTINUOUS
370
25
 62
7
100
AcDbLine
 10
40.3513303967973
 20
11.28713291601348
 30
0.0
 11
41.01419748078382
 21
11.95
 31
0.0
  0
LINE
  5
392
330
1F
100
AcDbEntity
  8
SK2
  6
CONTINUOUS
370
25
 62
7
100
AcDbLine
 10
40.28061971867864
 20
11.64068630660675
 30
0.0
 11
40.58993341207189
 21
11.95
 31
0.0
  0
LINE
  5
393
330
1F
100
AcDbEntity
  8
SK2
  6
CONTINUOUS
370
25
 62
7
100
AcDbLine
 10
41.16942026671003
 20
7.196683566449821
 30
0.0
 11
41.25164812219332
 21
7.114455710966531
 31
0.0
  0
LINE
  5
394
330
1F
100
AcDbEntity
  8
SK2
  6
CONTINUOUS
370
25
 62
7
100
AcDbLine
 10
41.06335424953205
 20
7.727013652339735
 30
0.0
 11
41.32235880031197
 21
7.468009101559815
 31
0.0
  0
LINE
  5
395
330
1F
100
AcDbEntity
  8
SK2
  6
CONTINUOUS
370
25
 62
7
100
AcDbLine
 10
40.95728823235407
 20
8.257343738229643
 30
0.0
 11
41.39306947843062
 21
7.821562492153092
 31
0.0
  0
LINE
  5
396
330
1F
100
AcDbEntity
  8
SK2
  6
CONTINUOUS
370
25
 62
7
100
AcDbLine
 10
40.85122221517609
 20
8.787673824119558
 30
0.0
 11
41.46378015654928
 21
8.175115882746368
 31
0.0
  0
LINE
  5
397
330
1F
100
AcDbEntity
  8
SK2
  6
CONTINUOUS
370
25
 62
7
100
AcDbLine
 10
40.74515619799811
 20
9.318003910009466
 30
0.0
 11
41.53449083466793
 21
8.528669273339645
 31
0.0
  0
LINE
  5
398
330
1F
100
AcDbEntity
  8
SK2
  6
CONTINUOUS
370
25
 62
7
100
AcDbLine
 10
40.63909018082012
 20
9.848333995899388
 30
0.0
 11
41.60520151278659
 21
8.882222663932922
 31
0.0
  0
LINE
  5
399
330
1F
100
AcDbEntity
  8
SK2
  6
CONTINUOUS
370
25
 62
7
100
AcDbLine
 10
40.53302416364214
 20
10.3786640817893
 30
0.0
 11
41.67591219090524
 21
9.235776054526198
 31
0.0
  0
LINE
  5
39A
330
1F
100
AcDbEntity
  8
SK2
  6
CONTINUOUS
370
25
 62
7
100
AcDbLine
 10
40.42695814646415
 20
10.90899416767922
 30
0.0
 11
41.7466228690239
 21
9.589329445119475
 31
0.0
  0
LINE
  5
39B
330
1F
100
AcDbEntity
  8
SK2
  6
CONTINUOUS
370
25
 62
7
100
AcDbLine
 10
40.32089212928616
 20
11.43932425356913
 30
0.0
 11
41.81733354714256
 21
9.942882835712744
 31
0.0
  0
LINE
  5
39C
330
1F
100
AcDbEntity
  8
SK2
  6
CONTINUOUS
370
25
 62
7
100
AcDbLine
 10
40.23448045156724
 20
11.95
 30
0.0
 11
41.88804422526121
 21
10.29643622630603
 31
0.0
  0
LINE
  5
39D
330
1F
100
AcDbEntity
  8
SK2
  6
CONTINUOUS
370
25
 62
7
100
AcDbLine
 10
40.65874452027917
 20
11.95
 30
0.0
 11
41.95875490337986
 21
10.6499896168993
 31
0.0
  0
LINE
  5
39E
330
1F
100
AcDbEntity
  8
SK2
  6
CONTINUOUS
370
25
 62
7
100
AcDbLine
 10
41.0830085889911
 20
11.95
 30
0.0
 11
42.02946558149852
 21
11.00354300749258
 31
0.0
  0
LINE
  5
39F
330
1F
100
AcDbEntity
  8
SK2
  6
CONTINUOUS
370
25
 62
7
100
AcDbLine
 10
41.50727265770303
 20
11.95
 30
0.0
 11
42.10017625961717
 21
11.35709639808586
 31
0.0
  0
LINE
  5
3A0
330
1F
100
AcDbEntity
  8
SK2
  6
CONTINUOUS
370
25
 62
7
100
AcDbLine
 10
41.93153672641497
 20
11.95
 30
0.0
 11
42.17088693773583
 21
11.71064978867913
 31
0.0
  0
TEXT
  5
3A1
330
1F
100
AcDbEntity
  8
SK2
  6
CONTINUOUS
370
25
 62
7
100
AcDbText
 10
39.71875698
 20
-17.2
 30
0.0
 40
3.5
  1
6.95
 50
90.00000000000001
 72
     1
 11
39.71875698
 21
-11.95
 31
0.0
100
AcDbText
  0
LINE
  5
3A2
330
1F
100
AcDbEntity
  8
SK2
  6
CONTINUOUS
370
25
 62
7
100
AcDbLine
 10
1.27695022
 20
1.14977114
 30
0.0
 11
-14.56543535784324
 21
18.74452282750221
 31
0.0
  0
LINE
  5
3A3
330
1F
100
AcDbEntity
  8
SK2
  6
CONTINUOUS
370
25
 62
7
100
AcDbLine
 10
-9.400578820775351
 20
23.39498054169628
 30
0.0
 11
6.441806757067889
 21
5.800228854194064
 31
0.0
  0
LINE
  5
3A4
330
1F
100
AcDbEntity
  8
SK2
  6
CONTINUOUS
370
25
 62
7
100
AcDbLine
 10
-30.54274884217801
 20
3.012852419586395
 30
0.0
 11
-3.52943443607473
 21
27.33574996073089
 31
0.0
  0
LINE
  5
3A5
330
1F
100
AcDbEntity
  8
SK2
  6
CONTINUOUS
370
25
 62
7
100
AcDbLine
 10
-13.89630475148438
 20
18.00137800202482
 30
0.0
 11
-16.9428982725125
 21
13.91258014475313
 31
0.0
  0
LINE
  5
3A6
330
1F
100
AcDbEntity
  8
SK2
  6
CONTINUOUS
370
25
 62
7
100
AcDbLine
 10
-16.9428982725125
 20
13.91258014475313
 30
0.0
 11
-18.28115948523022
 21
15.39886979570792
 31
0.0
  0
LINE
  5
3A7
330
1F
100
AcDbEntity
  8
SK2
  6
CONTINUOUS
370
25
 62
7
100
AcDbLine
 10
-18.28115948523022
 20
15.39886979570792
 30
0.0
 11
-13.89630475148438
 21
18.00137800202482
 31
0.0
  0
LINE
  5
3A8
330
1F
100
AcDbEntity
  8
SK2
  6
CONTINUOUS
370
25
 62
7
100
AcDbLine
 10
-16.99776319816396
 20
13.97351381780681
 30
0.0
 11
-16.60439338600359
 21
14.36688362996718
 31
0.0
  0
LINE
  5
3A9
330
1F
100
AcDbEntity
  8
SK2
  6
CONTINUOUS
370
25
 62
7
100
AcDbLine
 10
-17.19877786368453
 20
14.19676322099817
 30
0.0
 11
-15.36417578376104
 21
16.03136530092166
 31
0.0
  0
LINE
  5
3AA
330
1F
100
AcDbEntity
  8
SK2
  6
CONTINUOUS
370
25
 62
7
100
AcDbLine
 10
-17.39979252920511
 20
14.42001262418952
 30
0.0
 11
-14.1239581815185
 21
17.69584697187613
 31
0.0
  0
LINE
  5
3AB
330
1F
100
AcDbEntity
  8
SK2
  6
CONTINUOUS
370
25
 62
7
100
AcDbLine
 10
-17.60080719472568
 20
14.64326202738087
 30
0.0
 11
-14.7484703226349
 21
17.49559889947166
 31
0.0
  0
LINE
  5
3AC
330
1F
100
AcDbEntity
  8
SK2
  6
CONTINUOUS
370
25
 62
7
100
AcDbLine
 10
-17.80182186024626
 20
14.86651143057223
 30
0.0
 11
-15.79222712380719
 21
16.8761061670113
 31
0.0
  0
LINE
  5
3AD
330
1F
100
AcDbEntity
  8
SK2
  6
CONTINUOUS
370
25
 62
7
100
AcDbLine
 10
-18.00283652576683
 20
15.08976083376358
 30
0.0
 11
-16.83598392497948
 21
16.25661343455094
 31
0.0
  0
LINE
  5
3AE
330
1F
100
AcDbEntity
  8
SK2
  6
CONTINUOUS
370
25
 62
7
100
AcDbLine
 10
-18.20385119128741
 20
15.31301023695493
 30
0.0
 11
-17.87974072615177
 21
15.63712070209057
 31
0.0
  0
LINE
  5
3AF
330
1F
100
AcDbEntity
  8
SK2
  6
CONTINUOUS
370
25
 62
7
100
AcDbLine
 10
-18.23076852891362
 20
15.42877794211214
 30
0.0
 11
-16.84540940749101
 21
14.04341882068953
 31
0.0
  0
LINE
  5
3B0
330
1F
100
AcDbEntity
  8
SK2
  6
CONTINUOUS
370
25
 62
7
100
AcDbLine
 10
-17.96452555198404
 20
15.58679903389448
 30
0.0
 11
-16.66426164776563
 21
14.28653512967607
 31
0.0
  0
LINE
  5
3B1
330
1F
100
AcDbEntity
  8
SK2
  6
CONTINUOUS
370
25
 62
7
100
AcDbLine
 10
-17.69828257505445
 20
15.74482012567682
 30
0.0
 11
-16.48311388804025
 21
14.52965143866263
 31
0.0
  0
LINE
  5
3B2
330
1F
100
AcDbEntity
  8
SK2
  6
CONTINUOUS
370
25
 62
7
100
AcDbLine
 10
-17.43203959812486
 20
15.90284121745916
 30
0.0
 11
-16.30196612831487
 21
14.77276774764917
 31
0.0
  0
LINE
  5
3B3
330
1F
100
AcDbEntity
  8
SK2
  6
CONTINUOUS
370
25
 62
7
100
AcDbLine
 10
-17.16579662119528
 20
16.0608623092415
 30
0.0
 11
-16.1208183685895
 21
15.01588405663572
 31
0.0
  0
LINE
  5
3B4
330
1F
100
AcDbEntity
  8
SK2
  6
CONTINUOUS
370
25
 62
7
100
AcDbLine
 10
-16.89955364426569
 20
16.21888340102385
 30
0.0
 11
-15.93967060886412
 21
15.25900036562227
 31
0.0
  0
LINE
  5
3B5
330
1F
100
AcDbEntity
  8
SK2
  6
CONTINUOUS
370
25
 62
7
100
AcDbLine
 10
-16.63331066733611
 20
16.37690449280619
 30
0.0
 11
-15.75852284913874
 21
15.50211667460882
 31
0.0
  0
LINE
  5
3B6
330
1F
100
AcDbEntity
  8
SK2
  6
CONTINUOUS
370
25
 62
7
100
AcDbLine
 10
-16.36706769040652
 20
16.53492558458853
 30
0.0
 11
-15.57737508941336
 21
15.74523298359537
 31
0.0
  0
LINE
  5
3B7
330
1F
100
AcDbEntity
  8
SK2
  6
CONTINUOUS
370
25
 62
7
100
AcDbLine
 10
-16.10082471347694
 20
16.69294667637087
 30
0.0
 11
-15.39622732968799
 21
15.98834929258192
 31
0.0
  0
LINE
  5
3B8
330
1F
100
AcDbEntity
  8
SK2
  6
CONTINUOUS
370
25
 62
7
100
AcDbLine
 10
-15.83458173654735
 20
16.85096776815321
 30
0.0
 11
-15.21507956996261
 21
16.23146560156847
 31
0.0
  0
LINE
  5
3B9
330
1F
100
AcDbEntity
  8
SK2
  6
CONTINUOUS
370
25
 62
7
100
AcDbLine
 10
-15.56833875961776
 20
17.00898885993556
 30
0.0
 11
-15.03393181023723
 21
16.47458191055502
 31
0.0
  0
LINE
  5
3BA
330
1F
100
AcDbEntity
  8
SK2
  6
CONTINUOUS
370
25
 62
7
100
AcDbLine
 10
-15.30209578268818
 20
17.1670099517179
 30
0.0
 11
-14.85278405051185
 21
16.71769821954157
 31
0.0
  0
LINE
  5
3BB
330
1F
100
AcDbEntity
  8
SK2
  6
CONTINUOUS
370
25
 62
7
100
AcDbLine
 10
-15.03585280575859
 20
17.32503104350024
 30
0.0
 11
-14.67163629078647
 21
16.96081452852812
 31
0.0
  0
LINE
  5
3BC
330
1F
100
AcDbEntity
  8
SK2
  6
CONTINUOUS
370
25
 62
7
100
AcDbLine
 10
-14.76960982882901
 20
17.48305213528258
 30
0.0
 11
-14.49048853106109
 21
17.20393083751467
 31
0.0
  0
LINE
  5
3BD
330
1F
100
AcDbEntity
  8
SK2
  6
CONTINUOUS
370
25
 62
7
100
AcDbLine
 10
-14.50336685189942
 20
17.64107322706492
 30
0.0
 11
-14.30934077133572
 21
17.44704714650122
 31
0.0
  0
LINE
  5
3BE
330
1F
100
AcDbEntity
  8
SK2
  6
CONTINUOUS
370
25
 62
7
100
AcDbLine
 10
-14.23712387496984
 20
17.79909431884727
 30
0.0
 11
-14.12819301161034
 21
17.69016345548777
 31
0.0
  0
LINE
  5
3BF
330
1F
100
AcDbEntity
  8
SK2
  6
CONTINUOUS
370
25
 62
7
100
AcDbLine
 10
-13.97088089804025
 20
17.95711541062961
 30
0.0
 11
-13.94704525188496
 21
17.93327976447432
 31
0.0
  0
LINE
  5
3C0
330
1F
100
AcDbEntity
  8
SK2
  6
CONTINUOUS
370
25
 62
7
100
AcDbLine
 10
-8.731448214416492
 20
22.65183571621888
 30
0.0
 11
-5.684854693388379
 21
26.74063357349057
 31
0.0
  0
LINE
  5
3C1
330
1F
100
AcDbEntity
  8
SK2
  6
CONTINUOUS
370
25
 62
7
100
AcDbLine
 10
-5.684854693388379
 20
26.74063357349057
 30
0.0
 11
-4.346593480670663
 21
25.25434392253578
 31
0.0
  0
LINE
  5
3C2
330
1F
100
AcDbEntity
  8
SK2
  6
CONTINUOUS
370
25
 62
7
100
AcDbLine
 10
-4.346593480670663
 20
25.25434392253578
 30
0.0
 11
-8.731448214416492
 21
22.65183571621888
 31
0.0
  0
LINE
  5
3C3
330
1F
100
AcDbEntity
  8
SK2
  6
CONTINUOUS
370
25
 62
7
100
AcDbLine
 10
-4.586575549890822
 20
25.11190925994416
 30
0.0
 11
-4.392811062506819
 21
25.30567374732816
 31
0.0
  0
LINE
  5
3C4
330
1F
100
AcDbEntity
  8
SK2
  6
CONTINUOUS
370
25
 62
7
100
AcDbLine
 10
-5.630332351063111
 20
24.49241652748379
 30
0.0
 11
-4.593825728027393
 21
25.52892315051951
 31
0.0
  0
LINE
  5
3C5
330
1F
100
AcDbEntity
  8
SK2
  6
CONTINUOUS
370
25
 62
7
100
AcDbLine
 10
-6.674089152235401
 20
23.87292379502343
 30
0.0
 11
-4.794840393547967
 21
25.75217255371087
 31
0.0
  0
LINE
  5
3C6
330
1F
100
AcDbEntity
  8
SK2
  6
CONTINUOUS
370
25
 62
7
100
AcDbLine
 10
-7.717845953407691
 20
23.25343106256307
 30
0.0
 11
-4.995855059068541
 21
25.97542195690222
 31
0.0
  0
LINE
  5
3C7
330
1F
100
AcDbEntity
  8
SK2
  6
CONTINUOUS
370
25
 62
7
100
AcDbLine
 10
-8.695617845257441
 20
22.69992323942525
 30
0.0
 11
-5.196869724589115
 21
26.19867136009357
 31
0.0
  0
LINE
  5
3C8
330
1F
100
AcDbEntity
  8
SK2
  6
CONTINUOUS
370
25
 62
7
100
AcDbLine
 10
-7.455400243014896
 20
24.36440491037972
 30
0.0
 11
-5.397884390109689
 21
26.42192076328493
 31
0.0
  0
LINE
  5
3C9
330
1F
100
AcDbEntity
  8
SK2
  6
CONTINUOUS
370
25
 62
7
100
AcDbLine
 10
-6.215182640772351
 20
26.02888658133419
 30
0.0
 11
-5.598899055630262
 21
26.64517016647628
 31
0.0
  0
LINE
  5
3CA
330
1F
100
AcDbEntity
  8
SK2
  6
CONTINUOUS
370
25
 62
7
100
AcDbLine
 10
-8.697151146330748
 20
22.69786541382435
 30
0.0
 11
-8.681039898459682
 21
22.68175416595328
 31
0.0
  0
LINE
  5
3CB
330
1F
100
AcDbEntity
  8
SK2
  6
CONTINUOUS
370
25
 62
7
100
AcDbLine
 10
-8.516003386605371
 20
22.9409817228109
 30
0.0
 11
-8.414796921530096
 21
22.83977525773562
 31
0.0
  0
LINE
  5
3CC
330
1F
100
AcDbEntity
  8
SK2
  6
CONTINUOUS
370
25
 62
7
100
AcDbLine
 10
-8.334855626879992
 20
23.18409803179745
 30
0.0
 11
-8.14855394460051
 21
22.99779634951796
 31
0.0
  0
LINE
  5
3CD
330
1F
100
AcDbEntity
  8
SK2
  6
CONTINUOUS
370
25
 62
7
100
AcDbLine
 10
-8.153707867154615
 20
23.427214340784
 30
0.0
 11
-7.882310967670924
 21
23.15581744130031
 31
0.0
  0
LINE
  5
3CE
330
1F
100
AcDbEntity
  8
SK2
  6
CONTINUOUS
370
25
 62
7
100
AcDbLine
 10
-7.972560107429237
 20
23.67033064977055
 30
0.0
 11
-7.616067990741339
 21
23.31383853308265
 31
0.0
  0
LINE
  5
3CF
330
1F
100
AcDbEntity
  8
SK2
  6
CONTINUOUS
370
25
 62
7
100
AcDbLine
 10
-7.791412347703859
 20
23.9134469587571
 30
0.0
 11
-7.349825013811752
 21
23.47185962486499
 31
0.0
  0
LINE
  5
3D0
330
1F
100
AcDbEntity
  8
SK2
  6
CONTINUOUS
370
25
 62
7
100
AcDbLine
 10
-7.610264587978481
 20
24.15656326774365
 30
0.0
 11
-7.083582036882166
 21
23.62988071664734
 31
0.0
  0
LINE
  5
3D1
330
1F
100
AcDbEntity
  8
SK2
  6
CONTINUOUS
370
25
 62
7
100
AcDbLine
 10
-7.429116828253103
 20
24.3996795767302
 30
0.0
 11
-6.81733905995258
 21
23.78790180842968
 31
0.0
  0
LINE
  5
3D2
330
1F
100
AcDbEntity
  8
SK2
  6
CONTINUOUS
370
25
 62
7
100
AcDbLine
 10
-7.247969068527725
 20
24.64279588571675
 30
0.0
 11
-6.551096083022995
 21
23.94592290021202
 31
0.0
  0
LINE
  5
3D3
330
1F
100
AcDbEntity
  8
SK2
  6
CONTINUOUS
370
25
 62
7
100
AcDbLine
 10
-7.066821308802346
 20
24.8859121947033
 30
0.0
 11
-6.284853106093409
 21
24.10394399199436
 31
0.0
  0
LINE
  5
3D4
330
1F
100
AcDbEntity
  8
SK2
  6
CONTINUOUS
370
25
 62
7
100
AcDbLine
 10
-6.885673549076968
 20
25.12902850368985
 30
0.0
 11
-6.018610129163823
 21
24.2619650837767
 31
0.0
  0
LINE
  5
3D5
330
1F
100
AcDbEntity
  8
SK2
  6
CONTINUOUS
370
25
 62
7
100
AcDbLine
 10
-6.704525789351591
 20
25.3721448126764
 30
0.0
 11
-5.752367152234237
 21
24.41998617555905
 31
0.0
  0
LINE
  5
3D6
330
1F
100
AcDbEntity
  8
SK2
  6
CONTINUOUS
370
25
 62
7
100
AcDbLine
 10
-6.523378029626213
 20
25.61526112166295
 30
0.0
 11
-5.486124175304652
 21
24.57800726734139
 31
0.0
  0
LINE
  5
3D7
330
1F
100
AcDbEntity
  8
SK2
  6
CONTINUOUS
370
25
 62
7
100
AcDbLine
 10
-6.342230269900835
 20
25.8583774306495
 30
0.0
 11
-5.219881198375066
 21
24.73602835912373
 31
0.0
  0
LINE
  5
3D8
330
1F
100
AcDbEntity
  8
SK2
  6
CONTINUOUS
370
25
 62
7
100
AcDbLine
 10
-6.161082510175458
 20
26.10149373963604
 30
0.0
 11
-4.953638221445482
 21
24.89404945090607
 31
0.0
  0
LINE
  5
3D9
330
1F
100
AcDbEntity
  8
SK2
  6
CONTINUOUS
370
25
 62
7
100
AcDbLine
 10
-5.979934750450079
 20
26.3446100486226
 30
0.0
 11
-4.687395244515895
 21
25.05207054268842
 31
0.0
  0
LINE
  5
3DA
330
1F
100
AcDbEntity
  8
SK2
  6
CONTINUOUS
370
25
 62
7
100
AcDbLine
 10
-5.7987869907247
 20
26.58772635760915
 30
0.0
 11
-4.421152267586309
 21
25.21009163447076
 31
0.0
  0
TEXT
  5
3DB
330
1F
100
AcDbEntity
  8
SK2
  6
CONTINUOUS
370
25
 62
7
100
AcDbText
 10
-27.29194062585822
 20
7.95834237920695
 30
0.0
 40
3.499999999999999
  1
6.95
 50
42.0
 72
     1
 11
-23.3904302921019
 21
11.47127806259095
 31
0.0
100
AcDbText
  0
CIRCLE
  5
3DC
330
1F
100
AcDbEntity
  8
SK2
  6
CONTINUOUS
370
25
 62
7
100
AcDbCircle
 10
-30.54372469832293
 20
7.385280125987585
 30
0.0
 40
1.400000000000001
  0
LINE
  5
3DD
330
1F
100
AcDbEntity
  8
SK2
  6
CONTINUOUS
370
25
 62
7
100
AcDbLine
 10
-30.64734460508888
 20
5.408094521416833
 30
0.0
 11
-30.44010479155697
 21
9.36246573055834
 31
0.0
  0
LINE
  5
3DE
330
1F
100
AcDbEntity
  8
SK2
  6
CONTINUOUS
370
25
 62
7
100
AcDbLine
 10
6.89577316
 20
0.10274207
 30
0.0
 11
13.77869039621255
 21
-9.727082461467901
 31
0.0
  0
LINE
  5
3DF
330
1F
100
AcDbEntity
  8
SK2
  6
CONTINUOUS
370
25
 62
7
100
AcDbLine
 10
13.77869039621255
 20
-9.727082461467901
 30
0.0
 11
27.20369039621255
 21
-9.727082461467901
 31
0.0
  0
LINE
  5
3E0
330
1F
100
AcDbEntity
  8
SK2
  6
CONTINUOUS
370
25
 62
7
100
AcDbLine
 10
6.89577316
 20
0.10274207
 30
0.0
 11
10.58280738604422
 21
-3.419441715093912
 31
0.0
  0
LINE
  5
3E1
330
1F
100
AcDbEntity
  8
SK2
  6
CONTINUOUS
370
25
 62
7
100
AcDbLine
 10
10.58280738604422
 20
-3.419441715093912
 30
0.0
 11
8.94450329746624
 21
-4.566594587796004
 31
0.0
  0
LINE
  5
3E2
330
1F
100
AcDbEntity
  8
SK2
  6
CONTINUOUS
370
25
 62
7
100
AcDbLine
 10
8.94450329746624
 20
-4.566594587796004
 30
0.0
 11
6.89577316
 21
0.10274207
 31
0.0
  0
LINE
  5
3E3
330
1F
100
AcDbEntity
  8
SK2
  6
CONTINUOUS
370
25
 62
7
100
AcDbLine
 10
9.917882778576107
 20
-3.885026937584218
 30
0.0
 11
10.4808585846796
 21
-3.322051131480729
 31
0.0
  0
LINE
  5
3E4
330
1F
100
AcDbEntity
  8
SK2
  6
CONTINUOUS
370
25
 62
7
100
AcDbLine
 10
8.904110889999341
 20
-4.474534757449057
 30
0.0
 11
10.26387580793393
 21
-3.114769839514471
 31
0.0
  0
LINE
  5
3E5
330
1F
100
AcDbEntity
  8
SK2
  6
CONTINUOUS
370
25
 62
7
100
AcDbLine
 10
8.774728046645185
 20
-4.179653532091285
 30
0.0
 11
10.04689303118825
 21
-2.907488547548216
 31
0.0
  0
LINE
  5
3E6
330
1F
100
AcDbEntity
  8
SK2
  6
CONTINUOUS
370
25
 62
7
100
AcDbLine
 10
8.64534520329103
 20
-3.884772306733513
 30
0.0
 11
9.829910254442584
 21
-2.700207255581958
 31
0.0
  0
LINE
  5
3E7
330
1F
100
AcDbEntity
  8
SK2
  6
CONTINUOUS
370
25
 62
7
100
AcDbLine
 10
8.515962359936873
 20
-3.589891081375741
 30
0.0
 11
9.612927477696914
 21
-2.492925963615701
 31
0.0
  0
LINE
  5
3E8
330
1F
100
AcDbEntity
  8
SK2
  6
CONTINUOUS
370
25
 62
7
100
AcDbLine
 10
8.386579516582715
 20
-3.29500985601797
 30
0.0
 11
9.395944700951242
 21
-2.285644671649443
 31
0.0
  0
LINE
  5
3E9
330
1F
100
AcDbEntity
  8
SK2
  6
CONTINUOUS
370
25
 62
7
100
AcDbLine
 10
8.25719667322856
 20
-3.000128630660198
 30
0.0
 11
9.178961924205572
 21
-2.078363379683186
 31
0.0
  0
LINE
  5
3EA
330
1F
100
AcDbEntity
  8
SK2
  6
CONTINUOUS
370
25
 62
7
100
AcDbLine
 10
8.127813829874402
 20
-2.705247405302428
 30
0.0
 11
8.961979147459902
 21
-1.871082087716928
 31
0.0
  0
LINE
  5
3EB
330
1F
100
AcDbEntity
  8
SK2
  6
CONTINUOUS
370
25
 62
7
100
AcDbLine
 10
7.998430986520246
 20
-2.410366179944656
 30
0.0
 11
8.74499637071423
 21
-1.663800795750673
 31
0.0
  0
LINE
  5
3EC
330
1F
100
AcDbEntity
  8
SK2
  6
CONTINUOUS
370
25
 62
7
100
AcDbLine
 10
7.86904814316609
 20
-2.115484954586885
 30
0.0
 11
8.52801359396856
 21
-1.456519503784415
 31
0.0
  0
LINE
  5
3ED
330
1F
100
AcDbEntity
  8
SK2
  6
CONTINUOUS
370
25
 62
7
100
AcDbLine
 10
7.739665299811934
 20
-1.820603729229111
 30
0.0
 11
8.311030817222889
 21
-1.249238211818156
 31
0.0
  0
LINE
  5
3EE
330
1F
100
AcDbEntity
  8
SK2
  6
CONTINUOUS
370
25
 62
7
100
AcDbLine
 10
7.610282456457777
 20
-1.52572250387134
 30
0.0
 11
8.094048040477217
 21
-1.0419569198519
 31
0.0
  0
LINE
  5
3EF
330
1F
100
AcDbEntity
  8
SK2
  6
CONTINUOUS
370
25
 62
7
100
AcDbLine
 10
7.480899613103621
 20
-1.230841278513569
 30
0.0
 11
7.877065263731545
 21
-0.8346756278856446
 31
0.0
  0
LINE
  5
3F0
330
1F
100
AcDbEntity
  8
SK2
  6
CONTINUOUS
370
25
 62
7
100
AcDbLine
 10
7.351516769749464
 20
-0.9359600531557977
 30
0.0
 11
7.660082486985875
 21
-0.6273943359193872
 31
0.0
  0
LINE
  5
3F1
330
1F
100
AcDbEntity
  8
SK2
  6
CONTINUOUS
370
25
 62
7
100
AcDbLine
 10
7.222133926395308
 20
-0.6410788277980259
 30
0.0
 11
7.443099710240204
 21
-0.4201130439531307
 31
0.0
  0
LINE
  5
3F2
330
1F
100
AcDbEntity
  8
SK2
  6
CONTINUOUS
370
25
 62
7
100
AcDbLine
 10
7.092751083041152
 20
-0.3461976024402533
 30
0.0
 11
7.226116933494533
 21
-0.2128317519868723
 31
0.0
  0
LINE
  5
3F3
330
1F
100
AcDbEntity
  8
SK2
  6
CONTINUOUS
370
25
 62
7
100
AcDbLine
 10
6.963368239686996
 20
-0.0513163770824834
 30
0.0
 11
7.009134156748864
 21
-0.0055504600206149
 31
0.0
  0
LINE
  5
3F4
330
1F
100
AcDbEntity
  8
SK2
  6
CONTINUOUS
370
25
 62
7
100
AcDbLine
 10
8.718572809701108
 20
-4.051668053869891
 30
0.0
 11
9.114480220674855
 21
-4.447575464843638
 31
0.0
  0
LINE
  5
3F5
330
1F
100
AcDbEntity
  8
SK2
  6
CONTINUOUS
370
25
 62
7
100
AcDbLine
 10
8.386892881000938
 20
-3.295724056457791
 30
0.0
 11
9.364016856160351
 21
-4.272848031617205
 31
0.0
  0
LINE
  5
3F6
330
1F
100
AcDbEntity
  8
SK2
  6
CONTINUOUS
370
25
 62
7
100
AcDbLine
 10
8.055212952300769
 20
-2.539780059045695
 30
0.0
 11
9.613553491645845
 21
-4.098120598390771
 31
0.0
  0
LINE
  5
3F7
330
1F
100
AcDbEntity
  8
SK2
  6
CONTINUOUS
370
25
 62
7
100
AcDbLine
 10
7.723533023600601
 20
-1.7838360616336
 30
0.0
 11
9.863090127131342
 21
-3.923393165164339
 31
0.0
  0
LINE
  5
3F8
330
1F
100
AcDbEntity
  8
SK2
  6
CONTINUOUS
370
25
 62
7
100
AcDbLine
 10
7.391853094900433
 20
-1.027892064221501
 30
0.0
 11
10.11262676261684
 21
-3.748665731937908
 31
0.0
  0
LINE
  5
3F9
330
1F
100
AcDbEntity
  8
SK2
  6
CONTINUOUS
370
25
 62
7
100
AcDbLine
 10
7.060173166200261
 20
-0.2719480668094025
 30
0.0
 11
10.36216339810233
 21
-3.573938298711473
 31
0.0
  0
TEXT
  5
3FA
330
1F
100
AcDbEntity
  8
SK2
  6
CONTINUOUS
370
25
 62
7
100
AcDbText
 10
15.53285706287922
 20
-8.227082461467901
 30
0.0
 40
3.5
  1
R0.4
 72
     1
 11
20.49119039621255
 21
-8.227082461467901
 31
0.0
100
AcDbText
  0
ARC
  5
3FB
330
1F
100
AcDbEntity
  8
SK6
  6
CONTINUOUS
370
25
 62
5
100
AcDbCircle
 10
0.7555122783765058
 20
-43.34523475338786
 30
0.0
 40
2.760489128492208
100
AcDbArc
 50
338.9379403434233
 51
90.44457437511382
  0
LINE
  5
3FC
330
1F
100
AcDbEntity
  8
SK6
  6
CONTINUOUS
370
25
 62
5
100
AcDbLine
 10
0.7340930669598258
 20
-40.58482872421281
 30
0.0
 11
0.7340930669598258
 21
-41.68788735613464
 31
0.0
  0
ARC
  5
3FD
330
1F
100
AcDbEntity
  8
SK6
  6
CONTINUOUS
370
25
 62
5
100
AcDbCircle
 10
0.7446392993691586
 20
-43.36522824566821
 30
0.0
 40
1.677374043771784
100
AcDbArc
 50
243.4214706017865
 51
90.3602408122611
  0
ARC
  5
3FE
330
1F
100
AcDbEntity
  8
SK6
  6
CONTINUOUS
370
25
 62
5
100
AcDbCircle
 10
3.266890166849577
 20
-42.9338209921556
 30
0.0
 40
3.800217030022756
100
AcDbArc
 50
210.548373128854
 51
236.9780169366801
  0
LINE
  5
3FF
330
1F
100
AcDbEntity
  8
SK6
  6
CONTINUOUS
370
25
 62
5
100
AcDbLine
 10
1.195920955124864
 20
-46.12015681867535
 30
0.0
 11
5.33786123742671
 21
-46.12015681867535
 31
0.0
  0
ARC
  5
400
330
1F
100
AcDbEntity
  8
SK6
  6
CONTINUOUS
370
25
 62
5
100
AcDbCircle
 10
3.26689210877257
 20
-42.93382109373459
 30
0.0
 40
3.800216899582476
100
AcDbArc
 50
303.0219828477958
 51
326.3732153033476
  0
LINE
  5
401
330
1F
100
AcDbEntity
  8
SK6
  6
CONTINUOUS
370
25
 62
5
100
AcDbLine
 10
6.431190021357221
 20
-45.0383084907709
 30
0.0
 11
3.073891975754615
 21
-45.0383084907709
 31
0.0
  0
LINE
  5
402
330
1F
100
AcDbEntity
  8
SK6
  6
CONTINUOUS
370
25
 62
5
100
AcDbLine
 10
3.073891975754615
 20
-45.0383084907709
 30
0.0
 11
6.99375136771987
 21
-43.67690729641694
 31
0.0
  0
ARC
  5
403
330
1F
100
AcDbEntity
  8
SK6
  6
CONTINUOUS
370
25
 62
5
100
AcDbCircle
 10
3.266892831572103
 20
-42.9338216048594
 30
0.0
 40
3.800217216614731
100
AcDbArc
 50
348.7238644184695
 51
53.46910512608832
  0
LINE
  5
404
330
1F
100
AcDbEntity
  8
SK6
  6
CONTINUOUS
370
25
 62
5
100
AcDbLine
 10
5.528995515385451
 20
-39.88021024429968
 30
0.0
 11
3.331580748827362
 21
-44.33729873507058
 31
0.0
  0
ARC
  5
405
330
1F
100
AcDbEntity
  8
SK6
  6
CONTINUOUS
370
25
 62
5
100
AcDbCircle
 10
27.90093480837651
 20
-24.54524575338786
 30
0.0
 40
2.760489128492207
100
AcDbArc
 50
338.9379403434233
 51
90.44457437511385
  0
LINE
  5
406
330
1F
100
AcDbEntity
  8
SK6
  6
CONTINUOUS
370
25
 62
5
100
AcDbLine
 10
27.87951559695983
 20
-21.78483972421281
 30
0.0
 11
27.87951559695983
 21
-22.88789835613463
 31
0.0
  0
ARC
  5
407
330
1F
100
AcDbEntity
  8
SK6
  6
CONTINUOUS
370
25
 62
5
100
AcDbCircle
 10
27.89006182936916
 20
-24.56523924566821
 30
0.0
 40
1.677374043771784
100
AcDbArc
 50
243.4214706017865
 51
90.36024081226107
  0
ARC
  5
408
330
1F
100
AcDbEntity
  8
SK6
  6
CONTINUOUS
370
25
 62
5
100
AcDbCircle
 10
30.41231269684958
 20
-24.13383199215561
 30
0.0
 40
3.800217030022754
100
AcDbArc
 50
210.5483731288539
 51
236.97801693668
  0
LINE
  5
409
330
1F
100
AcDbEntity
  8
SK6
  6
CONTINUOUS
370
25
 62
5
100
AcDbLine
 10
28.34134348512487
 20
-27.32016781867535
 30
0.0
 11
32.48328376742671
 21
-27.32016781867535
 31
0.0
  0
ARC
  5
40A
330
1F
100
AcDbEntity
  8
SK6
  6
CONTINUOUS
370
25
 62
5
100
AcDbCircle
 10
30.41231463877257
 20
-24.1338320937346
 30
0.0
 40
3.800216899582472
100
AcDbArc
 50
303.0219828477959
 51
326.3732153033475
  0
LINE
  5
40B
330
1F
100
AcDbEntity
  8
SK6
  6
CONTINUOUS
370
25
 62
5
100
AcDbLine
 10
33.57661255135722
 20
-26.2383194907709
 30
0.0
 11
30.21931450575462
 21
-26.2383194907709
 31
0.0
  0
LINE
  5
40C
330
1F
100
AcDbEntity
  8
SK6
  6
CONTINUOUS
370
25
 62
5
100
AcDbLine
 10
30.21931450575462
 20
-26.2383194907709
 30
0.0
 11
34.13917389771987
 21
-24.87691829641694
 31
0.0
  0
ARC
  5
40D
330
1F
100
AcDbEntity
  8
SK6
  6
CONTINUOUS
370
25
 62
5
100
AcDbCircle
 10
30.41231536157211
 20
-24.1338326048594
 30
0.0
 40
3.80021721661473
100
AcDbArc
 50
348.7238644184695
 51
53.46910512608842
  0
LINE
  5
40E
330
1F
100
AcDbEntity
  8
SK6
  6
CONTINUOUS
370
25
 62
5
100
AcDbLine
 10
32.67441804538545
 20
-21.08022124429967
 30
0.0
 11
30.47700327882736
 21
-25.53730973507058
 31
0.0
  0
ENDSEC
  0
SECTION
  2
OBJECTS
  0
DICTIONARY
  5
C
330
0
100
AcDbDictionary
281
     1
  3
ACAD_GROUP
350
D
  3
ACAD_LAYOUT
350
1A
  3
ACAD_MATERIAL
350
3B
  3
ACAD_MLEADERSTYLE
350
411
  3
ACAD_MLINESTYLE
350
17
  3
ACAD_PLOTSETTINGS
350
19
  3
ACAD_PLOTSTYLENAME
350
E
  3
ACAD_SCALELIST
350
A1
  3
ACAD_VISUALSTYLE
350
2A
  3
AcDbVariableDictionary
350
40F
  0
DICTIONARY
  5
D
102
{ACAD_REACTORS
330
C
102
}
330
C
100
AcDbDictionary
281
     1
  0
DICTIONARY
  5
1A
102
{ACAD_REACTORS
330
C
102
}
330
C
100
AcDbDictionary
281
     1
  3
Layout1
350
1E
  3
Layout2
350
26
  3
Model
350
22
  0
DICTIONARY
  5
3B
102
{ACAD_REACTORS
330
C
102
}
330
C
100
AcDbDictionary
281
     1
  3
ByBlock
350
3D
  3
ByLayer
350
3C
  3
Global
350
3E
  0
DICTIONARY
  5
411
102
{ACAD_REACTORS
330
C
102
}
330
C
100
AcDbDictionary
281
     1
  0
DICTIONARY
  5
17
102
{ACAD_REACTORS
330
C
102
}
330
C
100
AcDbDictionary
281
     1
  3
Standard
350
18
  0
DICTIONARY
  5
19
102
{ACAD_REACTORS
330
C
102
}
330
C
100
AcDbDictionary
281
     1
  0
ACDBDICTIONARYWDFLT
  5
E
102
{ACAD_REACTORS
330
C
102
}
330
C
100
AcDbDictionary
281
     1
  3
Normal
350
F
100
AcDbDictionaryWithDefault
340
F
  0
DICTIONARY
  5
A1
102
{ACAD_REACTORS
330
C
102
}
330
C
100
AcDbDictionary
281
     1
  3
A0
350
A2
  3
A1
350
A3
  3
A2
350
A4
  3
A3
350
A5
  3
A4
350
A6
  3
A5
350
A7
  3
A6
350
A8
  3
A7
350
A9
  3
A8
350
AA
  3
A9
350
AB
  3
B0
350
AC
  3
B1
350
AD
  3
B2
350
AE
  3
B3
350
AF
  3
B4
350
B0
  3
B5
350
B1
  3
B6
350
B2
  3
B7
350
B3
  3
B8
350
B4
  3
B9
350
B5
  3
C0
350
B6
  3
C1
350
B7
  3
C2
350
B8
  3
C3
350
B9
  3
C4
350
BA
  3
C5
350
BB
  3
C6
350
BC
  3
C7
350
BD
  3
C8
350
BE
  3
C9
350
BF
  3
D0
350
C0
  3
D1
350
C1
  3
D2
350
C2
  0
DICTIONARY
  5
2A
102
{ACAD_REACTORS
330
C
102
}
330
C
100
AcDbDictionary
281
     1
  3
2dWireframe
350
2F
  3
3D Hidden
350
31
  3
3dWireframe
350
30
  3
Basic
350
32
  3
Brighten
350
36
  3
ColorChange
350
3A
  3
Conceptual
350
34
  3
Dim
350
35
  3
Facepattern
350
39
  3
Flat
350
2B
  3
FlatWithEdges
350
2C
  3
Gouraud
350
2D
  3
GouraudWithEdges
350
2E
  3
Linepattern
350
38
  3
Realistic
350
33
  3
Thicken
350
37
  0
DICTIONARY
  5
40F
102
{ACAD_REACTORS
330
C
102
}
330
C
100
AcDbDictionary
281
     1
  3
CANNOSCALE
350
414
  3
DIMASSOC
350
415
  3
HIDETEXT
350
416
  3
PSOLHEIGHT
350
413
  3
PSOLWIDTH
350
412
  0
LAYOUT
  5
1E
102
{ACAD_REACTORS
330
1A
102
}
330
1A
100
AcDbPlotSettings
  1

  2
none_device
  4

  6

 40
0.0
 41
0.0
 42
0.0
 43
0.0
 44
0.0
 45
0.0
 46
0.0
 47
0.0
 48
0.0
 49
0.0
140
0.0
141
0.0
142
1.0
143
1.0
 70
   688
 72
     0
 73
     0
 74
     5
  7

 75
    16
147
1.0
148
0.0
149
0.0
100
AcDbLayout
  1
Layout1
 70
     1
 71
     1
 10
0.0
 20
0.0
 11
420.0
 21
297.0
 12
0.0
 22
0.0
 32
0.0
 14
1.000000000000000E+20
 24
1.000000000000000E+20
 34
1.000000000000000E+20
 15
-1.000000000000000E+20
 25
-1.000000000000000E+20
 35
-1.000000000000000E+20
146
0.0
 13
0.0
 23
0.0
 33
0.0
 16
1.0
 26
0.0
 36
0.0
 17
0.0
 27
1.0
 37
0.0
 76
     0
330
1B
  0
LAYOUT
  5
26
102
{ACAD_REACTORS
330
1A
102
}
330
1A
100
AcDbPlotSettings
  1

  2
none_device
  4

  6

 40
0.0
 41
0.0
 42
0.0
 43
0.0
 44
0.0
 45
0.0
 46
0.0
 47
0.0
 48
0.0
 49
0.0
140
0.0
141
0.0
142
1.0
143
1.0
 70
   688
 72
     0
 73
     0
 74
     5
  7

 75
    16
147
1.0
148
0.0
149
0.0
100
AcDbLayout
  1
Layout2
 70
     1
 71
     2
 10
0.0
 20
0.0
 11
0.0
 21
0.0
 12
0.0
 22
0.0
 32
0.0
 14
0.0
 24
0.0
 34
0.0
 15
0.0
 25
0.0
 35
0.0
146
0.0
 13
0.0
 23
0.0
 33
0.0
 16
1.0
 26
0.0
 36
0.0
 17
0.0
 27
1.0
 37
0.0
 76
     0
330
23
  0
LAYOUT
  5
22
102
{ACAD_REACTORS
330
1A
102
}
330
1A
100
AcDbPlotSettings
  1

  2
none_device
  4

  6

 40
0.0
 41
0.0
 42
0.0
 43
0.0
 44
0.0
 45
0.0
 46
0.0
 47
0.0
 48
0.0
 49
0.0
140
0.0
141
0.0
142
1.0
143
1.0
 70
  1712
 72
     0
 73
     0
 74
     0
  7

 75
     0
147
1.0
148
0.0
149
0.0
100
AcDbLayout
  1
Model
 70
     1
 71
     0
 10
0.0
 20
0.0
 11
420.0
 21
297.0
 12
0.0
 22
0.0
 32
0.0
 14
0.0
 24
0.0
 34
0.0
 15
25.0
 25
35.0
 35
0.0
146
0.0
 13
0.0
 23
0.0
 33
0.0
 16
1.0
 26
0.0
 36
0.0
 17
0.0
 27
1.0
 37
0.0
 76
     0
330
1F
331
29
  0
MATERIAL
  5
3D
102
{ACAD_REACTORS
330
3B
102
}
102
{ACAD_XDICTIONARY
360
439
102
}
330
3B
100
AcDbMaterial
  1
ByBlock
  0
MATERIAL
  5
3C
102
{ACAD_REACTORS
330
3B
102
}
102
{ACAD_XDICTIONARY
360
437
102
}
330
3B
100
AcDbMaterial
  1
ByLayer
  0
MATERIAL
  5
3E
102
{ACAD_REACTORS
330
3B
102
}
102
{ACAD_XDICTIONARY
360
43B
102
}
330
3B
100
AcDbMaterial
  1
Global
  0
MLINESTYLE
  5
18
102
{ACAD_REACTORS
330
17
102
}
330
17
100
AcDbMlineStyle
  2
Standard
 70
     0
  3

 62
   256
 51
90.0
 52
90.0
 71
     2
 49
0.5
 62
   256
  6
BYLAYER
 49
-0.5
 62
   256
  6
BYLAYER
  0
ACDBPLACEHOLDER
  5
F
102
{ACAD_REACTORS
330
E
102
}
330
E
  0
SCALE
  5
A2
102
{ACAD_REACTORS
330
A1
102
}
330
A1
100
AcDbScale
 70
     0
300
1:1
140
1.0
141
1.0
290
     1
  0
SCALE
  5
A3
102
{ACAD_REACTORS
330
A1
102
}
330
A1
100
AcDbScale
 70
     0
300
1:2
140
1.0
141
2.0
290
     0
  0
SCALE
  5
A4
102
{ACAD_REACTORS
330
A1
102
}
330
A1
100
AcDbScale
 70
     0
300
1:4
140
1.0
141
4.0
290
     0
  0
SCALE
  5
A5
102
{ACAD_REACTORS
330
A1
102
}
330
A1
100
AcDbScale
 70
     0
300
1:5
140
1.0
141
5.0
290
     0
  0
SCALE
  5
A6
102
{ACAD_REACTORS
330
A1
102
}
330
A1
100
AcDbScale
 70
     0
300
1:8
140
1.0
141
8.0
290
     0
  0
SCALE
  5
A7
102
{ACAD_REACTORS
330
A1
102
}
330
A1
100
AcDbScale
 70
     0
300
1:10
140
1.0
141
10.0
290
     0
  0
SCALE
  5
A8
102
{ACAD_REACTORS
330
A1
102
}
330
A1
100
AcDbScale
 70
     0
300
1:16
140
1.0
141
16.0
290
     0
  0
SCALE
  5
A9
102
{ACAD_REACTORS
330
A1
102
}
330
A1
100
AcDbScale
 70
     0
300
1:20
140
1.0
141
20.0
290
     0
  0
SCALE
  5
AA
102
{ACAD_REACTORS
330
A1
102
}
330
A1
100
AcDbScale
 70
     0
300
1:30
140
1.0
141
30.0
290
     0
  0
SCALE
  5
AB
102
{ACAD_REACTORS
330
A1
102
}
330
A1
100
AcDbScale
 70
     0
300
1:40
140
1.0
141
40.0
290
     0
  0
SCALE
  5
AC
102
{ACAD_REACTORS
330
A1
102
}
330
A1
100
AcDbScale
 70
     0
300
1:50
140
1.0
141
50.0
290
     0
  0
SCALE
  5
AD
102
{ACAD_REACTORS
330
A1
102
}
330
A1
100
AcDbScale
 70
     0
300
1:100
140
1.0
141
100.0
290
     0
  0
SCALE
  5
AE
102
{ACAD_REACTORS
330
A1
102
}
330
A1
100
AcDbScale
 70
     0
300
2:1
140
2.0
141
1.0
290
     0
  0
SCALE
  5
AF
102
{ACAD_REACTORS
330
A1
102
}
330
A1
100
AcDbScale
 70
     0
300
4:1
140
4.0
141
1.0
290
     0
  0
SCALE
  5
B0
102
{ACAD_REACTORS
330
A1
102
}
330
A1
100
AcDbScale
 70
     0
300
8:1
140
8.0
141
1.0
290
     0
  0
SCALE
  5
B1
102
{ACAD_REACTORS
330
A1
102
}
330
A1
100
AcDbScale
 70
     0
300
10:1
140
10.0
141
1.0
290
     0
  0
SCALE
  5
B2
102
{ACAD_REACTORS
330
A1
102
}
330
A1
100
AcDbScale
 70
     0
300
100:1
140
100.0
141
1.0
290
     0
  0
SCALE
  5
B3
102
{ACAD_REACTORS
330
A1
102
}
330
A1
100
AcDbScale
 70
     0
300
1/128" = 1'-0"
140
0.0078125
141
12.0
290
     0
  0
SCALE
  5
B4
102
{ACAD_REACTORS
330
A1
102
}
330
A1
100
AcDbScale
 70
     0
300
1/64" = 1'-0"
140
0.015625
141
12.0
290
     0
  0
SCALE
  5
B5
102
{ACAD_REACTORS
330
A1
102
}
330
A1
100
AcDbScale
 70
     0
300
1/32" = 1'-0"
140
0.03125
141
12.0
290
     0
  0
SCALE
  5
B6
102
{ACAD_REACTORS
330
A1
102
}
330
A1
100
AcDbScale
 70
     0
300
1/16" = 1'-0"
140
0.0625
141
12.0
290
     0
  0
SCALE
  5
B7
102
{ACAD_REACTORS
330
A1
102
}
330
A1
100
AcDbScale
 70
     0
300
3/32" = 1'-0"
140
0.09375
141
12.0
290
     0
  0
SCALE
  5
B8
102
{ACAD_REACTORS
330
A1
102
}
330
A1
100
AcDbScale
 70
     0
300
1/8" = 1'-0"
140
0.125
141
12.0
290
     0
  0
SCALE
  5
B9
102
{ACAD_REACTORS
330
A1
102
}
330
A1
100
AcDbScale
 70
     0
300
3/16" = 1'-0"
140
0.1875
141
12.0
290
     0
  0
SCALE
  5
BA
102
{ACAD_REACTORS
330
A1
102
}
330
A1
100
AcDbScale
 70
     0
300
1/4" = 1'-0"
140
0.25
141
12.0
290
     0
  0
SCALE
  5
BB
102
{ACAD_REACTORS
330
A1
102
}
330
A1
100
AcDbScale
 70
     0
300
3/8" = 1'-0"
140
0.375
141
12.0
290
     0
  0
SCALE
  5
BC
102
{ACAD_REACTORS
330
A1
102
}
330
A1
100
AcDbScale
 70
     0
300
1/2" = 1'-0"
140
0.5
141
12.0
290
     0
  0
SCALE
  5
BD
102
{ACAD_REACTORS
330
A1
102
}
330
A1
100
AcDbScale
 70
     0
300
3/4" = 1'-0"
140
0.75
141
12.0
290
     0
  0
SCALE
  5
BE
102
{ACAD_REACTORS
330
A1
102
}
330
A1
100
AcDbScale
 70
     0
300
1" = 1'-0"
140
1.0
141
12.0
290
     0
  0
SCALE
  5
BF
102
{ACAD_REACTORS
330
A1
102
}
330
A1
100
AcDbScale
 70
     0
300
1-1/2" = 1'-0"
140
1.5
141
12.0
290
     0
  0
SCALE
  5
C0
102
{ACAD_REACTORS
330
A1
102
}
330
A1
100
AcDbScale
 70
     0
300
3" = 1'-0"
140
3.0
141
12.0
290
     0
  0
SCALE
  5
C1
102
{ACAD_REACTORS
330
A1
102
}
330
A1
100
AcDbScale
 70
     0
300
6" = 1'-0"
140
6.0
141
12.0
290
     0
  0
SCALE
  5
C2
102
{ACAD_REACTORS
330
A1
102
}
330
A1
100
AcDbScale
 70
     0
300
1'-0" = 1'-0"
140
12.0
141
12.0
290
     0
  0
VISUALSTYLE
  5
2F
102
{ACAD_REACTORS
330
2A
102
}
102
{ACAD_XDICTIONARY
360
41F
102
}
330
2A
100
AcDbVisualStyle
  2
2dWireframe
 70
     4
 71
     0
 72
     2
 73
     0
 90
        0
 40
-0.6
 41
-30.0
 62
     5
 63
     7
 74
     1
 91
        4
 64
     7
 65
   257
 75
     1
175
     1
 42
1.0
 92
        0
 66
   257
 43
1.0
 76
     1
 77
     6
 78
     2
 67
     7
 79
     5
170
     0
171
     0
290
     0
174
     0
 93
        1
 44
0.0
173
     0
291
     0
 45
0.0
1001
ACAD
1000
AcDbSavedByObjectVersion
1070
     0
  0
VISUALSTYLE
  5
31
102
{ACAD_REACTORS
330
2A
102
}
102
{ACAD_XDICTIONARY
360
423
102
}
330
2A
100
AcDbVisualStyle
  2
3D Hidden
 70
     6
 71
     1
 72
     2
 73
     2
 90
        0
 40
-0.6
 41
-30.0
 62
     5
 63
     7
 74
     2
 91
        2
 64
     7
 65
   257
 75
     2
175
     1
 42
40.0
 92
        0
 66
   257
 43
1.0
 76
     1
 77
     6
 78
     2
 67
     7
 79
     3
170
     0
171
     0
290
     0
174
     0
 93
        1
 44
0.0
173
     0
291
     0
 45
0.0
1001
ACAD
1000
AcDbSavedByObjectVersion
1070
     0
  0
VISUALSTYLE
  5
30
102
{ACAD_REACTORS
330
2A
102
}
102
{ACAD_XDICTIONARY
360
421
102
}
330
2A
100
AcDbVisualStyle
  2
3dWireframe
 70
     5
 71
     0
 72
     2
 73
     0
 90
        0
 40
-0.6
 41
-30.0
 62
     5
 63
     7
 74
     1
 91
        4
 64
     7
 65
   257
 75
     1
175
     1
 42
1.0
 92
        0
 66
   257
 43
1.0
 76
     1
 77
     6
 78
     2
 67
     7
 79
     5
170
     0
171
     0
290
     0
174
     0
 93
        1
 44
0.0
173
     0
291
     0
 45
0.0
1001
ACAD
1000
AcDbSavedByObjectVersion
1070
     0
  0
VISUALSTYLE
  5
32
102
{ACAD_REACTORS
330
2A
102
}
102
{ACAD_XDICTIONARY
360
425
102
}
330
2A
100
AcDbVisualStyle
  2
Basic
 70
     7
 71
     1
 72
     0
 73
     1
 90
        0
 40
-0.6
 41
-30.0
 62
     5
 63
     7
 74
     0
 91
        4
 64
     7
 65
   257
 75
     1
175
     1
 42
1.0
 92
        8
 66
     7
 43
1.0
 76
     1
 77
     6
 78
     2
 67
     7
 79
     5
170
     0
171
     0
290
     0
174
     0
 93
        1
 44
0.0
173
     0
291
     1
 45
0.0
1001
ACAD
1000
AcDbSavedByObjectVersion
1070
     0
  0
VISUALSTYLE
  5
36
102
{ACAD_REACTORS
330
2A
102
}
102
{ACAD_XDICTIONARY
360
42D
102
}
330
2A
100
AcDbVisualStyle
  2
Brighten
 70
    12
 71
     2
 72
     2
 73
     0
 90
        0
 40
-0.6
 41
-30.0
 62
     5
 63
     7
 74
     1
 91
        4
 64
     7
 65
   257
 75
     1
175
     1
 42
1.0
 92
        8
 66
     7
 43
1.0
 76
     1
 77
     6
 78
     2
 67
     7
 79
     5
170
     0
171
     0
290
     0
174
     0
 93
        1
 44
50.0
173
     0
291
     1
 45
0.0
1001
ACAD
1000
AcDbSavedByObjectVersion
1070
     0
  0
VISUALSTYLE
  5
3A
102
{ACAD_REACTORS
330
2A
102
}
102
{ACAD_XDICTIONARY
360
435
102
}
330
2A
100
AcDbVisualStyle
  2
ColorChange
 70
    16
 71
     2
 72
     2
 73
     3
 90
        0
 40
-0.6
 41
-30.0
 62
     5
 63
     8
 74
     1
 91
        4
 64
     7
 65
   257
 75
     1
175
     1
 42
1.0
 92
        8
 66
     8
 43
1.0
 76
     1
 77
     6
 78
     2
 67
     7
 79
     5
170
     0
171
     0
290
     0
174
     0
 93
        1
 44
0.0
173
     0
291
     1
 45
0.0
1001
ACAD
1000
AcDbSavedByObjectVersion
1070
     0
  0
VISUALSTYLE
  5
34
102
{ACAD_REACTORS
330
2A
102
}
102
{ACAD_XDICTIONARY
360
429
102
}
330
2A
100
AcDbVisualStyle
  2
Conceptual
 70
     9
 71
     3
 72
     2
 73
     0
 90
        0
 40
-0.6
 41
-30.0
 62
     5
 63
     7
 74
     2
 91
        2
 64
     7
 65
   257
 75
     1
175
     1
 42
40.0
 92
        8
 66
     7
 43
1.0
 76
     1
 77
     6
 78
     2
 67
     7
 79
     3
170
     0
171
     0
290
     0
174
     0
 93
        1
 44
0.0
173
     0
291
     0
 45
0.0
1001
ACAD
1000
AcDbSavedByObjectVersion
1070
     0
  0
VISUALSTYLE
  5
35
102
{ACAD_REACTORS
330
2A
102
}
102
{ACAD_XDICTIONARY
360
42B
102
}
330
2A
100
AcDbVisualStyle
  2
Dim
 70
    11
 71
     2
 72
     2
 73
     0
 90
        0
 40
-0.6
 41
-30.0
 62
     5
 63
     7
 74
     1
 91
        4
 64
     7
 65
   257
 75
     1
175
     1
 42
1.0
 92
        8
 66
     7
 43
1.0
 76
     1
 77
     6
 78
     2
 67
     7
 79
     5
170
     0
171
     0
290
     0
174
     0
 93
        1
 44
-50.0
173
     0
291
     1
 45
0.0
1001
ACAD
1000
AcDbSavedByObjectVersion
1070
     0
  0
VISUALSTYLE
  5
39
102
{ACAD_REACTORS
330
2A
102
}
102
{ACAD_XDICTIONARY
360
433
102
}
330
2A
100
AcDbVisualStyle
  2
Facepattern
 70
    15
 71
     2
 72
     2
 73
     0
 90
        0
 40
-0.6
 41
-30.0
 62
     5
 63
     7
 74
     1
 91
        4
 64
     7
 65
   257
 75
     1
175
     1
 42
1.0
 92
        8
 66
     7
 43
1.0
 76
     1
 77
     6
 78
     2
 67
     7
 79
     5
170
     0
171
     0
290
     0
174
     0
 93
        1
 44
0.0
173
     0
291
     1
 45
0.0
1001
ACAD
1000
AcDbSavedByObjectVersion
1070
     0
  0
VISUALSTYLE
  5
2B
102
{ACAD_REACTORS
330
2A
102
}
102
{ACAD_XDICTIONARY
360
417
102
}
330
2A
100
AcDbVisualStyle
  2
Flat
 70
     0
 71
     2
 72
     1
 73
     1
 90
        2
 40
-0.6
 41
30.0
 62
     5
 63
     7
 74
     0
 91
        4
 64
     7
 65
   257
 75
     1
175
     1
 42
1.0
 92
        8
 66
     7
 43
1.0
 76
     1
 77
     6
 78
     2
 67
     7
 79
     5
170
     0
171
     0
290
     0
174
     0
 93
       13
 44
0.0
173
     0
291
     1
 45
0.0
1001
ACAD
1000
AcDbSavedByObjectVersion
1070
     0
  0
VISUALSTYLE
  5
2C
102
{ACAD_REACTORS
330
2A
102
}
102
{ACAD_XDICTIONARY
360
419
102
}
330
2A
100
AcDbVisualStyle
  2
FlatWithEdges
 70
     1
 71
     2
 72
     1
 73
     1
 90
        2
 40
-0.6
 41
30.0
 62
     5
 63
     7
 74
     1
 91
        4
 64
     7
 65
   257
 75
     1
175
     1
 42
1.0
 92
        0
 66
   257
 43
1.0
 76
     1
 77
     6
 78
     2
 67
     7
 79
     5
170
     0
171
     0
290
     0
174
     0
 93
       13
 44
0.0
173
     0
291
     1
 45
0.0
1001
ACAD
1000
AcDbSavedByObjectVersion
1070
     0
  0
VISUALSTYLE
  5
2D
102
{ACAD_REACTORS
330
2A
102
}
102
{ACAD_XDICTIONARY
360
41B
102
}
330
2A
100
AcDbVisualStyle
  2
Gouraud
 70
     2
 71
     2
 72
     2
 73
     1
 90
        2
 40
-0.6
 41
30.0
 62
     5
 63
     7
 74
     0
 91
        4
 64
     7
 65
   257
 75
     1
175
     1
 42
1.0
 92
        0
 66
     7
 43
1.0
 76
     1
 77
     6
 78
     2
 67
     7
 79
     5
170
     0
171
     0
290
     0
174
     0
 93
       13
 44
0.0
173
     0
291
     1
 45
0.0
1001
ACAD
1000
AcDbSavedByObjectVersion
1070
     0
  0
VISUALSTYLE
  5
2E
102
{ACAD_REACTORS
330
2A
102
}
102
{ACAD_XDICTIONARY
360
41D
102
}
330
2A
100
AcDbVisualStyle
  2
GouraudWithEdges
 70
     3
 71
     2
 72
     2
 73
     1
 90
        2
 40
-0.6
 41
30.0
 62
     5
 63
     7
 74
     1
 91
        4
 64
     7
 65
   257
 75
     1
175
     1
 42
1.0
 92
        0
 66
   257
 43
1.0
 76
     1
 77
     6
 78
     2
 67
     7
 79
     5
170
     0
171
     0
290
     0
174
     0
 93
       13
 44
0.0
173
     0
291
     1
 45
0.0
1001
ACAD
1000
AcDbSavedByObjectVersion
1070
     0
  0
VISUALSTYLE
  5
38
102
{ACAD_REACTORS
330
2A
102
}
102
{ACAD_XDICTIONARY
360
431
102
}
330
2A
100
AcDbVisualStyle
  2
Linepattern
 70
    14
 71
     2
 72
     2
 73
     0
 90
        0
 40
-0.6
 41
-30.0
 62
     5
 63
     7
 74
     1
 91
        4
 64
     7
 65
   257
 75
     7
175
     7
 42
1.0
 92
        8
 66
     7
 43
1.0
 76
     1
 77
     6
 78
     2
 67
     7
 79
     5
170
     0
171
     0
290
     0
174
     0
 93
        1
 44
0.0
173
     0
291
     1
 45
0.0
1001
ACAD
1000
AcDbSavedByObjectVersion
1070
     0
  0
VISUALSTYLE
  5
33
102
{ACAD_REACTORS
330
2A
102
}
102
{ACAD_XDICTIONARY
360
427
102
}
330
2A
100
AcDbVisualStyle
  2
Realistic
 70
     8
 71
     2
 72
     2
 73
     0
 90
        0
 40
-0.6
 41
-30.0
 62
     5
 63
     7
 74
     1
 91
        0
 64
     7
 65
   257
 75
     1
175
     1
 42
1.0
 92
        8
 66
     8
 43
1.0
 76
     1
 77
     6
 78
     2
 67
     7
 79
     5
170
     0
171
     0
290
     0
174
     0
 93
       13
 44
0.0
173
     0
291
     0
 45
0.0
1001
ACAD
1000
AcDbSavedByObjectVersion
1070
     0
  0
VISUALSTYLE
  5
37
102
{ACAD_REACTORS
330
2A
102
}
102
{ACAD_XDICTIONARY
360
42F
102
}
330
2A
100
AcDbVisualStyle
  2
Thicken
 70
    13
 71
     2
 72
     2
 73
     0
 90
        0
 40
-0.6
 41
-30.0
 62
     5
 63
     7
 74
     1
 91
        4
 64
     7
 65
   257
 75
     1
175
     1
 42
1.0
 92
       12
 66
     7
 43
1.0
 76
     1
 77
     6
 78
     2
 67
     7
 79
     5
170
     0
171
     0
290
     0
174
     0
 93
        1
 44
0.0
173
     0
291
     1
 45
0.0
1001
ACAD
1000
AcDbSavedByObjectVersion
1070
     0
  0
DICTIONARYVAR
  5
414
102
{ACAD_REACTORS
330
40F
102
}
330
40F
100
DictionaryVariables
280
     0
  1
1:1
  0
DICTIONARYVAR
  5
415
102
{ACAD_REACTORS
330
40F
102
}
330
40F
100
DictionaryVariables
280
     0
  1
2
  0
DICTIONARYVAR
  5
416
102
{ACAD_REACTORS
330
40F
102
}
330
40F
100
DictionaryVariables
280
     0
  1
1
  0
DICTIONARYVAR
  5
413
102
{ACAD_REACTORS
330
40F
102
}
330
40F
100
DictionaryVariables
280
     0
  1
80.000000
  0
DICTIONARYVAR
  5
412
102
{ACAD_REACTORS
330
40F
102
}
330
40F
100
DictionaryVariables
280
     0
  1
5.000000
  0
DICTIONARY
  5
439
330
3D
100
AcDbDictionary
280
     1
281
     1
  3
ACAD_XREC_ROUNDTRIP
360
43A
  0
DICTIONARY
  5
437
330
3C
100
AcDbDictionary
280
     1
281
     1
  3
ACAD_XREC_ROUNDTRIP
360
438
  0
DICTIONARY
  5
43B
330
3E
100
AcDbDictionary
280
     1
281
     1
  3
ACAD_XREC_ROUNDTRIP
360
43C
  0
DICTIONARY
  5
41F
330
2F
100
AcDbDictionary
280
     1
281
     1
  3
ACAD_XREC_ROUNDTRIP
360
420
  0
DICTIONARY
  5
423
330
31
100
AcDbDictionary
280
     1
281
     1
  3
ACAD_XREC_ROUNDTRIP
360
424
  0
DICTIONARY
  5
421
330
30
100
AcDbDictionary
280
     1
281
     1
  3
ACAD_XREC_ROUNDTRIP
360
422
  0
DICTIONARY
  5
425
330
32
100
AcDbDictionary
280
     1
281
     1
  3
ACAD_XREC_ROUNDTRIP
360
426
  0
DICTIONARY
  5
42D
330
36
100
AcDbDictionary
280
     1
281
     1
  3
ACAD_XREC_ROUNDTRIP
360
42E
  0
DICTIONARY
  5
435
330
3A
100
AcDbDictionary
280
     1
281
     1
  3
ACAD_XREC_ROUNDTRIP
360
436
  0
DICTIONARY
  5
429
330
34
100
AcDbDictionary
280
     1
281
     1
  3
ACAD_XREC_ROUNDTRIP
360
42A
  0
DICTIONARY
  5
42B
330
35
100
AcDbDictionary
280
     1
281
     1
  3
ACAD_XREC_ROUNDTRIP
360
42C
  0
DICTIONARY
  5
433
330
39
100
AcDbDictionary
280
     1
281
     1
  3
ACAD_XREC_ROUNDTRIP
360
434
  0
DICTIONARY
  5
417
330
2B
100
AcDbDictionary
280
     1
281
     1
  3
ACAD_XREC_ROUNDTRIP
360
418
  0
DICTIONARY
  5
419
330
2C
100
AcDbDictionary
280
     1
281
     1
  3
ACAD_XREC_ROUNDTRIP
360
41A
  0
DICTIONARY
  5
41B
330
2D
100
AcDbDictionary
280
     1
281
     1
  3
ACAD_XREC_ROUNDTRIP
360
41C
  0
DICTIONARY
  5
41D
330
2E
100
AcDbDictionary
280
     1
281
     1
  3
ACAD_XREC_ROUNDTRIP
360
41E
  0
DICTIONARY
  5
431
330
38
100
AcDbDictionary
280
     1
281
     1
  3
ACAD_XREC_ROUNDTRIP
360
432
  0
DICTIONARY
  5
427
330
33
100
AcDbDictionary
280
     1
281
     1
  3
ACAD_XREC_ROUNDTRIP
360
428
  0
DICTIONARY
  5
42F
330
37
100
AcDbDictionary
280
     1
281
     1
  3
ACAD_XREC_ROUNDTRIP
360
430
  0
XRECORD
  5
43A
102
{ACAD_REACTORS
330
439
102
}
330
439
100
AcDbXrecord
280
     1
102
MATERIAL
148
0.0
149
0.0
149
0.0
 93
        0
 94
      127
282
     0
 72
     1
 77
     1
171
     1
175
     1
179
     1
273
     0
  0
XRECORD
  5
438
102
{ACAD_REACTORS
330
437
102
}
330
437
100
AcDbXrecord
280
     1
102
MATERIAL
148
0.0
149
0.0
149
0.0
 93
        0
 94
      127
282
     0
 72
     1
 77
     1
171
     1
175
     1
179
     1
273
     0
  0
XRECORD
  5
43C
102
{ACAD_REACTORS
330
43B
102
}
330
43B
100
AcDbXrecord
280
     1
102
MATERIAL
148
0.0
149
0.0
149
0.0
 93
        0
 94
      127
282
     0
 72
     1
 77
     1
171
     1
175
     1
179
     1
273
     0
  0
XRECORD
  5
420
102
{ACAD_REACTORS
330
41F
102
}
330
41F
100
AcDbXrecord
280
     1
102
RTVSPropertyOp0
 70
     1
102
RTVSPropertyOp1
 70
     1
102
RTVSPropertyOp2
 70
     1
102
RTVSPropertyOp3
 70
     1
102
RTVSPropertyOp4
 70
     1
102
RTVSPropertyOp5
 70
     1
102
RTVSPropertyOp6
 70
     1
102
RTVSPropertyOp7
 70
     1
102
RTVSPropertyOp8
 70
     1
102
RTVSPropertyOp9
 70
     1
102
RTVSPropertyOp10
 70
     1
102
RTVSPropertyOp11
 70
     1
102
RTVSPropertyOp12
 70
     1
102
RTVSPropertyOp13
 70
     1
102
RTVSPropertyOp14
 70
     1
102
RTVSPropertyOp15
 70
     1
102
RTVSPropertyOp16
 70
     1
102
RTVSPropertyOp17
 70
     1
102
RTVSPropertyOp18
 70
     1
102
RTVSPropertyOp19
 70
     1
102
RTVSPropertyOp20
 70
     1
102
RTVSPropertyOp21
 70
     1
102
RTVSPropertyOp22
 70
     1
102
RTVSPropertyOp23
 70
     1
102
RTVSPropertyOp24
 70
     1
102
RTVSPropertyOp25
 70
     1
102
RTVSPropertyOp26
 70
     1
102
RTVSPropertyOp27
 70
     1
  0
XRECORD
  5
424
102
{ACAD_REACTORS
330
423
102
}
330
423
100
AcDbXrecord
280
     1
102
RTVSPropertyOp0
 70
     1
102
RTVSPropertyOp1
 70
     1
102
RTVSPropertyOp2
 70
     1
102
RTVSPropertyOp3
 70
     1
102
RTVSPropertyOp4
 70
     1
102
RTVSPropertyOp5
 70
     1
102
RTVSPropertyOp6
 70
     1
102
RTVSPropertyOp7
 70
     1
102
RTVSPropertyOp8
 70
     1
102
RTVSPropertyOp9
 70
     1
102
RTVSPropertyOp10
 70
     1
102
RTVSPropertyOp11
 70
     1
102
RTVSPropertyOp12
 70
     1
102
RTVSPropertyOp13
 70
     1
102
RTVSPropertyOp14
 70
     1
102
RTVSPropertyOp15
 70
     1
102
RTVSPropertyOp16
 70
     1
102
RTVSPropertyOp17
 70
     1
102
RTVSPropertyOp18
 70
     1
102
RTVSPropertyOp19
 70
     1
102
RTVSPropertyOp20
 70
     1
102
RTVSPropertyOp21
 70
     1
102
RTVSPropertyOp22
 70
     1
102
RTVSPropertyOp23
 70
     1
102
RTVSPropertyOp24
 70
     1
102
RTVSPropertyOp25
 70
     1
102
RTVSPropertyOp26
 70
     1
102
RTVSPropertyOp27
 70
     1
  0
XRECORD
  5
422
102
{ACAD_REACTORS
330
421
102
}
330
421
100
AcDbXrecord
280
     1
102
RTVSPropertyOp0
 70
     1
102
RTVSPropertyOp1
 70
     1
102
RTVSPropertyOp2
 70
     1
102
RTVSPropertyOp3
 70
     1
102
RTVSPropertyOp4
 70
     1
102
RTVSPropertyOp5
 70
     1
102
RTVSPropertyOp6
 70
     1
102
RTVSPropertyOp7
 70
     1
102
RTVSPropertyOp8
 70
     1
102
RTVSPropertyOp9
 70
     1
102
RTVSPropertyOp10
 70
     1
102
RTVSPropertyOp11
 70
     1
102
RTVSPropertyOp12
 70
     1
102
RTVSPropertyOp13
 70
     1
102
RTVSPropertyOp14
 70
     1
102
RTVSPropertyOp15
 70
     1
102
RTVSPropertyOp16
 70
     1
102
RTVSPropertyOp17
 70
     1
102
RTVSPropertyOp18
 70
     1
102
RTVSPropertyOp19
 70
     1
102
RTVSPropertyOp20
 70
     1
102
RTVSPropertyOp21
 70
     1
102
RTVSPropertyOp22
 70
     1
102
RTVSPropertyOp23
 70
     1
102
RTVSPropertyOp24
 70
     1
102
RTVSPropertyOp25
 70
     1
102
RTVSPropertyOp26
 70
     1
102
RTVSPropertyOp27
 70
     1
  0
XRECORD
  5
426
102
{ACAD_REACTORS
330
425
102
}
330
425
100
AcDbXrecord
280
     1
102
RTVSPropertyOp0
 70
     1
102
RTVSPropertyOp1
 70
     1
102
RTVSPropertyOp2
 70
     1
102
RTVSPropertyOp3
 70
     1
102
RTVSPropertyOp4
 70
     1
102
RTVSPropertyOp5
 70
     1
102
RTVSPropertyOp6
 70
     1
102
RTVSPropertyOp7
 70
     1
102
RTVSPropertyOp8
 70
     1
102
RTVSPropertyOp9
 70
     1
102
RTVSPropertyOp10
 70
     1
102
RTVSPropertyOp11
 70
     1
102
RTVSPropertyOp12
 70
     1
102
RTVSPropertyOp13
 70
     1
102
RTVSPropertyOp14
 70
     1
102
RTVSPropertyOp15
 70
     1
102
RTVSPropertyOp16
 70
     1
102
RTVSPropertyOp17
 70
     1
102
RTVSPropertyOp18
 70
     1
102
RTVSPropertyOp19
 70
     1
102
RTVSPropertyOp20
 70
     1
102
RTVSPropertyOp21
 70
     1
102
RTVSPropertyOp22
 70
     1
102
RTVSPropertyOp23
 70
     1
102
RTVSPropertyOp24
 70
     1
102
RTVSPropertyOp25
 70
     1
102
RTVSPropertyOp26
 70
     1
102
RTVSPropertyOp27
 70
     1
  0
XRECORD
  5
42E
102
{ACAD_REACTORS
330
42D
102
}
330
42D
100
AcDbXrecord
280
     1
102
RTVSPropertyOp0
 70
     1
102
RTVSPropertyOp1
 70
     1
102
RTVSPropertyOp2
 70
     1
102
RTVSPropertyOp3
 70
     1
102
RTVSPropertyOp4
 70
     1
102
RTVSPropertyOp5
 70
     1
102
RTVSPropertyOp6
 70
     1
102
RTVSPropertyOp7
 70
     1
102
RTVSPropertyOp8
 70
     1
102
RTVSPropertyOp9
 70
     1
102
RTVSPropertyOp10
 70
     1
102
RTVSPropertyOp11
 70
     1
102
RTVSPropertyOp12
 70
     1
102
RTVSPropertyOp13
 70
     1
102
RTVSPropertyOp14
 70
     1
102
RTVSPropertyOp15
 70
     1
102
RTVSPropertyOp16
 70
     1
102
RTVSPropertyOp17
 70
     1
102
RTVSPropertyOp18
 70
     1
102
RTVSPropertyOp19
 70
     1
102
RTVSPropertyOp20
 70
     1
102
RTVSPropertyOp21
 70
     1
102
RTVSPropertyOp22
 70
     1
102
RTVSPropertyOp23
 70
     1
102
RTVSPropertyOp24
 70
     1
102
RTVSPropertyOp25
 70
     1
102
RTVSPropertyOp26
 70
     1
102
RTVSPropertyOp27
 70
     1
  0
XRECORD
  5
436
102
{ACAD_REACTORS
330
435
102
}
330
435
100
AcDbXrecord
280
     1
102
RTVSPropertyOp0
 70
     1
102
RTVSPropertyOp1
 70
     1
102
RTVSPropertyOp2
 70
     1
102
RTVSPropertyOp3
 70
     1
102
RTVSPropertyOp4
 70
     1
102
RTVSPropertyOp5
 70
     1
102
RTVSPropertyOp6
 70
     1
102
RTVSPropertyOp7
 70
     1
102
RTVSPropertyOp8
 70
     1
102
RTVSPropertyOp9
 70
     1
102
RTVSPropertyOp10
 70
     1
102
RTVSPropertyOp11
 70
     1
102
RTVSPropertyOp12
 70
     1
102
RTVSPropertyOp13
 70
     1
102
RTVSPropertyOp14
 70
     1
102
RTVSPropertyOp15
 70
     1
102
RTVSPropertyOp16
 70
     1
102
RTVSPropertyOp17
 70
     1
102
RTVSPropertyOp18
 70
     1
102
RTVSPropertyOp19
 70
     1
102
RTVSPropertyOp20
 70
     1
102
RTVSPropertyOp21
 70
     1
102
RTVSPropertyOp22
 70
     1
102
RTVSPropertyOp23
 70
     1
102
RTVSPropertyOp24
 70
     1
102
RTVSPropertyOp25
 70
     1
102
RTVSPropertyOp26
 70
     1
102
RTVSPropertyOp27
 70
     1
  0
XRECORD
  5
42A
102
{ACAD_REACTORS
330
429
102
}
330
429
100
AcDbXrecord
280
     1
102
RTVSPropertyOp0
 70
     1
102
RTVSPropertyOp1
 70
     1
102
RTVSPropertyOp2
 70
     1
102
RTVSPropertyOp3
 70
     1
102
RTVSPropertyOp4
 70
     1
102
RTVSPropertyOp5
 70
     1
102
RTVSPropertyOp6
 70
     1
102
RTVSPropertyOp7
 70
     1
102
RTVSPropertyOp8
 70
     1
102
RTVSPropertyOp9
 70
     1
102
RTVSPropertyOp10
 70
     1
102
RTVSPropertyOp11
 70
     1
102
RTVSPropertyOp12
 70
     1
102
RTVSPropertyOp13
 70
     1
102
RTVSPropertyOp14
 70
     1
102
RTVSPropertyOp15
 70
     1
102
RTVSPropertyOp16
 70
     1
102
RTVSPropertyOp17
 70
     1
102
RTVSPropertyOp18
 70
     1
102
RTVSPropertyOp19
 70
     1
102
RTVSPropertyOp20
 70
     1
102
RTVSPropertyOp21
 70
     1
102
RTVSPropertyOp22
 70
     1
102
RTVSPropertyOp23
 70
     1
102
RTVSPropertyOp24
 70
     1
102
RTVSPropertyOp25
 70
     1
102
RTVSPropertyOp26
 70
     1
102
RTVSPropertyOp27
 70
     1
  0
XRECORD
  5
42C
102
{ACAD_REACTORS
330
42B
102
}
330
42B
100
AcDbXrecord
280
     1
102
RTVSPropertyOp0
 70
     1
102
RTVSPropertyOp1
 70
     1
102
RTVSPropertyOp2
 70
     1
102
RTVSPropertyOp3
 70
     1
102
RTVSPropertyOp4
 70
     1
102
RTVSPropertyOp5
 70
     1
102
RTVSPropertyOp6
 70
     1
102
RTVSPropertyOp7
 70
     1
102
RTVSPropertyOp8
 70
     1
102
RTVSPropertyOp9
 70
     1
102
RTVSPropertyOp10
 70
     1
102
RTVSPropertyOp11
 70
     1
102
RTVSPropertyOp12
 70
     1
102
RTVSPropertyOp13
 70
     1
102
RTVSPropertyOp14
 70
     1
102
RTVSPropertyOp15
 70
     1
102
RTVSPropertyOp16
 70
     1
102
RTVSPropertyOp17
 70
     1
102
RTVSPropertyOp18
 70
     1
102
RTVSPropertyOp19
 70
     1
102
RTVSPropertyOp20
 70
     1
102
RTVSPropertyOp21
 70
     1
102
RTVSPropertyOp22
 70
     1
102
RTVSPropertyOp23
 70
     1
102
RTVSPropertyOp24
 70
     1
102
RTVSPropertyOp25
 70
     1
102
RTVSPropertyOp26
 70
     1
102
RTVSPropertyOp27
 70
     1
  0
XRECORD
  5
434
102
{ACAD_REACTORS
330
433
102
}
330
433
100
AcDbXrecord
280
     1
102
RTVSPropertyOp0
 70
     1
102
RTVSPropertyOp1
 70
     1
102
RTVSPropertyOp2
 70
     1
102
RTVSPropertyOp3
 70
     1
102
RTVSPropertyOp4
 70
     1
102
RTVSPropertyOp5
 70
     1
102
RTVSPropertyOp6
 70
     1
102
RTVSPropertyOp7
 70
     1
102
RTVSPropertyOp8
 70
     1
102
RTVSPropertyOp9
 70
     1
102
RTVSPropertyOp10
 70
     1
102
RTVSPropertyOp11
 70
     1
102
RTVSPropertyOp12
 70
     1
102
RTVSPropertyOp13
 70
     1
102
RTVSPropertyOp14
 70
     1
102
RTVSPropertyOp15
 70
     1
102
RTVSPropertyOp16
 70
     1
102
RTVSPropertyOp17
 70
     1
102
RTVSPropertyOp18
 70
     1
102
RTVSPropertyOp19
 70
     1
102
RTVSPropertyOp20
 70
     1
102
RTVSPropertyOp21
 70
     1
102
RTVSPropertyOp22
 70
     1
102
RTVSPropertyOp23
 70
     1
102
RTVSPropertyOp24
 70
     1
102
RTVSPropertyOp25
 70
     1
102
RTVSPropertyOp26
 70
     1
102
RTVSPropertyOp27
 70
     1
  0
XRECORD
  5
418
102
{ACAD_REACTORS
330
417
102
}
330
417
100
AcDbXrecord
280
     1
102
RTVSPropertyOp0
 70
     1
102
RTVSPropertyOp1
 70
     1
102
RTVSPropertyOp2
 70
     1
102
RTVSPropertyOp3
 70
     1
102
RTVSPropertyOp4
 70
     1
102
RTVSPropertyOp5
 70
     1
102
RTVSPropertyOp6
 70
     1
102
RTVSPropertyOp7
 70
     1
102
RTVSPropertyOp8
 70
     1
102
RTVSPropertyOp9
 70
     1
102
RTVSPropertyOp10
 70
     1
102
RTVSPropertyOp11
 70
     1
102
RTVSPropertyOp12
 70
     1
102
RTVSPropertyOp13
 70
     1
102
RTVSPropertyOp14
 70
     1
102
RTVSPropertyOp15
 70
     1
102
RTVSPropertyOp16
 70
     1
102
RTVSPropertyOp17
 70
     1
102
RTVSPropertyOp18
 70
     1
102
RTVSPropertyOp19
 70
     1
102
RTVSPropertyOp20
 70
     1
102
RTVSPropertyOp21
 70
     1
102
RTVSPropertyOp22
 70
     1
102
RTVSPropertyOp23
 70
     1
102
RTVSPropertyOp24
 70
     1
102
RTVSPropertyOp25
 70
     1
102
RTVSPropertyOp26
 70
     1
102
RTVSPropertyOp27
 70
     1
  0
XRECORD
  5
41A
102
{ACAD_REACTORS
330
419
102
}
330
419
100
AcDbXrecord
280
     1
102
RTVSPropertyOp0
 70
     1
102
RTVSPropertyOp1
 70
     1
102
RTVSPropertyOp2
 70
     1
102
RTVSPropertyOp3
 70
     1
102
RTVSPropertyOp4
 70
     1
102
RTVSPropertyOp5
 70
     1
102
RTVSPropertyOp6
 70
     1
102
RTVSPropertyOp7
 70
     1
102
RTVSPropertyOp8
 70
     1
102
RTVSPropertyOp9
 70
     1
102
RTVSPropertyOp10
 70
     1
102
RTVSPropertyOp11
 70
     1
102
RTVSPropertyOp12
 70
     1
102
RTVSPropertyOp13
 70
     1
102
RTVSPropertyOp14
 70
     1
102
RTVSPropertyOp15
 70
     1
102
RTVSPropertyOp16
 70
     1
102
RTVSPropertyOp17
 70
     1
102
RTVSPropertyOp18
 70
     1
102
RTVSPropertyOp19
 70
     1
102
RTVSPropertyOp20
 70
     1
102
RTVSPropertyOp21
 70
     1
102
RTVSPropertyOp22
 70
     1
102
RTVSPropertyOp23
 70
     1
102
RTVSPropertyOp24
 70
     1
102
RTVSPropertyOp25
 70
     1
102
RTVSPropertyOp26
 70
     1
102
RTVSPropertyOp27
 70
     1
  0
XRECORD
  5
41C
102
{ACAD_REACTORS
330
41B
102
}
330
41B
100
AcDbXrecord
280
     1
102
RTVSPropertyOp0
 70
     1
102
RTVSPropertyOp1
 70
     1
102
RTVSPropertyOp2
 70
     1
102
RTVSPropertyOp3
 70
     1
102
RTVSPropertyOp4
 70
     1
102
RTVSPropertyOp5
 70
     1
102
RTVSPropertyOp6
 70
     1
102
RTVSPropertyOp7
 70
     1
102
RTVSPropertyOp8
 70
     1
102
RTVSPropertyOp9
 70
     1
102
RTVSPropertyOp10
 70
     1
102
RTVSPropertyOp11
 70
     1
102
RTVSPropertyOp12
 70
     1
102
RTVSPropertyOp13
 70
     1
102
RTVSPropertyOp14
 70
     1
102
RTVSPropertyOp15
 70
     1
102
RTVSPropertyOp16
 70
     1
102
RTVSPropertyOp17
 70
     1
102
RTVSPropertyOp18
 70
     1
102
RTVSPropertyOp19
 70
     1
102
RTVSPropertyOp20
 70
     1
102
RTVSPropertyOp21
 70
     1
102
RTVSPropertyOp22
 70
     1
102
RTVSPropertyOp23
 70
     1
102
RTVSPropertyOp24
 70
     1
102
RTVSPropertyOp25
 70
     1
102
RTVSPropertyOp26
 70
     1
102
RTVSPropertyOp27
 70
     1
  0
XRECORD
  5
41E
102
{ACAD_REACTORS
330
41D
102
}
330
41D
100
AcDbXrecord
280
     1
102
RTVSPropertyOp0
 70
     1
102
RTVSPropertyOp1
 70
     1
102
RTVSPropertyOp2
 70
     1
102
RTVSPropertyOp3
 70
     1
102
RTVSPropertyOp4
 70
     1
102
RTVSPropertyOp5
 70
     1
102
RTVSPropertyOp6
 70
     1
102
RTVSPropertyOp7
 70
     1
102
RTVSPropertyOp8
 70
     1
102
RTVSPropertyOp9
 70
     1
102
RTVSPropertyOp10
 70
     1
102
RTVSPropertyOp11
 70
     1
102
RTVSPropertyOp12
 70
     1
102
RTVSPropertyOp13
 70
     1
102
RTVSPropertyOp14
 70
     1
102
RTVSPropertyOp15
 70
     1
102
RTVSPropertyOp16
 70
     1
102
RTVSPropertyOp17
 70
     1
102
RTVSPropertyOp18
 70
     1
102
RTVSPropertyOp19
 70
     1
102
RTVSPropertyOp20
 70
     1
102
RTVSPropertyOp21
 70
     1
102
RTVSPropertyOp22
 70
     1
102
RTVSPropertyOp23
 70
     1
102
RTVSPropertyOp24
 70
     1
102
RTVSPropertyOp25
 70
     1
102
RTVSPropertyOp26
 70
     1
102
RTVSPropertyOp27
 70
     1
  0
XRECORD
  5
432
102
{ACAD_REACTORS
330
431
102
}
330
431
100
AcDbXrecord
280
     1
102
RTVSPropertyOp0
 70
     1
102
RTVSPropertyOp1
 70
     1
102
RTVSPropertyOp2
 70
     1
102
RTVSPropertyOp3
 70
     1
102
RTVSPropertyOp4
 70
     1
102
RTVSPropertyOp5
 70
     1
102
RTVSPropertyOp6
 70
     1
102
RTVSPropertyOp7
 70
     1
102
RTVSPropertyOp8
 70
     1
102
RTVSPropertyOp9
 70
     1
102
RTVSPropertyOp10
 70
     1
102
RTVSPropertyOp11
 70
     1
102
RTVSPropertyOp12
 70
     1
102
RTVSPropertyOp13
 70
     1
102
RTVSPropertyOp14
 70
     1
102
RTVSPropertyOp15
 70
     1
102
RTVSPropertyOp16
 70
     1
102
RTVSPropertyOp17
 70
     1
102
RTVSPropertyOp18
 70
     1
102
RTVSPropertyOp19
 70
     1
102
RTVSPropertyOp20
 70
     1
102
RTVSPropertyOp21
 70
     1
102
RTVSPropertyOp22
 70
     1
102
RTVSPropertyOp23
 70
     1
102
RTVSPropertyOp24
 70
     1
102
RTVSPropertyOp25
 70
     1
102
RTVSPropertyOp26
 70
     1
102
RTVSPropertyOp27
 70
     1
  0
XRECORD
  5
428
102
{ACAD_REACTORS
330
427
102
}
330
427
100
AcDbXrecord
280
     1
102
RTVSPropertyOp0
 70
     1
102
RTVSPropertyOp1
 70
     1
102
RTVSPropertyOp2
 70
     1
102
RTVSPropertyOp3
 70
     1
102
RTVSPropertyOp4
 70
     1
102
RTVSPropertyOp5
 70
     1
102
RTVSPropertyOp6
 70
     1
102
RTVSPropertyOp7
 70
     1
102
RTVSPropertyOp8
 70
     1
102
RTVSPropertyOp9
 70
     1
102
RTVSPropertyOp10
 70
     1
102
RTVSPropertyOp11
 70
     1
102
RTVSPropertyOp12
 70
     1
102
RTVSPropertyOp13
 70
     1
102
RTVSPropertyOp14
 70
     1
102
RTVSPropertyOp15
 70
     1
102
RTVSPropertyOp16
 70
     1
102
RTVSPropertyOp17
 70
     1
102
RTVSPropertyOp18
 70
     1
102
RTVSPropertyOp19
 70
     1
102
RTVSPropertyOp20
 70
     1
102
RTVSPropertyOp21
 70
     1
102
RTVSPropertyOp22
 70
     1
102
RTVSPropertyOp23
 70
     1
102
RTVSPropertyOp24
 70
     1
102
RTVSPropertyOp25
 70
     1
102
RTVSPropertyOp26
 70
     1
102
RTVSPropertyOp27
 70
     1
  0
XRECORD
  5
430
102
{ACAD_REACTORS
330
42F
102
}
330
42F
100
AcDbXrecord
280
     1
102
RTVSPropertyOp0
 70
     1
102
RTVSPropertyOp1
 70
     1
102
RTVSPropertyOp2
 70
     1
102
RTVSPropertyOp3
 70
     1
102
RTVSPropertyOp4
 70
     1
102
RTVSPropertyOp5
 70
     1
102
RTVSPropertyOp6
 70
     1
102
RTVSPropertyOp7
 70
     1
102
RTVSPropertyOp8
 70
     1
102
RTVSPropertyOp9
 70
     1
102
RTVSPropertyOp10
 70
     1
102
RTVSPropertyOp11
 70
     1
102
RTVSPropertyOp12
 70
     1
102
RTVSPropertyOp13
 70
     1
102
RTVSPropertyOp14
 70
     1
102
RTVSPropertyOp15
 70
     1
102
RTVSPropertyOp16
 70
     1
102
RTVSPropertyOp17
 70
     1
102
RTVSPropertyOp18
 70
     1
102
RTVSPropertyOp19
 70
     1
102
RTVSPropertyOp20
 70
     1
102
RTVSPropertyOp21
 70
     1
102
RTVSPropertyOp22
 70
     1
102
RTVSPropertyOp23
 70
     1
102
RTVSPropertyOp24
 70
     1
102
RTVSPropertyOp25
 70
     1
102
RTVSPropertyOp26
 70
     1
102
RTVSPropertyOp27
 70
     1
  0
ENDSEC
  0
EOF
