  0
SECTION
  2
HEADER
  9
$ACADVER
  1
AC1015
  9
$ACADMAINTVER
 70
     6
  9
$DWGCODEPAGE
  3
ANSI_1252
  9
$INSBASE
 10
0.0
 20
0.0
 30
0.0
  9
$EXTMIN
 10
0.0
 20
0.0
 30
0.0
  9
$EXTMAX
 10
25.0
 20
35.0
 30
0.0
  9
$LIMMIN
 10
0.0
 20
0.0
  9
$LIMMAX
 10
420.0
 20
297.0
  9
$ORTHOMODE
 70
     0
  9
$REGENMODE
 70
     1
  9
$FILLMODE
 70
     1
  9
$QTEXTMODE
 70
     0
  9
$MIRRTEXT
 70
     1
  9
$LTSCALE
 40
3.8
  9
$ATTMODE
 70
     1
  9
$TEXTSIZE
 40
2.5
  9
$TRACEWID
 40
1.0
  9
$TEXTSTYLE
  7
Standard
  9
$CLAYER
  8
0
  9
$CELTYPE
  6
ByLayer
  9
$CECOLOR
 62
   256
  9
$CELTSCALE
 40
1.0
  9
$DISPSILH
 70
     0
  9
$DIMSCALE
 40
1.0
  9
$DIMASZ
 40
2.5
  9
$DIMEXO
 40
0.625
  9
$DIMDLI
 40
3.75
  9
$DIMRND
 40
0.0
  9
$DIMDLE
 40
0.0
  9
$DIMEXE
 40
1.25
  9
$DIMTP
 40
0.0
  9
$DIMTM
 40
0.0
  9
$DIMTXT
 40
2.5
  9
$DIMCEN
 40
2.5
  9
$DIMTSZ
 40
0.0
  9
$DIMTOL
 70
     0
  9
$DIMLIM
 70
     0
  9
$DIMTIH
 70
     0
  9
$DIMTOH
 70
     0
  9
$DIMSE1
 70
     0
  9
$DIMSE2
 70
     0
  9
$DIMTAD
 70
     1
  9
$DIMZIN
 70
     8
  9
$DIMBLK
  1

  9
$DIMASO
 70
     1
  9
$DIMSHO
 70
     1
  9
$DIMPOST
  1

  9
$DIMAPOST
  1

  9
$DIMALT
 70
     0
  9
$DIMALTD
 70
     3
  9
$DIMALTF
 40
0.03937007874016
  9
$DIMLFAC
 40
1.0
  9
$DIMTOFL
 70
     1
  9
$DIMTVP
 40
0.0
  9
$DIMTIX
 70
     0
  9
$DIMSOXD
 70
     0
  9
$DIMSAH
 70
     0
  9
$DIMBLK1
  1

  9
$DIMBLK2
  1

  9
$DIMSTYLE
  2
ISO-25
  9
$DIMCLRD
 70
     0
  9
$DIMCLRE
 70
     0
  9
$DIMCLRT
 70
     0
  9
$DIMTFAC
 40
1.0
  9
$DIMGAP
 40
0.625
  9
$DIMJUST
 70
     0
  9
$DIMSD1
 70
     0
  9
$DIMSD2
 70
     0
  9
$DIMTOLJ
 70
     0
  9
$DIMTZIN
 70
     8
  9
$DIMALTZ
 70
     0
  9
$DIMALTTZ
 70
     0
  9
$DIMUPT
 70
     0
  9
$DIMDEC
 70
     2
  9
$DIMTDEC
 70
     2
  9
$DIMALTU
 70
     2
  9
$DIMALTTD
 70
     3
  9
$DIMTXSTY
  7
Standard
  9
$DIMAUNIT
 70
     0
  9
$DIMADEC
 70
     0
  9
$DIMALTRND
 40
0.0
  9
$DIMAZIN
 70
     0
  9
$DIMDSEP
 70
    44
  9
$DIMATFIT
 70
     3
  9
$DIMFRAC
 70
     0
  9
$DIMLDRBLK
  1

  9
$DIMLUNIT
 70
     2
  9
$DIMLWD
 70
    -2
  9
$DIMLWE
 70
    -2
  9
$DIMTMOVE
 70
     0
  9
$LUNITS
 70
     2
  9
$LUPREC
 70
     4
  9
$SKETCHINC
 40
1.0
  9
$FILLETRAD
 40
10.0
  9
$AUNITS
 70
     0
  9
$AUPREC
 70
     0
  9
$MENU
  1
.
  9
$ELEVATION
 40
0.0
  9
$PELEVATION
 40
0.0
  9
$THICKNESS
 40
0.0
  9
$LIMCHECK
 70
     0
  9
$CHAMFERA
 40
10.0
  9
$CHAMFERB
 40
10.0
  9
$CHAMFERC
 40
20.0
  9
$CHAMFERD
 40
0.0
  9
$SKPOLY
 70
     0
  9
$TDCREATE
 40
2458994.558333333
  9
$TDUCREATE
 40
2458994.475
  9
$TDUPDATE
 40
2458994.561805556
  9
$TDUUPDATE
 40
2458994.478472222
  9
$TDINDWG
 40
0.0000000116
  9
$TDUSRTIMER
 40
0.0000000116
  9
$USRTIMER
 70
     1
  9
$ANGBASE
 50
0.0
  9
$ANGDIR
 70
     0
  9
$PDMODE
 70
     0
  9
$PDSIZE
 40
0.0
  9
$PLINEWID
 40
0.0
  9
$SPLFRAME
 70
     0
  9
$SPLINETYPE
 70
     6
  9
$SPLINESEGS
 70
     8
  9
$HANDSEED
  5
39D
  9
$SURFTAB1
 70
     6
  9
$SURFTAB2
 70
     6
  9
$SURFTYPE
 70
     6
  9
$SURFU
 70
     6
  9
$SURFV
 70
     6
  9
$UCSBASE
  2

  9
$UCSNAME
  2

  9
$UCSORG
 10
0.0
 20
0.0
 30
0.0
  9
$UCSXDIR
 10
1.0
 20
0.0
 30
0.0
  9
$UCSYDIR
 10
0.0
 20
1.0
 30
0.0
  9
$UCSORTHOREF
  2

  9
$UCSORTHOVIEW
 70
     0
  9
$UCSORGTOP
 10
0.0
 20
0.0
 30
0.0
  9
$UCSORGBOTTOM
 10
0.0
 20
0.0
 30
0.0
  9
$UCSORGLEFT
 10
0.0
 20
0.0
 30
0.0
  9
$UCSORGRIGHT
 10
0.0
 20
0.0
 30
0.0
  9
$UCSORGFRONT
 10
0.0
 20
0.0
 30
0.0
  9
$UCSORGBACK
 10
0.0
 20
0.0
 30
0.0
  9
$PUCSBASE
  2

  9
$PUCSNAME
  2

  9
$PUCSORG
 10
0.0
 20
0.0
 30
0.0
  9
$PUCSXDIR
 10
1.0
 20
0.0
 30
0.0
  9
$PUCSYDIR
 10
0.0
 20
1.0
 30
0.0
  9
$PUCSORTHOREF
  2

  9
$PUCSORTHOVIEW
 70
     0
  9
$PUCSORGTOP
 10
0.0
 20
0.0
 30
0.0
  9
$PUCSORGBOTTOM
 10
0.0
 20
0.0
 30
0.0
  9
$PUCSORGLEFT
 10
0.0
 20
0.0
 30
0.0
  9
$PUCSORGRIGHT
 10
0.0
 20
0.0
 30
0.0
  9
$PUCSORGFRONT
 10
0.0
 20
0.0
 30
0.0
  9
$PUCSORGBACK
 10
0.0
 20
0.0
 30
0.0
  9
$USERI1
 70
     0
  9
$USERI2
 70
     0
  9
$USERI3
 70
     0
  9
$USERI4
 70
     0
  9
$USERI5
 70
     0
  9
$USERR1
 40
0.0
  9
$USERR2
 40
0.0
  9
$USERR3
 40
0.0
  9
$USERR4
 40
0.0
  9
$USERR5
 40
0.0
  9
$WORLDVIEW
 70
     1
  9
$SHADEDGE
 70
     3
  9
$SHADEDIF
 70
    70
  9
$TILEMODE
 70
     1
  9
$MAXACTVP
 70
    64
  9
$PINSBASE
 10
0.0
 20
0.0
 30
0.0
  9
$PLIMCHECK
 70
     0
  9
$PEXTMIN
 10
1.000000000000000E+20
 20
1.000000000000000E+20
 30
1.000000000000000E+20
  9
$PEXTMAX
 10
-1.000000000000000E+20
 20
-1.000000000000000E+20
 30
-1.000000000000000E+20
  9
$PLIMMIN
 10
0.0
 20
0.0
  9
$PLIMMAX
 10
420.0
 20
297.0
  9
$UNITMODE
 70
     0
  9
$VISRETAIN
 70
     1
  9
$PLINEGEN
 70
     0
  9
$PSLTSCALE
 70
     1
  9
$TREEDEPTH
 70
  3020
  9
$CMLSTYLE
  2
Standard
  9
$CMLJUST
 70
     0
  9
$CMLSCALE
 40
20.0
  9
$PROXYGRAPHICS
 70
     1
  9
$MEASUREMENT
 70
     1
  9
$CELWEIGHT
370
    -1
  9
$ENDCAPS
280
     0
  9
$JOINSTYLE
280
     0
  9
$LWDISPLAY
290
     0
  9
$INSUNITS
 70
     4
  9
$HYPERLINKBASE
  1

  9
$STYLESHEET
  1

  9
$XEDIT
290
     1
  9
$CEPSNTYPE
380
     0
  9
$PSTYLEMODE
290
     1
  9
$FINGERPRINTGUID
  2
{7B1F9FB4-AE5B-4E59-9A6E-BCE0D9794FE2}
  9
$VERSIONGUID
  2
{FAEB1C32-E019-11D5-929B-00C0DF256EC4}
  9
$EXTNAMES
290
     1
  9
$PSVPSCALE
 40
0.0
  9
$OLESTARTUP
290
     0
  0
ENDSEC
  0
SECTION
  2
CLASSES
  0
CLASS
  1
ACDBDICTIONARYWDFLT
  2
AcDbDictionaryWithDefault
  3
ObjectDBX Classes
 90
        0
280
     0
281
     0
  0
CLASS
  1
VISUALSTYLE
  2
AcDbVisualStyle
  3
ObjectDBX Classes
 90
     4095
280
     0
281
     0
  0
CLASS
  1
MATERIAL
  2
AcDbMaterial
  3
ObjectDBX Classes
 90
     1153
280
     0
281
     0
  0
CLASS
  1
SCALE
  2
AcDbScale
  3
ObjectDBX Classes
 90
     1153
280
     0
281
     0
  0
CLASS
  1
DICTIONARYVAR
  2
AcDbDictionaryVar
  3
ObjectDBX Classes
 90
        0
280
     0
281
     0
  0
CLASS
  1
ACDBPLACEHOLDER
  2
AcDbPlaceHolder
  3
ObjectDBX Classes
 90
        0
280
     0
281
     0
  0
CLASS
  1
LAYOUT
  2
AcDbLayout
  3
ObjectDBX Classes
 90
        0
280
     0
281
     0
  0
ENDSEC
  0
SECTION
  2
TABLES
  0
TABLE
  2
VPORT
  5
8
330
0
100
AcDbSymbolTable
 70
     1
  0
VPORT
  5
29
330
8
100
AcDbSymbolTableRecord
100
AcDbViewportTableRecord
  2
*Active
 70
     0
 10
0.0
 20
0.0
 11
1.0
 21
1.0
 12
11.26
 22
4.5
 13
0.0
 23
0.0
 14
10.0
 24
10.0
 15
10.0
 25
10.0
 16
0.0
 26
0.0
 36
1.0
 17
0.0
 27
0.0
 37
0.0
 40
9.0
 41
2.503333333333333
 42
50.0
 43
0.0
 44
0.0
 50
0.0
 51
0.0
 71
     0
 72
   100
 73
     1
 74
     3
 75
     0
 76
     0
 77
     0
 78
     0
281
     0
 65
     1
110
0.0
120
0.0
130
0.0
111
1.0
121
0.0
131
0.0
112
0.0
122
1.0
132
0.0
 79
     0
146
0.0
  0
ENDTAB
  0
TABLE
  2
LTYPE
  5
5
330
0
100
AcDbSymbolTable
 70
     7
  0
LTYPE
  5
14
330
5
100
AcDbSymbolTableRecord
100
AcDbLinetypeTableRecord
  2
ByBlock
 70
     0
  3

 72
    65
 73
     0
 40
0.0
  0
LTYPE
  5
15
330
5
100
AcDbSymbolTableRecord
100
AcDbLinetypeTableRecord
  2
ByLayer
 70
     0
  3

 72
    65
 73
     0
 40
0.0
  0
LTYPE
  5
16
330
5
100
AcDbSymbolTableRecord
100
AcDbLinetypeTableRecord
  2
Continuous
 70
     0
  3
Solid line
 72
    65
 73
     0
 40
0.0
  0
LTYPE
  5
45
330
5
100
AcDbSymbolTableRecord
100
AcDbLinetypeTableRecord
  2
phl_thick
 70
     0
  3
THICK
 72
    65
 73
     0
 40
0.0
  0
LTYPE
  5
4F
330
5
100
AcDbSymbolTableRecord
100
AcDbLinetypeTableRecord
  2
CUT
 70
     0
  3
THICK
 72
    65
 73
     0
 40
0.0
  0
LTYPE
  5
59
330
5
100
AcDbSymbolTableRecord
100
AcDbLinetypeTableRecord
  2
SKVIEW1
 70
     0
  3
THICK
 72
    65
 73
     0
 40
0.0
  0
LTYPE
  5
5F
330
5
100
AcDbSymbolTableRecord
100
AcDbLinetypeTableRecord
  2
ls_SKVIEW2
 70
     0
  3
THIN
 72
    65
 73
     0
 40
0.0
  0
LTYPE
  5
106
330
5
100
AcDbSymbolTableRecord
100
AcDbLinetypeTableRecord
  2
LONGDASH_DASH
 70
     0
  3
THIN_DASHDOT
 72
    65
 73
     4
 40
0.85
 49
0.4
 74
     0
 49
-0.2
 74
     0
 49
0.05
 74
     0
 49
-0.2
 74
     0
  0
LTYPE
  5
109
330
5
100
AcDbSymbolTableRecord
100
AcDbLinetypeTableRecord
  2
ls_SK2
 70
     0
  3
THIN
 72
    65
 73
     0
 40
0.0
  0
ENDTAB
  0
TABLE
  2
LAYER
  5
2
330
0
100
AcDbSymbolTable
 70
     7
  0
LAYER
  5
10
330
2
100
AcDbSymbolTableRecord
100
AcDbLayerTableRecord
  2
0
 70
     0
 62
     7
  6
Continuous
370
    -3
390
F
  0
LAYER
  5
44
330
2
100
AcDbSymbolTableRecord
100
AcDbLayerTableRecord
  2
1
 70
     0
 62
4
  6
CONTINUOUS
370
50
370
    -3
390
F
  0
LAYER
  5
4E
330
2
100
AcDbSymbolTableRecord
100
AcDbLayerTableRecord
  2
CUT
 70
     0
 62
1
  6
CONTINUOUS
370
25
370
    -3
390
F
  0
LAYER
  5
58
330
2
100
AcDbSymbolTableRecord
100
AcDbLayerTableRecord
  2
SKVIEW1
 70
     0
 62
4
  6
CONTINUOUS
370
50
370
    -3
390
F
  0
LAYER
  5
5E
330
2
100
AcDbSymbolTableRecord
100
AcDbLayerTableRecord
  2
SKVIEW2
 70
     0
 62
7
  6
CONTINUOUS
370
25
370
    -3
390
F
  0
LAYER
  5
105
330
2
100
AcDbSymbolTableRecord
100
AcDbLayerTableRecord
  2
SK4
 70
     0
 62
2
  6
LONGDASH_DASH
370
25
370
    -3
390
F
  0
LAYER
  5
108
330
2
100
AcDbSymbolTableRecord
100
AcDbLayerTableRecord
  2
SK2
 70
     0
 62
7
  6
CONTINUOUS
370
25
370
    -3
390
F
  0
ENDTAB
  0
TABLE
  2
STYLE
  5
3
330
0
100
AcDbSymbolTable
 70
     1
  0
STYLE
  5
11
330
3
100
AcDbSymbolTableRecord
100
AcDbTextStyleTableRecord
  2
Standard
 70
     0
 40
0.0
 41
1.0
 50
0.0
 71
     0
 42
2.5
  3
Monospac821 BT
  4

  0
ENDTAB
  0
TABLE
  2
VIEW
  5
6
330
0
100
AcDbSymbolTable
 70
     0
  0
ENDTAB
  0
TABLE
  2
UCS
  5
7
330
0
100
AcDbSymbolTable
 70
     0
  0
ENDTAB
  0
TABLE
  2
APPID
  5
9
330
0
100
AcDbSymbolTable
 70
     2
  0
APPID
  5
12
330
9
100
AcDbSymbolTableRecord
100
AcDbRegAppTableRecord
  2
ACAD
 70
     0
  0
APPID
  5
3F
330
9
100
AcDbSymbolTableRecord
100
AcDbRegAppTableRecord
  2
ccLab
 70
     0
  0
ENDTAB
  0
TABLE
  2
DIMSTYLE
  5
A
330
0
100
AcDbSymbolTable
 70
     1
100
AcDbDimStyleTable
  0
DIMSTYLE
105
27
330
A
100
AcDbSymbolTableRecord
100
AcDbDimStyleTableRecord
  2
ISO-25
 70
     0
 41
2.5
 42
0.625
 43
3.75
 44
1.25
 73
     0
 74
     0
 77
     1
 78
     8
140
2.5
141
2.5
143
0.03937007874016
147
0.625
171
     3
172
     1
271
     2
272
     2
274
     3
278
    44
283
     0
284
     8
340
11
  0
ENDTAB
  0
TABLE
  2
BLOCK_RECORD
  5
1
330
0
100
AcDbSymbolTable
 70
     2
  0
BLOCK_RECORD
  5
1F
330
1
100
AcDbSymbolTableRecord
100
AcDbBlockTableRecord
  2
*Model_Space
340
22
  0
BLOCK_RECORD
  5
1B
330
1
100
AcDbSymbolTableRecord
100
AcDbBlockTableRecord
  2
*Paper_Space
340
1E
  0
BLOCK_RECORD
  5
23
330
1
100
AcDbSymbolTableRecord
100
AcDbBlockTableRecord
  2
*Paper_Space0
340
26
  0
ENDTAB
  0
ENDSEC
  0
SECTION
  2
BLOCKS
  0
BLOCK
  5
20
330
1F
100
AcDbEntity
  8
0
100
AcDbBlockBegin
  2
*Model_Space
 70
     0
 10
0.0
 20
0.0
 30
0.0
  3
*Model_Space
  1

  0
ENDBLK
  5
21
330
1F
100
AcDbEntity
  8
0
100
AcDbBlockEnd
  0
BLOCK
  5
1C
330
1B
100
AcDbEntity
 67
     1
  8
0
100
AcDbBlockBegin
  2
*Paper_Space
 70
     0
 10
0.0
 20
0.0
 30
0.0
  3
*Paper_Space
  1

  0
ENDBLK
  5
1D
330
1B
100
AcDbEntity
 67
     1
  8
0
100
AcDbBlockEnd
  0
BLOCK
  5
24
330
23
100
AcDbEntity
  8
0
100
AcDbBlockBegin
  2
*Paper_Space0
 70
     0
 10
0.0
 20
0.0
 30
0.0
  3
*Paper_Space0
  1

  0
ENDBLK
  5
25
330
23
100
AcDbEntity
  8
0
100
AcDbBlockEnd
  0
ENDSEC
  0
SECTION
  2
ENTITIES
  0
LINE
  5
1F0
330
1F
100
AcDbEntity
  8
1
  6
CONTINUOUS
370
50
 62
4
100
AcDbLine
 10
0.7999999999999999
 20
0.0
 30
0.0
 11
8.82
 21
0.0
 31
0.0
  0
LINE
  5
1F1
330
1F
100
AcDbEntity
  8
1
  6
CONTINUOUS
370
50
 62
4
100
AcDbLine
 10
0.7999999999999999
 20
9.62
 30
0.0
 11
8.82
 21
9.62
 31
0.0
  0
LINE
  5
1F2
330
1F
100
AcDbEntity
  8
1
  6
CONTINUOUS
370
50
 62
4
100
AcDbLine
 10
0.0
 20
0.7999999999999999
 30
0.0
 11
0.0
 21
8.82
 31
0.0
  0
LINE
  5
1F3
330
1F
100
AcDbEntity
  8
1
  6
CONTINUOUS
370
50
 62
4
100
AcDbLine
 10
9.62
 20
0.7999999999999999
 30
0.0
 11
9.62
 21
8.82
 31
0.0
  0
ARC
  5
1F4
330
1F
100
AcDbEntity
  8
1
  6
CONTINUOUS
370
50
 62
4
100
AcDbCircle
 10
0.7999999999999999
 20
0.7999999999999999
 30
0.0
 40
0.7999999999999999
100
AcDbArc
 50
180.0
 51
269.9999999928381
  0
ARC
  5
1F5
330
1F
100
AcDbEntity
  8
1
  6
CONTINUOUS
370
50
 62
4
100
AcDbCircle
 10
0.7999999999999999
 20
8.82
 30
0.0
 40
0.8000000000000007
100
AcDbArc
 50
90.00000000716227
 51
180.0
  0
ARC
  5
1F6
330
1F
100
AcDbEntity
  8
1
  6
CONTINUOUS
370
50
 62
4
100
AcDbCircle
 10
8.82
 20
0.7999999999999999
 30
0.0
 40
0.7999999999999999
100
AcDbArc
 50
270.0000000071619
 51
0.0
  0
ARC
  5
1F7
330
1F
100
AcDbEntity
  8
1
  6
CONTINUOUS
370
50
 62
4
100
AcDbCircle
 10
8.82
 20
8.82
 30
0.0
 40
0.8000000000000007
100
AcDbArc
 50
0.0
 51
89.99999999283764
  0
LINE
  5
1F8
330
1F
100
AcDbEntity
  8
CUT
  6
CONTINUOUS
370
25
 62
1
100
AcDbLine
 10
0.8000000000000002
 20
0.0
 30
0.0
 11
8.819999999999999
 21
0.0
 31
0.0
  0
ARC
  5
1F9
330
1F
100
AcDbEntity
  8
CUT
  6
CONTINUOUS
370
25
 62
1
100
AcDbCircle
 10
8.819999999899998
 20
0.8000000001000002
 30
0.0
 40
0.8
100
AcDbArc
 50
270.0000000071619
 51
0.0
  0
LINE
  5
1FA
330
1F
100
AcDbEntity
  8
CUT
  6
CONTINUOUS
370
25
 62
1
100
AcDbLine
 10
9.62
 20
0.7999999999999999
 30
0.0
 11
9.62
 21
8.819999999999999
 31
0.0
  0
ARC
  5
1FB
330
1F
100
AcDbEntity
  8
CUT
  6
CONTINUOUS
370
25
 62
1
100
AcDbCircle
 10
8.819999999899998
 20
8.819999999899998
 30
0.0
 40
0.8000000000000007
100
AcDbArc
 50
0.0
 51
89.99999999283803
  0
LINE
  5
1FC
330
1F
100
AcDbEntity
  8
CUT
  6
CONTINUOUS
370
25
 62
1
100
AcDbLine
 10
8.819999999999999
 20
9.62
 30
0.0
 11
0.7999999999999999
 21
9.62
 31
0.0
  0
ARC
  5
1FD
330
1F
100
AcDbEntity
  8
CUT
  6
CONTINUOUS
370
25
 62
1
100
AcDbCircle
 10
0.8000000001000002
 20
8.819999999899998
 30
0.0
 40
0.8000000000000007
100
AcDbArc
 50
90.00000000716199
 51
180.0
  0
LINE
  5
1FE
330
1F
100
AcDbEntity
  8
CUT
  6
CONTINUOUS
370
25
 62
1
100
AcDbLine
 10
0.0
 20
8.819999999999999
 30
0.0
 11
0.0
 21
0.8000000000000002
 31
0.0
  0
ARC
  5
1FF
330
1F
100
AcDbEntity
  8
CUT
  6
CONTINUOUS
370
25
 62
1
100
AcDbCircle
 10
0.8000000001000002
 20
0.8000000001
 30
0.0
 40
0.8
100
AcDbArc
 50
180.0
 51
269.9999999928381
  0
LINE
  5
200
330
1F
100
AcDbEntity
  8
SKVIEW1
  6
CONTINUOUS
370
50
 62
4
100
AcDbLine
 10
-64.0
 20
0.0
 30
0.0
 11
-64.0
 21
9.62
 31
0.0
  0
LINE
  5
201
330
1F
100
AcDbEntity
  8
SKVIEW1
  6
CONTINUOUS
370
50
 62
4
100
AcDbLine
 10
-64.0
 20
9.62
 30
0.0
 11
-60.0
 21
9.057836661190434
 31
0.0
  0
LINE
  5
202
330
1F
100
AcDbEntity
  8
SKVIEW1
  6
CONTINUOUS
370
50
 62
4
100
AcDbLine
 10
-60.0
 20
9.057836661190434
 30
0.0
 11
-60.0
 21
0.562163338809567
 31
0.0
  0
LINE
  5
203
330
1F
100
AcDbEntity
  8
SKVIEW1
  6
CONTINUOUS
370
50
 62
4
100
AcDbLine
 10
-60.0
 20
0.562163338809567
 30
0.0
 11
-64.0
 21
0.0
 31
0.0
  0
LINE
  5
204
330
1F
100
AcDbEntity
  8
SKVIEW2
  6
CONTINUOUS
370
25
 62
7
100
AcDbLine
 10
-60.00000000007375
 20
0.5621633387992013
 30
0.0
 11
-44.68977265953939
 21
2.713875468721275
 31
0.0
  0
LINE
  5
205
330
1F
100
AcDbEntity
  8
SKVIEW2
  6
CONTINUOUS
370
25
 62
7
100
AcDbLine
 10
-64.0
 20
0.0
 30
0.0
 11
-44.5
 21
0.0
 31
0.0
  0
ARC
  5
206
330
1F
100
AcDbEntity
  8
SKVIEW2
  6
CONTINUOUS
370
25
 62
7
100
AcDbCircle
 10
-64.00000000000003
 20
-0.000000000000002
 30
0.0
 40
19.50000000000002
100
AcDbArc
 50
339.3202182121449
 51
37.42956075882598
  0
LINE
  5
207
330
1F
100
AcDbEntity
  8
SKVIEW2
  6
CONTINUOUS
370
25
 62
7
100
AcDbLine
 10
-44.68977265953938
 20
2.713875468721277
 30
0.0
 11
-46.97893622423842
 21
7.270160158471728
 31
0.0
  0
LINE
  5
208
330
1F
100
AcDbEntity
  8
SKVIEW2
  6
CONTINUOUS
370
25
 62
7
100
AcDbLine
 10
-46.97893622423842
 20
7.270160158471728
 30
0.0
 11
-45.05042953089602
 21
7.800124245682864
 31
0.0
  0
LINE
  5
209
330
1F
100
AcDbEntity
  8
SKVIEW2
  6
CONTINUOUS
370
25
 62
7
100
AcDbLine
 10
-45.05042953089602
 20
7.800124245682864
 30
0.0
 11
-44.68977265953938
 21
2.713875468721277
 31
0.0
  0
LINE
  5
20A
330
1F
100
AcDbEntity
  8
SKVIEW2
  6
CONTINUOUS
370
25
 62
7
100
AcDbLine
 10
-44.80535091077189
 20
2.943919063980086
 30
0.0
 11
-44.71265737645504
 21
3.036612598296941
 31
0.0
  0
LINE
  5
20B
330
1F
100
AcDbEntity
  8
SKVIEW2
  6
CONTINUOUS
370
25
 62
7
100
AcDbLine
 10
-44.94722764576512
 20
3.226306397698792
 30
0.0
 11
-44.74074924393542
 21
3.432784799528491
 31
0.0
  0
LINE
  5
20C
330
1F
100
AcDbEntity
  8
SKVIEW2
  6
CONTINUOUS
370
25
 62
7
100
AcDbLine
 10
-45.08910438075833
 20
3.508693731417505
 30
0.0
 11
-44.7688411114158
 21
3.828957000760042
 31
0.0
  0
LINE
  5
20D
330
1F
100
AcDbEntity
  8
SKVIEW2
  6
CONTINUOUS
370
25
 62
7
100
AcDbLine
 10
-45.23098111575155
 20
3.791081065136215
 30
0.0
 11
-44.79693297889617
 21
4.225129201991592
 31
0.0
  0
LINE
  5
20E
330
1F
100
AcDbEntity
  8
SKVIEW2
  6
CONTINUOUS
370
25
 62
7
100
AcDbLine
 10
-45.37285785074477
 20
4.073468398854924
 30
0.0
 11
-44.82502484637655
 21
4.621301403223139
 31
0.0
  0
LINE
  5
20F
330
1F
100
AcDbEntity
  8
SKVIEW2
  6
CONTINUOUS
370
25
 62
7
100
AcDbLine
 10
-45.51473458573798
 20
4.355855732573634
 30
0.0
 11
-44.85311671385693
 21
5.017473604454686
 31
0.0
  0
LINE
  5
210
330
1F
100
AcDbEntity
  8
SKVIEW2
  6
CONTINUOUS
370
25
 62
7
100
AcDbLine
 10
-45.6566113207312
 20
4.638243066292347
 30
0.0
 11
-44.88120858133731
 21
5.413645805686237
 31
0.0
  0
LINE
  5
211
330
1F
100
AcDbEntity
  8
SKVIEW2
  6
CONTINUOUS
370
25
 62
7
100
AcDbLine
 10
-45.79848805572442
 20
4.920630400011056
 30
0.0
 11
-44.90930044881769
 21
5.809818006917784
 31
0.0
  0
LINE
  5
212
330
1F
100
AcDbEntity
  8
SKVIEW2
  6
CONTINUOUS
370
25
 62
7
100
AcDbLine
 10
-45.94036479071764
 20
5.203017733729762
 30
0.0
 11
-44.93739231629807
 21
6.205990208149334
 31
0.0
  0
LINE
  5
213
330
1F
100
AcDbEntity
  8
SKVIEW2
  6
CONTINUOUS
370
25
 62
7
100
AcDbLine
 10
-46.08224152571086
 20
5.485405067448475
 30
0.0
 11
-44.96548418377844
 21
6.602162409380885
 31
0.0
  0
LINE
  5
214
330
1F
100
AcDbEntity
  8
SKVIEW2
  6
CONTINUOUS
370
25
 62
7
100
AcDbLine
 10
-46.22411826070407
 20
5.767792401167181
 30
0.0
 11
-44.99357605125883
 21
6.998334610612432
 31
0.0
  0
LINE
  5
215
330
1F
100
AcDbEntity
  8
SKVIEW2
  6
CONTINUOUS
370
25
 62
7
100
AcDbLine
 10
-46.36599499569729
 20
6.050179734885896
 30
0.0
 11
-45.0216679187392
 21
7.394506811843984
 31
0.0
  0
LINE
  5
216
330
1F
100
AcDbEntity
  8
SKVIEW2
  6
CONTINUOUS
370
25
 62
7
100
AcDbLine
 10
-46.50787173069051
 20
6.332567068604604
 30
0.0
 11
-45.04975978621958
 21
7.790679013075529
 31
0.0
  0
LINE
  5
217
330
1F
100
AcDbEntity
  8
SKVIEW2
  6
CONTINUOUS
370
25
 62
7
100
AcDbLine
 10
-46.64974846568373
 20
6.614954402323313
 30
0.0
 11
-45.62151638328034
 21
7.643186484726698
 31
0.0
  0
LINE
  5
218
330
1F
100
AcDbEntity
  8
SKVIEW2
  6
CONTINUOUS
370
25
 62
7
100
AcDbLine
 10
-46.79162520067695
 20
6.897341736042023
 30
0.0
 11
-46.20655118498651
 21
7.482415751732457
 31
0.0
  0
LINE
  5
219
330
1F
100
AcDbEntity
  8
SKVIEW2
  6
CONTINUOUS
370
25
 62
7
100
AcDbLine
 10
-46.93350193567017
 20
7.179729069760732
 30
0.0
 11
-46.79158598669268
 21
7.321645018738216
 31
0.0
  0
LINE
  5
21A
330
1F
100
AcDbEntity
  8
SKVIEW2
  6
CONTINUOUS
370
25
 62
7
100
AcDbLine
 10
-44.72776727491821
 20
2.789498847938514
 30
0.0
 11
-44.69264448438378
 21
2.754376057404077
 31
0.0
  0
LINE
  5
21B
330
1F
100
AcDbEntity
  8
SKVIEW2
  6
CONTINUOUS
370
25
 62
7
100
AcDbLine
 10
-45.15615631738029
 20
3.642151959112525
 30
0.0
 11
-44.72502429091535
 21
3.211019932647584
 31
0.0
  0
LINE
  5
21C
330
1F
100
AcDbEntity
  8
SKVIEW2
  6
CONTINUOUS
370
25
 62
7
100
AcDbLine
 10
-45.58454535984237
 20
4.494805070286528
 30
0.0
 11
-44.75740409744693
 21
3.667663807891092
 31
0.0
  0
LINE
  5
21D
330
1F
100
AcDbEntity
  8
SKVIEW2
  6
CONTINUOUS
370
25
 62
7
100
AcDbLine
 10
-46.01293440230444
 20
5.347458181460521
 30
0.0
 11
-44.78978390397851
 21
4.124307683134596
 31
0.0
  0
LINE
  5
21E
330
1F
100
AcDbEntity
  8
SKVIEW2
  6
CONTINUOUS
370
25
 62
7
100
AcDbLine
 10
-46.44132344476651
 20
6.200111292634524
 30
0.0
 11
-44.82216371051008
 21
4.5809515583781
 31
0.0
  0
LINE
  5
21F
330
1F
100
AcDbEntity
  8
SKVIEW2
  6
CONTINUOUS
370
25
 62
7
100
AcDbLine
 10
-46.86971248722859
 20
7.052764403808528
 30
0.0
 11
-44.85454351704166
 21
5.037595433621608
 31
0.0
  0
LINE
  5
220
330
1F
100
AcDbEntity
  8
SKVIEW2
  6
CONTINUOUS
370
25
 62
7
100
AcDbLine
 10
-46.73098304903676
 20
7.338299034328625
 30
0.0
 11
-44.88692332357324
 21
5.494239308865115
 31
0.0
  0
LINE
  5
221
330
1F
100
AcDbEntity
  8
SKVIEW2
  6
CONTINUOUS
370
25
 62
7
100
AcDbLine
 10
-46.39817612583574
 20
7.429756179839533
 30
0.0
 11
-44.91930313010482
 21
5.950883184108619
 31
0.0
  0
LINE
  5
222
330
1F
100
AcDbEntity
  8
SKVIEW2
  6
CONTINUOUS
370
25
 62
7
100
AcDbLine
 10
-46.06536920263471
 20
7.521213325350441
 30
0.0
 11
-44.9516829366364
 21
6.40752705935213
 31
0.0
  0
LINE
  5
223
330
1F
100
AcDbEntity
  8
SKVIEW2
  6
CONTINUOUS
370
25
 62
7
100
AcDbLine
 10
-45.73256227943369
 20
7.612670470861346
 30
0.0
 11
-44.98406274316798
 21
6.864170934595634
 31
0.0
  0
LINE
  5
224
330
1F
100
AcDbEntity
  8
SKVIEW2
  6
CONTINUOUS
370
25
 62
7
100
AcDbLine
 10
-45.39975535623267
 20
7.704127616372254
 30
0.0
 11
-45.01644254969956
 21
7.320814809839138
 31
0.0
  0
LINE
  5
225
330
1F
100
AcDbEntity
  8
SKVIEW2
  6
CONTINUOUS
370
25
 62
7
100
AcDbLine
 10
-45.06694843303165
 20
7.795584761883163
 30
0.0
 11
-45.04882235623113
 21
7.777458685082642
 31
0.0
  0
LINE
  5
226
330
1F
100
AcDbEntity
  8
SKVIEW2
  6
CONTINUOUS
370
25
 62
7
100
AcDbLine
 10
-44.5
 20
0.0
 30
0.0
 11
-44.14927796893264
 21
-5.086943488670183
 31
0.0
  0
LINE
  5
227
330
1F
100
AcDbEntity
  8
SKVIEW2
  6
CONTINUOUS
370
25
 62
7
100
AcDbLine
 10
-44.14927796893264
 20
-5.086943488670183
 30
0.0
 11
-46.13277331311866
 21
-4.830533232259926
 31
0.0
  0
LINE
  5
228
330
1F
100
AcDbEntity
  8
SKVIEW2
  6
CONTINUOUS
370
25
 62
7
100
AcDbLine
 10
-46.13277331311866
 20
-4.830533232259926
 30
0.0
 11
-44.5
 21
0.0
 31
0.0
  0
LINE
  5
229
330
1F
100
AcDbEntity
  8
SKVIEW2
  6
CONTINUOUS
370
25
 62
7
100
AcDbLine
 10
-44.47487636413932
 20
-5.044852758159305
 30
0.0
 11
-44.17299341750243
 21
-4.742969811522403
 31
0.0
  0
LINE
  5
22A
330
1F
100
AcDbEntity
  8
SKVIEW2
  6
CONTINUOUS
370
25
 62
7
100
AcDbLine
 10
-44.85057335992857
 20
-4.996285685236625
 30
0.0
 11
-44.20035787295623
 21
-4.346070198264286
 31
0.0
  0
LINE
  5
22B
330
1F
100
AcDbEntity
  8
SKVIEW2
  6
CONTINUOUS
370
25
 62
7
100
AcDbLine
 10
-45.22627035571782
 20
-4.947718612313942
 30
0.0
 11
-44.22772232841003
 21
-3.949170585006161
 31
0.0
  0
LINE
  5
22C
330
1F
100
AcDbEntity
  8
SKVIEW2
  6
CONTINUOUS
370
25
 62
7
100
AcDbLine
 10
-45.60196735150706
 20
-4.899151539391259
 30
0.0
 11
-44.25508678386384
 21
-3.55227097174804
 31
0.0
  0
LINE
  5
22D
330
1F
100
AcDbEntity
  8
SKVIEW2
  6
CONTINUOUS
370
25
 62
7
100
AcDbLine
 10
-45.9776643472963
 20
-4.850584466468579
 30
0.0
 11
-44.28245123931765
 21
-3.155371358489923
 31
0.0
  0
LINE
  5
22E
330
1F
100
AcDbEntity
  8
SKVIEW2
  6
CONTINUOUS
370
25
 62
7
100
AcDbLine
 10
-46.00558110380294
 20
-4.454237154263282
 30
0.0
 11
-44.30981569477145
 21
-2.758471745231795
 31
0.0
  0
LINE
  5
22F
330
1F
100
AcDbEntity
  8
SKVIEW2
  6
CONTINUOUS
370
25
 62
7
100
AcDbLine
 10
-45.78895225528888
 20
-3.813344237037299
 30
0.0
 11
-44.33718015022526
 21
-2.361572131973674
 31
0.0
  0
LINE
  5
230
330
1F
100
AcDbEntity
  8
SKVIEW2
  6
CONTINUOUS
370
25
 62
7
100
AcDbLine
 10
-45.57232340677483
 20
-3.172451319811312
 30
0.0
 11
-44.36454460567906
 21
-1.964672518715549
 31
0.0
  0
LINE
  5
231
330
1F
100
AcDbEntity
  8
SKVIEW2
  6
CONTINUOUS
370
25
 62
7
100
AcDbLine
 10
-45.35569455826077
 20
-2.531558402585329
 30
0.0
 11
-44.39190906113286
 21
-1.567772905457428
 31
0.0
  0
LINE
  5
232
330
1F
100
AcDbEntity
  8
SKVIEW2
  6
CONTINUOUS
370
25
 62
7
100
AcDbLine
 10
-45.13906570974672
 20
-1.890665485359346
 30
0.0
 11
-44.41927351658667
 21
-1.170873292199303
 31
0.0
  0
LINE
  5
233
330
1F
100
AcDbEntity
  8
SKVIEW2
  6
CONTINUOUS
370
25
 62
7
100
AcDbLine
 10
-44.92243686123265
 20
-1.249772568133359
 30
0.0
 11
-44.44663797204048
 21
-0.7739736789411786
 31
0.0
  0
LINE
  5
234
330
1F
100
AcDbEntity
  8
SKVIEW2
  6
CONTINUOUS
370
25
 62
7
100
AcDbLine
 10
-44.70580801271859
 20
-0.6088796509073688
 30
0.0
 11
-44.47400242749428
 21
-0.377074065683054
 31
0.0
  0
LINE
  5
235
330
1F
100
AcDbEntity
  8
SKVIEW2
  6
CONTINUOUS
370
25
 62
7
100
AcDbLine
 10
-46.10359732448051
 20
-4.744216545449664
 30
0.0
 11
-46.00013411331263
 21
-4.847679756617548
 31
0.0
  0
LINE
  5
236
330
1F
100
AcDbEntity
  8
SKVIEW2
  6
CONTINUOUS
370
25
 62
7
100
AcDbLine
 10
-45.99641889433111
 20
-4.427130906887133
 30
0.0
 11
-45.51288203120514
 21
-4.910667770013106
 31
0.0
  0
LINE
  5
237
330
1F
100
AcDbEntity
  8
SKVIEW2
  6
CONTINUOUS
370
25
 62
7
100
AcDbLine
 10
-45.88924046418173
 20
-4.110045268324598
 30
0.0
 11
-45.02562994909766
 21
-4.97365578340866
 31
0.0
  0
LINE
  5
238
330
1F
100
AcDbEntity
  8
SKVIEW2
  6
CONTINUOUS
370
25
 62
7
100
AcDbLine
 10
-45.78206203403233
 20
-3.792959629762063
 30
0.0
 11
-44.53837786699017
 21
-5.036643796804217
 31
0.0
  0
LINE
  5
239
330
1F
100
AcDbEntity
  8
SKVIEW2
  6
CONTINUOUS
370
25
 62
7
100
AcDbLine
 10
-45.67488360388293
 20
-3.475873991199526
 30
0.0
 11
-44.15560665514681
 21
-4.995150939935654
 31
0.0
  0
LINE
  5
23A
330
1F
100
AcDbEntity
  8
SKVIEW2
  6
CONTINUOUS
370
25
 62
7
100
AcDbLine
 10
-45.56770517373354
 20
-3.158788352636996
 30
0.0
 11
-44.18702384229051
 21
-4.539469684080021
 31
0.0
  0
LINE
  5
23B
330
1F
100
AcDbEntity
  8
SKVIEW2
  6
CONTINUOUS
370
25
 62
7
100
AcDbLine
 10
-45.46052674358415
 20
-2.841702714074462
 30
0.0
 11
-44.21844102943422
 21
-4.083788428224388
 31
0.0
  0
LINE
  5
23C
330
1F
100
AcDbEntity
  8
SKVIEW2
  6
CONTINUOUS
370
25
 62
7
100
AcDbLine
 10
-45.35334831343475
 20
-2.524617075511927
 30
0.0
 11
-44.24985821657793
 21
-3.628107172368747
 31
0.0
  0
LINE
  5
23D
330
1F
100
AcDbEntity
  8
SKVIEW2
  6
CONTINUOUS
370
25
 62
7
100
AcDbLine
 10
-45.24616988328536
 20
-2.207531436949392
 30
0.0
 11
-44.28127540372164
 21
-3.172425916513109
 31
0.0
  0
LINE
  5
23E
330
1F
100
AcDbEntity
  8
SKVIEW2
  6
CONTINUOUS
370
25
 62
7
100
AcDbLine
 10
-45.13899145313597
 20
-1.890445798386857
 30
0.0
 11
-44.31269259086535
 21
-2.716744660657472
 31
0.0
  0
LINE
  5
23F
330
1F
100
AcDbEntity
  8
SKVIEW2
  6
CONTINUOUS
370
25
 62
7
100
AcDbLine
 10
-45.03181302298658
 20
-1.573360159824318
 30
0.0
 11
-44.34410977800906
 21
-2.261063404801838
 31
0.0
  0
LINE
  5
240
330
1F
100
AcDbEntity
  8
SKVIEW2
  6
CONTINUOUS
370
25
 62
7
100
AcDbLine
 10
-44.92463459283718
 20
-1.256274521261787
 30
0.0
 11
-44.37552696515276
 21
-1.805382148946205
 31
0.0
  0
LINE
  5
241
330
1F
100
AcDbEntity
  8
SKVIEW2
  6
CONTINUOUS
370
25
 62
7
100
AcDbLine
 10
-44.81745616268779
 20
-0.939188882699252
 30
0.0
 11
-44.40694415229648
 21
-1.349700893090564
 31
0.0
  0
LINE
  5
242
330
1F
100
AcDbEntity
  8
SKVIEW2
  6
CONTINUOUS
370
25
 62
7
100
AcDbLine
 10
-44.71027773253839
 20
-0.6221032441367207
 30
0.0
 11
-44.43836133944018
 21
-0.8940196372349298
 31
0.0
  0
LINE
  5
243
330
1F
100
AcDbEntity
  8
SKVIEW2
  6
CONTINUOUS
370
25
 62
7
100
AcDbLine
 10
-44.603099302389
 20
-0.3050176055741822
 30
0.0
 11
-44.46977852658388
 21
-0.438338381379296
 31
0.0
  0
TEXT
  5
244
330
1F
100
AcDbEntity
  8
SKVIEW2
  6
CONTINUOUS
370
25
 62
7
100
AcDbText
 10
-47.55834974641225
 20
13.27089226024921
 30
0.0
 40
3.500000000000002
  1
8°
 50
302.56857244162
 72
     1
 11
-46.30229633069695
 21
11.30448074143776
 31
0.0
100
AcDbText
  0
LINE
  5
245
330
1F
100
AcDbEntity
  8
SKVIEW2
  6
CONTINUOUS
370
25
 62
7
100
AcDbLine
 10
-64.0
 20
0.0
 30
0.0
 11
-64.0
 21
-13.0
 31
0.0
  0
LINE
  5
246
330
1F
100
AcDbEntity
  8
SKVIEW2
  6
CONTINUOUS
370
25
 62
7
100
AcDbLine
 10
-60.0
 20
-13.0
 30
0.0
 11
-60.0
 21
0.5621633399999997
 31
0.0
  0
LINE
  5
247
330
1F
100
AcDbEntity
  8
SKVIEW2
  6
CONTINUOUS
370
25
 62
7
100
AcDbLine
 10
-71.0
 20
-12.0
 30
0.0
 11
-53.0
 21
-12.0
 31
0.0
  0
LINE
  5
248
330
1F
100
AcDbEntity
  8
SKVIEW2
  6
CONTINUOUS
370
25
 62
7
100
AcDbLine
 10
-64.0
 20
-12.0
 30
0.0
 11
-69.0
 21
-13.0
 31
0.0
  0
LINE
  5
249
330
1F
100
AcDbEntity
  8
SKVIEW2
  6
CONTINUOUS
370
25
 62
7
100
AcDbLine
 10
-69.0
 20
-13.0
 30
0.0
 11
-69.0
 21
-11.0
 31
0.0
  0
LINE
  5
24A
330
1F
100
AcDbEntity
  8
SKVIEW2
  6
CONTINUOUS
370
25
 62
7
100
AcDbLine
 10
-69.0
 20
-11.0
 30
0.0
 11
-64.0
 21
-12.0
 31
0.0
  0
LINE
  5
24B
330
1F
100
AcDbEntity
  8
SKVIEW2
  6
CONTINUOUS
370
25
 62
7
100
AcDbLine
 10
-64.40052010206593
 20
-12.08010402041319
 30
0.0
 11
-64.26701340137728
 21
-11.94659731972454
 31
0.0
  0
LINE
  5
24C
330
1F
100
AcDbEntity
  8
SKVIEW2
  6
CONTINUOUS
370
25
 62
7
100
AcDbLine
 10
-64.93085018795584
 20
-12.18617003759117
 30
0.0
 11
-64.62056679197056
 21
-11.87588664160589
 31
0.0
  0
LINE
  5
24D
330
1F
100
AcDbEntity
  8
SKVIEW2
  6
CONTINUOUS
370
25
 62
7
100
AcDbLine
 10
-65.46118027384576
 20
-12.29223605476915
 30
0.0
 11
-64.97412018256384
 21
-11.80517596348723
 31
0.0
  0
LINE
  5
24E
330
1F
100
AcDbEntity
  8
SKVIEW2
  6
CONTINUOUS
370
25
 62
7
100
AcDbLine
 10
-65.99151035973566
 20
-12.39830207194713
 30
0.0
 11
-65.3276735731571
 21
-11.73446528536858
 31
0.0
  0
LINE
  5
24F
330
1F
100
AcDbEntity
  8
SKVIEW2
  6
CONTINUOUS
370
25
 62
7
100
AcDbLine
 10
-66.52184044562557
 20
-12.50436808912511
 30
0.0
 11
-65.68122696375038
 21
-11.66375460724992
 31
0.0
  0
LINE
  5
250
330
1F
100
AcDbEntity
  8
SKVIEW2
  6
CONTINUOUS
370
25
 62
7
100
AcDbLine
 10
-67.05217053151547
 20
-12.6104341063031
 30
0.0
 11
-66.03478035434365
 21
-11.59304392913127
 31
0.0
  0
LINE
  5
251
330
1F
100
AcDbEntity
  8
SKVIEW2
  6
CONTINUOUS
370
25
 62
7
100
AcDbLine
 10
-67.58250061740539
 20
-12.71650012348108
 30
0.0
 11
-66.38833374493693
 21
-11.52233325101261
 31
0.0
  0
LINE
  5
252
330
1F
100
AcDbEntity
  8
SKVIEW2
  6
CONTINUOUS
370
25
 62
7
100
AcDbLine
 10
-68.1128307032953
 20
-12.82256614065906
 30
0.0
 11
-66.7418871355302
 21
-11.45162257289396
 31
0.0
  0
LINE
  5
253
330
1F
100
AcDbEntity
  8
SKVIEW2
  6
CONTINUOUS
370
25
 62
7
100
AcDbLine
 10
-68.6431607891852
 20
-12.92863215783704
 30
0.0
 11
-67.09544052612347
 21
-11.38091189477531
 31
0.0
  0
LINE
  5
254
330
1F
100
AcDbEntity
  8
SKVIEW2
  6
CONTINUOUS
370
25
 62
7
100
AcDbLine
 10
-69.0
 20
-12.86120729993991
 30
0.0
 11
-67.44899391671674
 21
-11.31020121665665
 31
0.0
  0
LINE
  5
255
330
1F
100
AcDbEntity
  8
SKVIEW2
  6
CONTINUOUS
370
25
 62
7
100
AcDbLine
 10
-69.0
 20
-12.43694323122798
 30
0.0
 11
-67.80254730731002
 21
-11.239490538538
 31
0.0
  0
LINE
  5
256
330
1F
100
AcDbEntity
  8
SKVIEW2
  6
CONTINUOUS
370
25
 62
7
100
AcDbLine
 10
-69.0
 20
-12.01267916251605
 30
0.0
 11
-68.1561006979033
 21
-11.16877986041934
 31
0.0
  0
LINE
  5
257
330
1F
100
AcDbEntity
  8
SKVIEW2
  6
CONTINUOUS
370
25
 62
7
100
AcDbLine
 10
-69.0
 20
-11.58841509380412
 30
0.0
 11
-68.50965408849656
 21
-11.09806918230069
 31
0.0
  0
LINE
  5
258
330
1F
100
AcDbEntity
  8
SKVIEW2
  6
CONTINUOUS
370
25
 62
7
100
AcDbLine
 10
-69.0
 20
-11.16415102509219
 30
0.0
 11
-68.86320747908984
 21
-11.02735850418203
 31
0.0
  0
LINE
  5
259
330
1F
100
AcDbEntity
  8
SKVIEW2
  6
CONTINUOUS
370
25
 62
7
100
AcDbLine
 10
-69.0
 20
-12.8612072999399
 30
0.0
 11
-68.88433941661658
 21
-12.97686788332332
 31
0.0
  0
LINE
  5
25A
330
1F
100
AcDbEntity
  8
SKVIEW2
  6
CONTINUOUS
370
25
 62
7
100
AcDbLine
 10
-69.0
 20
-12.43694323122797
 30
0.0
 11
-68.5307860260233
 21
-12.90615720520466
 31
0.0
  0
LINE
  5
25B
330
1F
100
AcDbEntity
  8
SKVIEW2
  6
CONTINUOUS
370
25
 62
7
100
AcDbLine
 10
-69.0
 20
-12.01267916251604
 30
0.0
 11
-68.17723263543003
 21
-12.83544652708601
 31
0.0
  0
LINE
  5
25C
330
1F
100
AcDbEntity
  8
SKVIEW2
  6
CONTINUOUS
370
25
 62
7
100
AcDbLine
 10
-69.0
 20
-11.58841509380412
 30
0.0
 11
-67.82367924483677
 21
-12.76473584896735
 31
0.0
  0
LINE
  5
25D
330
1F
100
AcDbEntity
  8
SKVIEW2
  6
CONTINUOUS
370
25
 62
7
100
AcDbLine
 10
-69.0
 20
-11.16415102509219
 30
0.0
 11
-67.47012585424349
 21
-12.6940251708487
 31
0.0
  0
LINE
  5
25E
330
1F
100
AcDbEntity
  8
SKVIEW2
  6
CONTINUOUS
370
25
 62
7
100
AcDbLine
 10
-68.67485869547532
 20
-11.06502826090493
 30
0.0
 11
-67.11657246365021
 21
-12.62331449273004
 31
0.0
  0
LINE
  5
25F
330
1F
100
AcDbEntity
  8
SKVIEW2
  6
CONTINUOUS
370
25
 62
7
100
AcDbLine
 10
-68.14452860958542
 20
-11.17109427808292
 30
0.0
 11
-66.76301907305694
 21
-12.55260381461139
 31
0.0
  0
LINE
  5
260
330
1F
100
AcDbEntity
  8
SKVIEW2
  6
CONTINUOUS
370
25
 62
7
100
AcDbLine
 10
-67.6141985236955
 20
-11.2771602952609
 30
0.0
 11
-66.40946568246368
 21
-12.48189313649273
 31
0.0
  0
LINE
  5
261
330
1F
100
AcDbEntity
  8
SKVIEW2
  6
CONTINUOUS
370
25
 62
7
100
AcDbLine
 10
-67.08386843780559
 20
-11.38322631243888
 30
0.0
 11
-66.0559122918704
 21
-12.41118245837408
 31
0.0
  0
LINE
  5
262
330
1F
100
AcDbEntity
  8
SKVIEW2
  6
CONTINUOUS
370
25
 62
7
100
AcDbLine
 10
-66.55353835191568
 20
-11.48929232961686
 30
0.0
 11
-65.70235890127712
 21
-12.34047178025542
 31
0.0
  0
LINE
  5
263
330
1F
100
AcDbEntity
  8
SKVIEW2
  6
CONTINUOUS
370
25
 62
7
100
AcDbLine
 10
-66.02320826602578
 20
-11.59535834679485
 30
0.0
 11
-65.34880551068385
 21
-12.26976110213677
 31
0.0
  0
LINE
  5
264
330
1F
100
AcDbEntity
  8
SKVIEW2
  6
CONTINUOUS
370
25
 62
7
100
AcDbLine
 10
-65.49287818013586
 20
-11.70142436397283
 30
0.0
 11
-64.99525212009057
 21
-12.19905042401811
 31
0.0
  0
LINE
  5
265
330
1F
100
AcDbEntity
  8
SKVIEW2
  6
CONTINUOUS
370
25
 62
7
100
AcDbLine
 10
-64.96254809424595
 20
-11.80749038115081
 30
0.0
 11
-64.6416987294973
 21
-12.12833974589946
 31
0.0
  0
LINE
  5
266
330
1F
100
AcDbEntity
  8
SKVIEW2
  6
CONTINUOUS
370
25
 62
7
100
AcDbLine
 10
-64.43221800835605
 20
-11.91355639832879
 30
0.0
 11
-64.28814533890403
 21
-12.05762906778081
 31
0.0
  0
LINE
  5
267
330
1F
100
AcDbEntity
  8
SKVIEW2
  6
CONTINUOUS
370
25
 62
7
100
AcDbLine
 10
-60.0
 20
-12.0
 30
0.0
 11
-55.0
 21
-11.0
 31
0.0
  0
LINE
  5
268
330
1F
100
AcDbEntity
  8
SKVIEW2
  6
CONTINUOUS
370
25
 62
7
100
AcDbLine
 10
-55.0
 20
-11.0
 30
0.0
 11
-55.0
 21
-13.0
 31
0.0
  0
LINE
  5
269
330
1F
100
AcDbEntity
  8
SKVIEW2
  6
CONTINUOUS
370
25
 62
7
100
AcDbLine
 10
-55.0
 20
-13.0
 30
0.0
 11
-60.0
 21
-12.0
 31
0.0
  0
LINE
  5
26A
330
1F
100
AcDbEntity
  8
SKVIEW2
  6
CONTINUOUS
370
25
 62
7
100
AcDbLine
 10
-55.31786115598282
 20
-12.93642776880344
 30
0.0
 11
-55.0
 21
-12.61856661282062
 31
0.0
  0
LINE
  5
26B
330
1F
100
AcDbEntity
  8
SKVIEW2
  6
CONTINUOUS
370
25
 62
7
100
AcDbLine
 10
-55.6714145465761
 20
-12.86571709068478
 30
0.0
 11
-55.0
 21
-12.19430254410869
 31
0.0
  0
LINE
  5
26C
330
1F
100
AcDbEntity
  8
SKVIEW2
  6
CONTINUOUS
370
25
 62
7
100
AcDbLine
 10
-56.02496793716936
 20
-12.79500641256613
 30
0.0
 11
-55.0
 21
-11.77003847539676
 31
0.0
  0
LINE
  5
26D
330
1F
100
AcDbEntity
  8
SKVIEW2
  6
CONTINUOUS
370
25
 62
7
100
AcDbLine
 10
-56.37852132776264
 20
-12.72429573444747
 30
0.0
 11
-55.0
 21
-11.34577440668483
 31
0.0
  0
LINE
  5
26E
330
1F
100
AcDbEntity
  8
SKVIEW2
  6
CONTINUOUS
370
25
 62
7
100
AcDbLine
 10
-56.73207471835591
 20
-12.65358505632882
 30
0.0
 11
-55.09811207753387
 21
-11.01962241550677
 31
0.0
  0
LINE
  5
26F
330
1F
100
AcDbEntity
  8
SKVIEW2
  6
CONTINUOUS
370
25
 62
7
100
AcDbLine
 10
-57.08562810894919
 20
-12.58287437821016
 30
0.0
 11
-55.62844216342377
 21
-11.12568843268475
 31
0.0
  0
LINE
  5
270
330
1F
100
AcDbEntity
  8
SKVIEW2
  6
CONTINUOUS
370
25
 62
7
100
AcDbLine
 10
-57.43918149954246
 20
-12.51216370009151
 30
0.0
 11
-56.15877224931369
 21
-11.23175444986274
 31
0.0
  0
LINE
  5
271
330
1F
100
AcDbEntity
  8
SKVIEW2
  6
CONTINUOUS
370
25
 62
7
100
AcDbLine
 10
-57.79273489013573
 20
-12.44145302197285
 30
0.0
 11
-56.68910233520359
 21
-11.33782046704072
 31
0.0
  0
LINE
  5
272
330
1F
100
AcDbEntity
  8
SKVIEW2
  6
CONTINUOUS
370
25
 62
7
100
AcDbLine
 10
-58.14628828072901
 20
-12.3707423438542
 30
0.0
 11
-57.21943242109351
 21
-11.4438864842187
 31
0.0
  0
LINE
  5
273
330
1F
100
AcDbEntity
  8
SKVIEW2
  6
CONTINUOUS
370
25
 62
7
100
AcDbLine
 10
-58.49984167132228
 20
-12.30003166573555
 30
0.0
 11
-57.74976250698342
 21
-11.54995250139668
 31
0.0
  0
LINE
  5
274
330
1F
100
AcDbEntity
  8
SKVIEW2
  6
CONTINUOUS
370
25
 62
7
100
AcDbLine
 10
-58.85339506191556
 20
-12.22932098761689
 30
0.0
 11
-58.28009259287333
 21
-11.65601851857467
 31
0.0
  0
LINE
  5
275
330
1F
100
AcDbEntity
  8
SKVIEW2
  6
CONTINUOUS
370
25
 62
7
100
AcDbLine
 10
-59.20694845250883
 20
-12.15861030949823
 30
0.0
 11
-58.81042267876324
 21
-11.76208453575265
 31
0.0
  0
LINE
  5
276
330
1F
100
AcDbEntity
  8
SKVIEW2
  6
CONTINUOUS
370
25
 62
7
100
AcDbLine
 10
-59.5605018431021
 20
-12.08789963137958
 30
0.0
 11
-59.34075276465315
 21
-11.86815055293063
 31
0.0
  0
LINE
  5
277
330
1F
100
AcDbEntity
  8
SKVIEW2
  6
CONTINUOUS
370
25
 62
7
100
AcDbLine
 10
-59.91405523369537
 20
-12.01718895326093
 30
0.0
 11
-59.87108285054306
 21
-11.97421657010861
 31
0.0
  0
LINE
  5
278
330
1F
100
AcDbEntity
  8
SKVIEW2
  6
CONTINUOUS
370
25
 62
7
100
AcDbLine
 10
-59.93518717122213
 20
-11.98703743424442
 30
0.0
 11
-59.90278075683318
 21
-12.01944384863336
 31
0.0
  0
LINE
  5
279
330
1F
100
AcDbEntity
  8
SKVIEW2
  6
CONTINUOUS
370
25
 62
7
100
AcDbLine
 10
-59.58163378062885
 20
-11.91632675612577
 30
0.0
 11
-59.37245067094327
 21
-12.12550986581135
 31
0.0
  0
LINE
  5
27A
330
1F
100
AcDbEntity
  8
SKVIEW2
  6
CONTINUOUS
370
25
 62
7
100
AcDbLine
 10
-59.22808039003558
 20
-11.84561607800712
 30
0.0
 11
-58.84212058505337
 21
-12.23157588298933
 31
0.0
  0
LINE
  5
27B
330
1F
100
AcDbEntity
  8
SKVIEW2
  6
CONTINUOUS
370
25
 62
7
100
AcDbLine
 10
-58.8745269994423
 20
-11.77490539988846
 30
0.0
 11
-58.31179049916345
 21
-12.33764190016731
 31
0.0
  0
LINE
  5
27C
330
1F
100
AcDbEntity
  8
SKVIEW2
  6
CONTINUOUS
370
25
 62
7
100
AcDbLine
 10
-58.52097360884903
 20
-11.7041947217698
 30
0.0
 11
-57.78146041327354
 21
-12.44370791734529
 31
0.0
  0
LINE
  5
27D
330
1F
100
AcDbEntity
  8
SKVIEW2
  6
CONTINUOUS
370
25
 62
7
100
AcDbLine
 10
-58.16742021825576
 20
-11.63348404365115
 30
0.0
 11
-57.25113032738363
 21
-12.54977393452327
 31
0.0
  0
LINE
  5
27E
330
1F
100
AcDbEntity
  8
SKVIEW2
  6
CONTINUOUS
370
25
 62
7
100
AcDbLine
 10
-57.81386682766248
 20
-11.5627733655325
 30
0.0
 11
-56.72080024149372
 21
-12.65583995170126
 31
0.0
  0
LINE
  5
27F
330
1F
100
AcDbEntity
  8
SKVIEW2
  6
CONTINUOUS
370
25
 62
7
100
AcDbLine
 10
-57.46031343706921
 20
-11.49206268741384
 30
0.0
 11
-56.19047015560381
 21
-12.76190596887924
 31
0.0
  0
LINE
  5
280
330
1F
100
AcDbEntity
  8
SKVIEW2
  6
CONTINUOUS
370
25
 62
7
100
AcDbLine
 10
-57.10676004647593
 20
-11.42135200929519
 30
0.0
 11
-55.6601400697139
 21
-12.86797198605722
 31
0.0
  0
LINE
  5
281
330
1F
100
AcDbEntity
  8
SKVIEW2
  6
CONTINUOUS
370
25
 62
7
100
AcDbLine
 10
-56.75320665588266
 20
-11.35064133117653
 30
0.0
 11
-55.12980998382399
 21
-12.9740380032352
 31
0.0
  0
LINE
  5
282
330
1F
100
AcDbEntity
  8
SKVIEW2
  6
CONTINUOUS
370
25
 62
7
100
AcDbLine
 10
-56.39965326528939
 20
-11.27993065305788
 30
0.0
 11
-55.0
 21
-12.67958391834727
 31
0.0
  0
LINE
  5
283
330
1F
100
AcDbEntity
  8
SKVIEW2
  6
CONTINUOUS
370
25
 62
7
100
AcDbLine
 10
-56.04609987469612
 20
-11.20921997493922
 30
0.0
 11
-55.0
 21
-12.25531984963534
 31
0.0
  0
LINE
  5
284
330
1F
100
AcDbEntity
  8
SKVIEW2
  6
CONTINUOUS
370
25
 62
7
100
AcDbLine
 10
-55.69254648410284
 20
-11.13850929682057
 30
0.0
 11
-55.0
 21
-11.83105578092341
 31
0.0
  0
LINE
  5
285
330
1F
100
AcDbEntity
  8
SKVIEW2
  6
CONTINUOUS
370
25
 62
7
100
AcDbLine
 10
-55.33899309350956
 20
-11.06779861870191
 30
0.0
 11
-55.0
 21
-11.40679171221148
 31
0.0
  0
TEXT
  5
286
330
1F
100
AcDbEntity
  8
SKVIEW2
  6
CONTINUOUS
370
25
 62
7
100
AcDbText
 10
-63.16666666666666
 20
-10.5
 30
0.0
 40
3.5
  1
4
 72
     1
 11
-62.0
 21
-10.5
 31
0.0
100
AcDbText
  0
CIRCLE
  5
287
330
1F
100
AcDbEntity
  8
SK4
  6
LONGDASH_DASH
370
25
 62
2
100
AcDbCircle
 10
4.81
 20
4.81
 30
0.0
 40
4.81
  0
LINE
  5
288
330
1F
100
AcDbEntity
  8
SK2
  6
CONTINUOUS
370
25
 62
7
100
AcDbLine
 10
9.62
 20
8.819999999999999
 30
0.0
 11
9.620000000000001
 21
25.02
 31
0.0
  0
LINE
  5
289
330
1F
100
AcDbEntity
  8
SK2
  6
CONTINUOUS
370
25
 62
7
100
AcDbLine
 10
8.819999999999999
 20
9.620000999999998
 30
0.0
 11
24.01999960995994
 21
9.620000999999998
 31
0.0
  0
LINE
  5
28A
330
1F
100
AcDbEntity
  8
SK2
  6
CONTINUOUS
370
25
 62
7
100
AcDbLine
 10
24.02000002290427
 20
9.620000999999998
 30
0.0
 11
25.02000000000006
 21
9.620000999999998
 31
0.0
  0
ARC
  5
28B
330
1F
100
AcDbEntity
  8
SK2
  6
CONTINUOUS
370
25
 62
7
100
AcDbCircle
 10
9.619999999999997
 20
9.619999999999997
 30
0.0
 40
14.4
100
AcDbArc
 50
0.0
 51
90.0
  0
LINE
  5
28C
330
1F
100
AcDbEntity
  8
SK2
  6
CONTINUOUS
370
25
 62
7
100
AcDbLine
 10
9.62
 20
24.02
 30
0.0
 11
14.71768255174529
 21
24.13675873257128
 31
0.0
  0
LINE
  5
28D
330
1F
100
AcDbEntity
  8
SK2
  6
CONTINUOUS
370
25
 62
7
100
AcDbLine
 10
14.71768255174529
 20
24.13675873257128
 30
0.0
 11
14.37046032952306
 21
22.16713015631761
 31
0.0
  0
LINE
  5
28E
330
1F
100
AcDbEntity
  8
SK2
  6
CONTINUOUS
370
25
 62
7
100
AcDbLine
 10
14.37046032952306
 20
22.16713015631761
 30
0.0
 11
9.62
 21
24.02
 31
0.0
  0
LINE
  5
28F
330
1F
100
AcDbEntity
  8
SK2
  6
CONTINUOUS
370
25
 62
7
100
AcDbLine
 10
14.18028776840812
 20
22.24130507393471
 30
0.0
 11
14.42703513199231
 21
22.4880524375189
 31
0.0
  0
LINE
  5
290
330
1F
100
AcDbEntity
  8
SK2
  6
CONTINUOUS
370
25
 62
7
100
AcDbLine
 10
13.87507061663882
 20
22.36035199087734
 30
0.0
 11
14.5178347719106
 21
23.00311614614911
 31
0.0
  0
LINE
  5
291
330
1F
100
AcDbEntity
  8
SK2
  6
CONTINUOUS
370
25
 62
7
100
AcDbLine
 10
13.56985346486952
 20
22.47939890781997
 30
0.0
 11
14.60863441182889
 21
23.51817985477933
 31
0.0
  0
LINE
  5
292
330
1F
100
AcDbEntity
  8
SK2
  6
CONTINUOUS
370
25
 62
7
100
AcDbLine
 10
13.26463631310022
 20
22.59844582476259
 30
0.0
 11
14.69943405174717
 21
24.03324356340955
 31
0.0
  0
LINE
  5
293
330
1F
100
AcDbEntity
  8
SK2
  6
CONTINUOUS
370
25
 62
7
100
AcDbLine
 10
12.95941916133092
 20
22.71749274170522
 30
0.0
 11
14.37073865308293
 21
24.12881223345723
 31
0.0
  0
LINE
  5
294
330
1F
100
AcDbEntity
  8
SK2
  6
CONTINUOUS
370
25
 62
7
100
AcDbLine
 10
12.65420200956162
 20
22.83653965864784
 30
0.0
 11
13.93652933390408
 21
24.1188669829903
 31
0.0
  0
LINE
  5
295
330
1F
100
AcDbEntity
  8
SK2
  6
CONTINUOUS
370
25
 62
7
100
AcDbLine
 10
12.34898485779231
 20
22.95558657559047
 30
0.0
 11
13.50232001472523
 21
24.10892173252338
 31
0.0
  0
LINE
  5
296
330
1F
100
AcDbEntity
  8
SK2
  6
CONTINUOUS
370
25
 62
7
100
AcDbLine
 10
12.04376770602301
 20
23.0746334925331
 30
0.0
 11
13.06811069554638
 21
24.09897648205646
 31
0.0
  0
LINE
  5
297
330
1F
100
AcDbEntity
  8
SK2
  6
CONTINUOUS
370
25
 62
7
100
AcDbLine
 10
11.73855055425371
 20
23.19368040947572
 30
0.0
 11
12.63390137636753
 21
24.08903123158954
 31
0.0
  0
LINE
  5
298
330
1F
100
AcDbEntity
  8
SK2
  6
CONTINUOUS
370
25
 62
7
100
AcDbLine
 10
11.43333340248441
 20
23.31272732641835
 30
0.0
 11
12.19969205718868
 21
24.07908598112262
 31
0.0
  0
LINE
  5
299
330
1F
100
AcDbEntity
  8
SK2
  6
CONTINUOUS
370
25
 62
7
100
AcDbLine
 10
11.12811625071511
 20
23.43177424336098
 30
0.0
 11
11.76548273800984
 21
24.0691407306557
 31
0.0
  0
LINE
  5
29A
330
1F
100
AcDbEntity
  8
SK2
  6
CONTINUOUS
370
25
 62
7
100
AcDbLine
 10
10.8228990989458
 20
23.5508211603036
 30
0.0
 11
11.33127341883099
 21
24.05919548018878
 31
0.0
  0
LINE
  5
29B
330
1F
100
AcDbEntity
  8
SK2
  6
CONTINUOUS
370
25
 62
7
100
AcDbLine
 10
10.5176819471765
 20
23.66986807724622
 30
0.0
 11
10.89706409965214
 21
24.04925022972186
 31
0.0
  0
LINE
  5
29C
330
1F
100
AcDbEntity
  8
SK2
  6
CONTINUOUS
370
25
 62
7
100
AcDbLine
 10
10.2124647954072
 20
23.78891499418885
 30
0.0
 11
10.46285478047329
 21
24.03930497925494
 31
0.0
  0
LINE
  5
29D
330
1F
100
AcDbEntity
  8
SK2
  6
CONTINUOUS
370
25
 62
7
100
AcDbLine
 10
9.907247643637898
 20
23.90796191113148
 30
0.0
 11
10.02864546129444
 21
24.02935972878802
 31
0.0
  0
LINE
  5
29E
330
1F
100
AcDbEntity
  8
SK2
  6
CONTINUOUS
370
25
 62
7
100
AcDbLine
 10
9.914382870189046
 20
24.02674262676521
 30
0.0
 11
10.11368077872954
 21
23.82744471822472
 31
0.0
  0
LINE
  5
29F
330
1F
100
AcDbEntity
  8
SK2
  6
CONTINUOUS
370
25
 62
7
100
AcDbLine
 10
10.32914706494759
 20
24.0362425007186
 30
0.0
 11
10.80924132722897
 21
23.55614823843722
 31
0.0
  0
LINE
  5
2A0
330
1F
100
AcDbEntity
  8
SK2
  6
CONTINUOUS
370
25
 62
7
100
AcDbLine
 10
10.74391125970613
 20
24.04574237467199
 30
0.0
 11
11.5048018757284
 21
23.28485175864972
 31
0.0
  0
LINE
  5
2A1
330
1F
100
AcDbEntity
  8
SK2
  6
CONTINUOUS
370
25
 62
7
100
AcDbLine
 10
11.15867545446467
 20
24.05524224862537
 30
0.0
 11
12.20036242422783
 21
23.01355527886222
 31
0.0
  0
LINE
  5
2A2
330
1F
100
AcDbEntity
  8
SK2
  6
CONTINUOUS
370
25
 62
7
100
AcDbLine
 10
11.57343964922321
 20
24.06474212257876
 30
0.0
 11
12.89592297272726
 21
22.74225879907472
 31
0.0
  0
LINE
  5
2A3
330
1F
100
AcDbEntity
  8
SK2
  6
CONTINUOUS
370
25
 62
7
100
AcDbLine
 10
11.98820384398176
 20
24.07424199653214
 30
0.0
 11
13.59148352122669
 21
22.47096231928722
 31
0.0
  0
LINE
  5
2A4
330
1F
100
AcDbEntity
  8
SK2
  6
CONTINUOUS
370
25
 62
7
100
AcDbLine
 10
12.4029680387403
 20
24.08374187048553
 30
0.0
 11
14.28704406972611
 21
22.19966583949972
 31
0.0
  0
LINE
  5
2A5
330
1F
100
AcDbEntity
  8
SK2
  6
CONTINUOUS
370
25
 62
7
100
AcDbLine
 10
12.81773223349884
 20
24.09324174443891
 30
0.0
 11
14.42641863549267
 21
22.48455534244509
 31
0.0
  0
LINE
  5
2A6
330
1F
100
AcDbEntity
  8
SK2
  6
CONTINUOUS
370
25
 62
7
100
AcDbLine
 10
13.23249642825738
 20
24.1027416183923
 30
0.0
 11
14.49000232109043
 21
22.84523572555926
 31
0.0
  0
LINE
  5
2A7
330
1F
100
AcDbEntity
  8
SK2
  6
CONTINUOUS
370
25
 62
7
100
AcDbLine
 10
13.64726062301593
 20
24.11224149234569
 30
0.0
 11
14.55358600668818
 21
23.20591610867343
 31
0.0
  0
LINE
  5
2A8
330
1F
100
AcDbEntity
  8
SK2
  6
CONTINUOUS
370
25
 62
7
100
AcDbLine
 10
14.06202481777446
 20
24.12174136629907
 30
0.0
 11
14.61716969228593
 21
23.5665964917876
 31
0.0
  0
LINE
  5
2A9
330
1F
100
AcDbEntity
  8
SK2
  6
CONTINUOUS
370
25
 62
7
100
AcDbLine
 10
14.47678901253301
 20
24.13124124025246
 30
0.0
 11
14.68075337788369
 21
23.92727687490178
 31
0.0
  0
LINE
  5
2AA
330
1F
100
AcDbEntity
  8
SK2
  6
CONTINUOUS
370
25
 62
7
100
AcDbLine
 10
24.02
 20
9.619999999999997
 30
0.0
 11
22.16713015631761
 21
14.37046032952306
 31
0.0
  0
LINE
  5
2AB
330
1F
100
AcDbEntity
  8
SK2
  6
CONTINUOUS
370
25
 62
7
100
AcDbLine
 10
22.16713015631761
 20
14.37046032952306
 30
0.0
 11
24.13675873257128
 21
14.71768255174528
 31
0.0
  0
LINE
  5
2AC
330
1F
100
AcDbEntity
  8
SK2
  6
CONTINUOUS
370
25
 62
7
100
AcDbLine
 10
24.13675873257128
 20
14.71768255174528
 30
0.0
 11
24.02
 21
9.619999999999997
 31
0.0
  0
LINE
  5
2AD
330
1F
100
AcDbEntity
  8
SK2
  6
CONTINUOUS
370
25
 62
7
100
AcDbLine
 10
24.00475258868828
 20
9.659091910751972
 30
0.0
 11
24.02127377783786
 21
9.67561309990155
 31
0.0
  0
LINE
  5
2AE
330
1F
100
AcDbEntity
  8
SK2
  6
CONTINUOUS
370
25
 62
7
100
AcDbLine
 10
23.88570567174565
 20
9.964309062521274
 30
0.0
 11
24.03121902830478
 21
10.10982241908041
 31
0.0
  0
LINE
  5
2AF
330
1F
100
AcDbEntity
  8
SK2
  6
CONTINUOUS
370
25
 62
7
100
AcDbLine
 10
23.76665875480303
 20
10.26952621429058
 30
0.0
 11
24.0411642787717
 21
10.54403173825925
 31
0.0
  0
LINE
  5
2B0
330
1F
100
AcDbEntity
  8
SK2
  6
CONTINUOUS
370
25
 62
7
100
AcDbLine
 10
23.6476118378604
 20
10.57474336605988
 30
0.0
 11
24.05110952923862
 21
10.9782410574381
 31
0.0
  0
LINE
  5
2B1
330
1F
100
AcDbEntity
  8
SK2
  6
CONTINUOUS
370
25
 62
7
100
AcDbLine
 10
23.52856492091777
 20
10.87996051782918
 30
0.0
 11
24.06105477970555
 21
11.41245037661695
 31
0.0
  0
LINE
  5
2B2
330
1F
100
AcDbEntity
  8
SK2
  6
CONTINUOUS
370
25
 62
7
100
AcDbLine
 10
23.40951800397515
 20
11.18517766959848
 30
0.0
 11
24.07100003017247
 21
11.8466596957958
 31
0.0
  0
LINE
  5
2B3
330
1F
100
AcDbEntity
  8
SK2
  6
CONTINUOUS
370
25
 62
7
100
AcDbLine
 10
23.29047108703253
 20
11.49039482136779
 30
0.0
 11
24.08094528063938
 21
12.28086901497464
 31
0.0
  0
LINE
  5
2B4
330
1F
100
AcDbEntity
  8
SK2
  6
CONTINUOUS
370
25
 62
7
100
AcDbLine
 10
23.1714241700899
 20
11.79561197313708
 30
0.0
 11
24.0908905311063
 21
12.71507833415349
 31
0.0
  0
LINE
  5
2B5
330
1F
100
AcDbEntity
  8
SK2
  6
CONTINUOUS
370
25
 62
7
100
AcDbLine
 10
23.05237725314727
 20
12.10082912490639
 30
0.0
 11
24.10083578157323
 21
13.14928765333235
 31
0.0
  0
LINE
  5
2B6
330
1F
100
AcDbEntity
  8
SK2
  6
CONTINUOUS
370
25
 62
7
100
AcDbLine
 10
22.93333033620464
 20
12.40604627667569
 30
0.0
 11
24.11078103204015
 21
13.5834969725112
 31
0.0
  0
LINE
  5
2B7
330
1F
100
AcDbEntity
  8
SK2
  6
CONTINUOUS
370
25
 62
7
100
AcDbLine
 10
22.81428341926202
 20
12.71126342844499
 30
0.0
 11
24.12072628250707
 21
14.01770629169004
 31
0.0
  0
LINE
  5
2B8
330
1F
100
AcDbEntity
  8
SK2
  6
CONTINUOUS
370
25
 62
7
100
AcDbLine
 10
22.69523650231939
 20
13.01648058021429
 30
0.0
 11
24.13067153297399
 21
14.45191561086889
 31
0.0
  0
LINE
  5
2B9
330
1F
100
AcDbEntity
  8
SK2
  6
CONTINUOUS
370
25
 62
7
100
AcDbLine
 10
22.57618958537677
 20
13.3216977319836
 30
0.0
 11
23.93695059343915
 21
14.68245874004597
 31
0.0
  0
LINE
  5
2BA
330
1F
100
AcDbEntity
  8
SK2
  6
CONTINUOUS
370
25
 62
7
100
AcDbLine
 10
22.45714266843414
 20
13.6269148837529
 30
0.0
 11
23.42188688480893
 21
14.59165910012769
 31
0.0
  0
LINE
  5
2BB
330
1F
100
AcDbEntity
  8
SK2
  6
CONTINUOUS
370
25
 62
7
100
AcDbLine
 10
22.33809575149152
 20
13.9321320355222
 30
0.0
 11
22.90682317617872
 21
14.5008594602094
 31
0.0
  0
LINE
  5
2BC
330
1F
100
AcDbEntity
  8
SK2
  6
CONTINUOUS
370
25
 62
7
100
AcDbLine
 10
22.21904883454889
 20
14.2373491872915
 30
0.0
 11
22.3917594675485
 21
14.41005982029111
 31
0.0
  0
LINE
  5
2BD
330
1F
100
AcDbEntity
  8
SK2
  6
CONTINUOUS
370
25
 62
7
100
AcDbLine
 10
23.82744471822469
 20
10.11368077872962
 30
0.0
 11
24.02674262676521
 21
9.914382870189097
 31
0.0
  0
LINE
  5
2BE
330
1F
100
AcDbEntity
  8
SK2
  6
CONTINUOUS
370
25
 62
7
100
AcDbLine
 10
23.55614823843718
 20
10.80924132722905
 30
0.0
 11
24.0362425007186
 21
10.32914706494764
 31
0.0
  0
LINE
  5
2BF
330
1F
100
AcDbEntity
  8
SK2
  6
CONTINUOUS
370
25
 62
7
100
AcDbLine
 10
23.28485175864969
 20
11.50480187572848
 30
0.0
 11
24.04574237467198
 21
10.74391125970619
 31
0.0
  0
LINE
  5
2C0
330
1F
100
AcDbEntity
  8
SK2
  6
CONTINUOUS
370
25
 62
7
100
AcDbLine
 10
23.0135552788622
 20
12.20036242422789
 30
0.0
 11
24.05524224862537
 21
11.15867545446472
 31
0.0
  0
LINE
  5
2C1
330
1F
100
AcDbEntity
  8
SK2
  6
CONTINUOUS
370
25
 62
7
100
AcDbLine
 10
22.74225879907469
 20
12.89592297272733
 30
0.0
 11
24.06474212257876
 21
11.57343964922327
 31
0.0
  0
LINE
  5
2C2
330
1F
100
AcDbEntity
  8
SK2
  6
CONTINUOUS
370
25
 62
7
100
AcDbLine
 10
22.4709623192872
 20
13.59148352122675
 30
0.0
 11
24.07424199653214
 21
11.98820384398181
 31
0.0
  0
LINE
  5
2C3
330
1F
100
AcDbEntity
  8
SK2
  6
CONTINUOUS
370
25
 62
7
100
AcDbLine
 10
22.1996658394997
 20
14.28704406972617
 30
0.0
 11
24.08374187048553
 21
12.40296803874035
 31
0.0
  0
LINE
  5
2C4
330
1F
100
AcDbEntity
  8
SK2
  6
CONTINUOUS
370
25
 62
7
100
AcDbLine
 10
22.48455534244512
 20
14.42641863549267
 30
0.0
 11
24.09324174443892
 21
12.81773223349889
 31
0.0
  0
LINE
  5
2C5
330
1F
100
AcDbEntity
  8
SK2
  6
CONTINUOUS
370
25
 62
7
100
AcDbLine
 10
22.8452357255593
 20
14.49000232109043
 30
0.0
 11
24.1027416183923
 21
13.23249642825743
 31
0.0
  0
LINE
  5
2C6
330
1F
100
AcDbEntity
  8
SK2
  6
CONTINUOUS
370
25
 62
7
100
AcDbLine
 10
23.20591610867347
 20
14.55358600668819
 30
0.0
 11
24.11224149234569
 21
13.64726062301597
 31
0.0
  0
LINE
  5
2C7
330
1F
100
AcDbEntity
  8
SK2
  6
CONTINUOUS
370
25
 62
7
100
AcDbLine
 10
23.56659649178764
 20
14.61716969228594
 30
0.0
 11
24.12174136629907
 21
14.06202481777451
 31
0.0
  0
LINE
  5
2C8
330
1F
100
AcDbEntity
  8
SK2
  6
CONTINUOUS
370
25
 62
7
100
AcDbLine
 10
23.92727687490182
 20
14.68075337788369
 30
0.0
 11
24.13124124025246
 21
14.47678901253306
 31
0.0
  0
TEXT
  5
2C9
330
1F
100
AcDbEntity
  8
SK2
  6
CONTINUOUS
370
25
 62
7
100
AcDbText
 10
18.18188460886711
 20
23.5441110328651
 30
0.0
 40
3.499999999999999
  1
90°
 50
315.0000000000001
 72
     1
 11
20.86299782086611
 21
20.86299782086611
 31
0.0
100
AcDbText
  0
LINE
  5
2CA
330
1F
100
AcDbEntity
  8
SK2
  6
CONTINUOUS
370
25
 62
7
100
AcDbLine
 10
0.0
 20
0.8
 30
0.0
 11
-0.0000000000000012
 21
-19.5
 31
0.0
  0
LINE
  5
2CB
330
1F
100
AcDbEntity
  8
SK2
  6
CONTINUOUS
370
25
 62
7
100
AcDbLine
 10
9.619999999999997
 20
0.0781048600000016
 30
0.0
 11
9.62
 21
0.8000000000000007
 31
0.0
  0
LINE
  5
2CC
330
1F
100
AcDbEntity
  8
SK2
  6
CONTINUOUS
370
25
 62
7
100
AcDbLine
 10
9.619999999999997
 20
-19.5
 30
0.0
 11
9.619999999999997
 21
-0.117157289999998
 31
0.0
  0
LINE
  5
2CD
330
1F
100
AcDbEntity
  8
SK2
  6
CONTINUOUS
370
25
 62
7
100
AcDbLine
 10
-22.4
 20
-18.5
 30
0.0
 11
16.62
 21
-18.5
 31
0.0
  0
LINE
  5
2CE
330
1F
100
AcDbEntity
  8
SK2
  6
CONTINUOUS
370
25
 62
7
100
AcDbLine
 10
0.0
 20
-18.5
 30
0.0
 11
-5.0
 21
-19.5
 31
0.0
  0
LINE
  5
2CF
330
1F
100
AcDbEntity
  8
SK2
  6
CONTINUOUS
370
25
 62
7
100
AcDbLine
 10
-5.0
 20
-19.5
 30
0.0
 11
-5.0
 21
-17.5
 31
0.0
  0
LINE
  5
2D0
330
1F
100
AcDbEntity
  8
SK2
  6
CONTINUOUS
370
25
 62
7
100
AcDbLine
 10
-5.0
 20
-17.5
 30
0.0
 11
0.0
 21
-18.5
 31
0.0
  0
LINE
  5
2D1
330
1F
100
AcDbEntity
  8
SK2
  6
CONTINUOUS
370
25
 62
7
100
AcDbLine
 10
-0.2304713904145528
 20
-18.54609427808291
 30
0.0
 11
-0.1536475936097019
 21
-18.46927048127806
 31
0.0
  0
LINE
  5
2D2
330
1F
100
AcDbEntity
  8
SK2
  6
CONTINUOUS
370
25
 62
7
100
AcDbLine
 10
-0.7608014763044666
 20
-18.65216029526089
 30
0.0
 11
-0.5072009842029778
 21
-18.3985598031594
 31
0.0
  0
LINE
  5
2D3
330
1F
100
AcDbEntity
  8
SK2
  6
CONTINUOUS
370
25
 62
7
100
AcDbLine
 10
-1.291131562194376
 20
-18.75822631243888
 30
0.0
 11
-0.8607543747962508
 21
-18.32784912504075
 31
0.0
  0
LINE
  5
2D4
330
1F
100
AcDbEntity
  8
SK2
  6
CONTINUOUS
370
25
 62
7
100
AcDbLine
 10
-1.821461648084285
 20
-18.86429232961686
 30
0.0
 11
-1.214307765389524
 21
-18.2571384469221
 31
0.0
  0
LINE
  5
2D5
330
1F
100
AcDbEntity
  8
SK2
  6
CONTINUOUS
370
25
 62
7
100
AcDbLine
 10
-2.351791733974194
 20
-18.97035834679484
 30
0.0
 11
-1.567861155982797
 21
-18.18642776880344
 31
0.0
  0
LINE
  5
2D6
330
1F
100
AcDbEntity
  8
SK2
  6
CONTINUOUS
370
25
 62
7
100
AcDbLine
 10
-2.882121819864103
 20
-19.07642436397282
 30
0.0
 11
-1.921414546576069
 21
-18.11571709068479
 31
0.0
  0
LINE
  5
2D7
330
1F
100
AcDbEntity
  8
SK2
  6
CONTINUOUS
370
25
 62
7
100
AcDbLine
 10
-3.412451905754013
 20
-19.1824903811508
 30
0.0
 11
-2.274967937169342
 21
-18.04500641256613
 31
0.0
  0
LINE
  5
2D8
330
1F
100
AcDbEntity
  8
SK2
  6
CONTINUOUS
370
25
 62
7
100
AcDbLine
 10
-3.942781991643922
 20
-19.28855639832878
 30
0.0
 11
-2.628521327762615
 21
-17.97429573444748
 31
0.0
  0
LINE
  5
2D9
330
1F
100
AcDbEntity
  8
SK2
  6
CONTINUOUS
370
25
 62
7
100
AcDbLine
 10
-4.473112077533831
 20
-19.39462241550677
 30
0.0
 11
-2.982074718355888
 21
-17.90358505632882
 31
0.0
  0
LINE
  5
2DA
330
1F
100
AcDbEntity
  8
SK2
  6
CONTINUOUS
370
25
 62
7
100
AcDbLine
 10
-5.0
 20
-19.49724626926101
 30
0.0
 11
-3.335628108949164
 21
-17.83287437821017
 31
0.0
  0
LINE
  5
2DB
330
1F
100
AcDbEntity
  8
SK2
  6
CONTINUOUS
370
25
 62
7
100
AcDbLine
 10
-5.0
 20
-19.07298220054908
 30
0.0
 11
-3.689181499542436
 21
-17.76216370009151
 31
0.0
  0
LINE
  5
2DC
330
1F
100
AcDbEntity
  8
SK2
  6
CONTINUOUS
370
25
 62
7
100
AcDbLine
 10
-5.0
 20
-18.64871813183715
 30
0.0
 11
-4.042734890135709
 21
-17.69145302197286
 31
0.0
  0
LINE
  5
2DD
330
1F
100
AcDbEntity
  8
SK2
  6
CONTINUOUS
370
25
 62
7
100
AcDbLine
 10
-5.0
 20
-18.22445406312522
 30
0.0
 11
-4.396288280728982
 21
-17.6207423438542
 31
0.0
  0
LINE
  5
2DE
330
1F
100
AcDbEntity
  8
SK2
  6
CONTINUOUS
370
25
 62
7
100
AcDbLine
 10
-5.0
 20
-17.80018999441329
 30
0.0
 11
-4.749841671322256
 21
-17.55003166573555
 31
0.0
  0
LINE
  5
2DF
330
1F
100
AcDbEntity
  8
SK2
  6
CONTINUOUS
370
25
 62
7
100
AcDbLine
 10
-5.0
 20
-19.49724626926099
 30
0.0
 11
-4.997705224384163
 21
-19.49954104487683
 31
0.0
  0
LINE
  5
2E0
330
1F
100
AcDbEntity
  8
SK2
  6
CONTINUOUS
370
25
 62
7
100
AcDbLine
 10
-5.0
 20
-19.07298220054906
 30
0.0
 11
-4.644151833790887
 21
-19.42883036675818
 31
0.0
  0
LINE
  5
2E1
330
1F
100
AcDbEntity
  8
SK2
  6
CONTINUOUS
370
25
 62
7
100
AcDbLine
 10
-5.0
 20
-18.64871813183714
 30
0.0
 11
-4.290598443197617
 21
-19.35811968863952
 31
0.0
  0
LINE
  5
2E2
330
1F
100
AcDbEntity
  8
SK2
  6
CONTINUOUS
370
25
 62
7
100
AcDbLine
 10
-5.0
 20
-18.22445406312521
 30
0.0
 11
-3.937045052604343
 21
-19.28740901052087
 31
0.0
  0
LINE
  5
2E3
330
1F
100
AcDbEntity
  8
SK2
  6
CONTINUOUS
370
25
 62
7
100
AcDbLine
 10
-5.0
 20
-17.80018999441329
 30
0.0
 11
-3.58349166201107
 21
-19.21669833240221
 31
0.0
  0
LINE
  5
2E4
330
1F
100
AcDbEntity
  8
SK2
  6
CONTINUOUS
370
25
 62
7
100
AcDbLine
 10
-4.844907407126697
 20
-17.53101851857466
 30
0.0
 11
-3.229938271417796
 21
-19.14598765428356
 31
0.0
  0
LINE
  5
2E5
330
1F
100
AcDbEntity
  8
SK2
  6
CONTINUOUS
370
25
 62
7
100
AcDbLine
 10
-4.314577321236786
 20
-17.63708453575264
 30
0.0
 11
-2.876384880824522
 21
-19.0752769761649
 31
0.0
  0
LINE
  5
2E6
330
1F
100
AcDbEntity
  8
SK2
  6
CONTINUOUS
370
25
 62
7
100
AcDbLine
 10
-3.784247235346875
 20
-17.74315055293063
 30
0.0
 11
-2.522831490231249
 21
-19.00456629804625
 31
0.0
  0
LINE
  5
2E7
330
1F
100
AcDbEntity
  8
SK2
  6
CONTINUOUS
370
25
 62
7
100
AcDbLine
 10
-3.253917149456965
 20
-17.84921657010861
 30
0.0
 11
-2.169278099637975
 21
-18.93385561992759
 31
0.0
  0
LINE
  5
2E8
330
1F
100
AcDbEntity
  8
SK2
  6
CONTINUOUS
370
25
 62
7
100
AcDbLine
 10
-2.723587063567054
 20
-17.95528258728659
 30
0.0
 11
-1.815724709044701
 21
-18.86314494180894
 31
0.0
  0
LINE
  5
2E9
330
1F
100
AcDbEntity
  8
SK2
  6
CONTINUOUS
370
25
 62
7
100
AcDbLine
 10
-2.193256977677148
 20
-18.06134860446457
 30
0.0
 11
-1.462171318451431
 21
-18.79243426369029
 31
0.0
  0
LINE
  5
2EA
330
1F
100
AcDbEntity
  8
SK2
  6
CONTINUOUS
370
25
 62
7
100
AcDbLine
 10
-1.662926891787237
 20
-18.16741462164255
 30
0.0
 11
-1.108617927858157
 21
-18.72172358557163
 31
0.0
  0
LINE
  5
2EB
330
1F
100
AcDbEntity
  8
SK2
  6
CONTINUOUS
370
25
 62
7
100
AcDbLine
 10
-1.132596805897326
 20
-18.27348063882053
 30
0.0
 11
-0.7550645372648834
 21
-18.65101290745298
 31
0.0
  0
LINE
  5
2EC
330
1F
100
AcDbEntity
  8
SK2
  6
CONTINUOUS
370
25
 62
7
100
AcDbLine
 10
-0.6022667200074155
 20
-18.37954665599852
 30
0.0
 11
-0.4015111466716099
 21
-18.58030222933432
 31
0.0
  0
LINE
  5
2ED
330
1F
100
AcDbEntity
  8
SK2
  6
CONTINUOUS
370
25
 62
7
100
AcDbLine
 10
-0.0719366341175045
 20
-18.4856126731765
 30
0.0
 11
-0.0479577560783363
 21
-18.50959155121567
 31
0.0
  0
LINE
  5
2EE
330
1F
100
AcDbEntity
  8
SK2
  6
CONTINUOUS
370
25
 62
7
100
AcDbLine
 10
9.619999999999997
 20
-18.5
 30
0.0
 11
14.62
 21
-17.5
 31
0.0
  0
LINE
  5
2EF
330
1F
100
AcDbEntity
  8
SK2
  6
CONTINUOUS
370
25
 62
7
100
AcDbLine
 10
14.62
 20
-17.5
 30
0.0
 11
14.62
 21
-19.5
 31
0.0
  0
LINE
  5
2F0
330
1F
100
AcDbEntity
  8
SK2
  6
CONTINUOUS
370
25
 62
7
100
AcDbLine
 10
14.62
 20
-19.5
 30
0.0
 11
9.619999999999997
 21
-18.5
 31
0.0
  0
LINE
  5
2F1
330
1F
100
AcDbEntity
  8
SK2
  6
CONTINUOUS
370
25
 62
7
100
AcDbLine
 10
14.50264390740551
 20
-19.4765287814811
 30
0.0
 11
14.62
 21
-19.35917268888662
 31
0.0
  0
LINE
  5
2F2
330
1F
100
AcDbEntity
  8
SK2
  6
CONTINUOUS
370
25
 62
7
100
AcDbLine
 10
14.14909051681225
 20
-19.40581810336245
 30
0.0
 11
14.62
 21
-18.9349086201747
 31
0.0
  0
LINE
  5
2F3
330
1F
100
AcDbEntity
  8
SK2
  6
CONTINUOUS
370
25
 62
7
100
AcDbLine
 10
13.79553712621897
 20
-19.33510742524379
 30
0.0
 11
14.62
 21
-18.51064455146276
 31
0.0
  0
LINE
  5
2F4
330
1F
100
AcDbEntity
  8
SK2
  6
CONTINUOUS
370
25
 62
7
100
AcDbLine
 10
13.4419837356257
 20
-19.26439674712514
 30
0.0
 11
14.62
 21
-18.08638048275084
 31
0.0
  0
LINE
  5
2F5
330
1F
100
AcDbEntity
  8
SK2
  6
CONTINUOUS
370
25
 62
7
100
AcDbLine
 10
13.08843034503242
 20
-19.19368606900649
 30
0.0
 11
14.62
 21
-17.66211641403891
 31
0.0
  0
LINE
  5
2F6
330
1F
100
AcDbEntity
  8
SK2
  6
CONTINUOUS
370
25
 62
7
100
AcDbLine
 10
12.73487695443915
 20
-19.12297539088783
 30
0.0
 11
14.29231543165873
 21
-17.56553691366825
 31
0.0
  0
LINE
  5
2F7
330
1F
100
AcDbEntity
  8
SK2
  6
CONTINUOUS
370
25
 62
7
100
AcDbLine
 10
12.38132356384588
 20
-19.05226471276918
 30
0.0
 11
13.76198534576882
 21
-17.67160293084623
 31
0.0
  0
LINE
  5
2F8
330
1F
100
AcDbEntity
  8
SK2
  6
CONTINUOUS
370
25
 62
7
100
AcDbLine
 10
12.0277701732526
 20
-18.98155403465052
 30
0.0
 11
13.23165525987891
 21
-17.77766894802422
 31
0.0
  0
LINE
  5
2F9
330
1F
100
AcDbEntity
  8
SK2
  6
CONTINUOUS
370
25
 62
7
100
AcDbLine
 10
11.67421678265933
 20
-18.91084335653187
 30
0.0
 11
12.701325173989
 21
-17.8837349652022
 31
0.0
  0
LINE
  5
2FA
330
1F
100
AcDbEntity
  8
SK2
  6
CONTINUOUS
370
25
 62
7
100
AcDbLine
 10
11.32066339206606
 20
-18.84013267841321
 30
0.0
 11
12.17099508809909
 21
-17.98980098238018
 31
0.0
  0
LINE
  5
2FB
330
1F
100
AcDbEntity
  8
SK2
  6
CONTINUOUS
370
25
 62
7
100
AcDbLine
 10
10.96711000147279
 20
-18.76942200029456
 30
0.0
 11
11.64066500220918
 21
-18.09586699955816
 31
0.0
  0
LINE
  5
2FC
330
1F
100
AcDbEntity
  8
SK2
  6
CONTINUOUS
370
25
 62
7
100
AcDbLine
 10
10.61355661087951
 20
-18.6987113221759
 30
0.0
 11
11.11033491631927
 21
-18.20193301673614
 31
0.0
  0
LINE
  5
2FD
330
1F
100
AcDbEntity
  8
SK2
  6
CONTINUOUS
370
25
 62
7
100
AcDbLine
 10
10.26000322028624
 20
-18.62800064405725
 30
0.0
 11
10.58000483042936
 21
-18.30799903391413
 31
0.0
  0
LINE
  5
2FE
330
1F
100
AcDbEntity
  8
SK2
  6
CONTINUOUS
370
25
 62
7
100
AcDbLine
 10
9.906449829692967
 20
-18.55728996593859
 30
0.0
 11
10.04967474453945
 21
-18.41406505109211
 31
0.0
  0
LINE
  5
2FF
330
1F
100
AcDbEntity
  8
SK2
  6
CONTINUOUS
370
25
 62
7
100
AcDbLine
 10
9.658586276631054
 20
-18.49228274467379
 30
0.0
 11
9.677879414946581
 21
-18.51157588298932
 31
0.0
  0
LINE
  5
300
330
1F
100
AcDbEntity
  8
SK2
  6
CONTINUOUS
370
25
 62
7
100
AcDbLine
 10
10.01213966722433
 20
-18.42157206655514
 30
0.0
 11
10.20820950083649
 21
-18.6176419001673
 31
0.0
  0
LINE
  5
301
330
1F
100
AcDbEntity
  8
SK2
  6
CONTINUOUS
370
25
 62
7
100
AcDbLine
 10
10.3656930578176
 20
-18.35086138843648
 30
0.0
 11
10.7385395867264
 21
-18.72370791734528
 31
0.0
  0
LINE
  5
302
330
1F
100
AcDbEntity
  8
SK2
  6
CONTINUOUS
370
25
 62
7
100
AcDbLine
 10
10.71924644841087
 20
-18.28015071031783
 30
0.0
 11
11.26886967261631
 21
-18.82977393452326
 31
0.0
  0
LINE
  5
303
330
1F
100
AcDbEntity
  8
SK2
  6
CONTINUOUS
370
25
 62
7
100
AcDbLine
 10
11.07279983900415
 20
-18.20944003219917
 30
0.0
 11
11.79919975850622
 21
-18.93583995170125
 31
0.0
  0
LINE
  5
304
330
1F
100
AcDbEntity
  8
SK2
  6
CONTINUOUS
370
25
 62
7
100
AcDbLine
 10
11.42635322959742
 20
-18.13872935408052
 30
0.0
 11
12.32952984439613
 21
-19.04190596887923
 31
0.0
  0
LINE
  5
305
330
1F
100
AcDbEntity
  8
SK2
  6
CONTINUOUS
370
25
 62
7
100
AcDbLine
 10
11.77990662019069
 20
-18.06801867596186
 30
0.0
 11
12.85985993028604
 21
-19.14797198605721
 31
0.0
  0
LINE
  5
306
330
1F
100
AcDbEntity
  8
SK2
  6
CONTINUOUS
370
25
 62
7
100
AcDbLine
 10
12.13346001078397
 20
-17.9973079978432
 30
0.0
 11
13.39019001617595
 21
-19.25403800323519
 31
0.0
  0
LINE
  5
307
330
1F
100
AcDbEntity
  8
SK2
  6
CONTINUOUS
370
25
 62
7
100
AcDbLine
 10
12.48701340137724
 20
-17.92659731972455
 30
0.0
 11
13.92052010206586
 21
-19.36010402041317
 31
0.0
  0
LINE
  5
308
330
1F
100
AcDbEntity
  8
SK2
  6
CONTINUOUS
370
25
 62
7
100
AcDbLine
 10
12.84056679197051
 20
-17.8558866416059
 30
0.0
 11
14.45085018795577
 21
-19.46617003759116
 31
0.0
  0
LINE
  5
309
330
1F
100
AcDbEntity
  8
SK2
  6
CONTINUOUS
370
25
 62
7
100
AcDbLine
 10
13.19412018256379
 20
-17.78517596348724
 30
0.0
 11
14.62
 21
-19.21105578092345
 31
0.0
  0
LINE
  5
30A
330
1F
100
AcDbEntity
  8
SK2
  6
CONTINUOUS
370
25
 62
7
100
AcDbLine
 10
13.54767357315706
 20
-17.71446528536859
 30
0.0
 11
14.62
 21
-18.78679171221152
 31
0.0
  0
LINE
  5
30B
330
1F
100
AcDbEntity
  8
SK2
  6
CONTINUOUS
370
25
 62
7
100
AcDbLine
 10
13.90122696375033
 20
-17.64375460724993
 30
0.0
 11
14.62
 21
-18.3625276434996
 31
0.0
  0
LINE
  5
30C
330
1F
100
AcDbEntity
  8
SK2
  6
CONTINUOUS
370
25
 62
7
100
AcDbLine
 10
14.25478035434361
 20
-17.57304392913128
 30
0.0
 11
14.62
 21
-17.93826357478767
 31
0.0
  0
LINE
  5
30D
330
1F
100
AcDbEntity
  8
SK2
  6
CONTINUOUS
370
25
 62
7
100
AcDbLine
 10
14.60833374493688
 20
-17.50233325101262
 30
0.0
 11
14.62
 21
-17.51399950607574
 31
0.0
  0
TEXT
  5
30E
330
1F
100
AcDbEntity
  8
SK2
  6
CONTINUOUS
370
25
 62
7
100
AcDbText
 10
-16.675
 20
-17.0
 30
0.0
 40
3.5
  1
9.62
 72
     1
 11
-11.425
 21
-17.0
 31
0.0
100
AcDbText
  0
LINE
  5
30F
330
1F
100
AcDbEntity
  8
SK2
  6
CONTINUOUS
370
25
 62
7
100
AcDbLine
 10
-20.875
 20
-16.65
 30
0.0
 11
-18.075
 21
-16.65
 31
0.0
  0
LINE
  5
310
330
1F
100
AcDbEntity
  8
SK2
  6
CONTINUOUS
370
25
 62
7
100
AcDbLine
 10
-18.075
 20
-16.65
 30
0.0
 11
-18.075
 21
-13.85
 31
0.0
  0
LINE
  5
311
330
1F
100
AcDbEntity
  8
SK2
  6
CONTINUOUS
370
25
 62
7
100
AcDbLine
 10
-18.075
 20
-13.85
 30
0.0
 11
-20.875
 21
-13.85
 31
0.0
  0
LINE
  5
312
330
1F
100
AcDbEntity
  8
SK2
  6
CONTINUOUS
370
25
 62
7
100
AcDbLine
 10
-20.875
 20
-13.85
 30
0.0
 11
-20.875
 21
-16.65
 31
0.0
  0
LINE
  5
313
330
1F
100
AcDbEntity
  8
SK2
  6
CONTINUOUS
370
25
 62
7
100
AcDbLine
 10
-16.12910653341121
 20
18.94673787919765
 30
0.0
 11
-16.83621317317643
 21
19.65384451896287
 31
0.0
  0
LINE
  5
314
330
1F
100
AcDbEntity
  8
SK2
  6
CONTINUOUS
370
25
 62
7
100
AcDbLine
 10
1.408815672893219
 20
1.408815672893219
 30
0.0
 11
-16.12910625056849
 21
18.94673759635494
 31
0.0
  0
LINE
  5
315
330
1F
100
AcDbEntity
  8
SK2
  6
CONTINUOUS
370
25
 62
7
100
AcDbLine
 10
-10.03384523105503
 20
26.45621246108421
 30
0.0
 11
8.211183615014585
 21
8.211183615014587
 31
0.0
  0
LINE
  5
316
330
1F
100
AcDbEntity
  8
SK2
  6
CONTINUOUS
370
25
 62
7
100
AcDbLine
 10
-21.07885315318891
 20
13.99699097657725
 30
0.0
 11
6.512453448710179
 21
41.58829757847633
 31
0.0
  0
LINE
  5
317
330
1F
100
AcDbEntity
  8
SK2
  6
CONTINUOUS
370
25
 62
7
100
AcDbLine
 10
-16.12910568488307
 20
18.94673844488308
 30
0.0
 11
-18.95753280962926
 21
14.70409775776379
 31
0.0
  0
LINE
  5
318
330
1F
100
AcDbEntity
  8
SK2
  6
CONTINUOUS
370
25
 62
7
100
AcDbLine
 10
-18.95753280962926
 20
14.70409775776379
 30
0.0
 11
-20.37174637200236
 21
16.11831132013689
 31
0.0
  0
LINE
  5
319
330
1F
100
AcDbEntity
  8
SK2
  6
CONTINUOUS
370
25
 62
7
100
AcDbLine
 10
-20.37174637200236
 20
16.11831132013689
 30
0.0
 11
-16.12910568488307
 21
18.94673844488308
 31
0.0
  0
LINE
  5
31A
330
1F
100
AcDbEntity
  8
SK2
  6
CONTINUOUS
370
25
 62
7
100
AcDbLine
 10
-19.09728027440988
 20
14.8438452225444
 30
0.0
 11
-18.39854295050682
 21
15.54258254644746
 31
0.0
  0
LINE
  5
31B
330
1F
100
AcDbEntity
  8
SK2
  6
CONTINUOUS
370
25
 62
7
100
AcDbLine
 10
-19.30941230876584
 20
15.05597725690036
 30
0.0
 11
-17.55001481308298
 21
16.81537475258322
 31
0.0
  0
LINE
  5
31C
330
1F
100
AcDbEntity
  8
SK2
  6
CONTINUOUS
370
25
 62
7
100
AcDbLine
 10
-19.5215443431218
 20
15.26810929125633
 30
0.0
 11
-16.70148667565911
 21
18.08816695871903
 31
0.0
  0
LINE
  5
31D
330
1F
100
AcDbEntity
  8
SK2
  6
CONTINUOUS
370
25
 62
7
100
AcDbLine
 10
-19.73367637747776
 20
15.48024132561229
 30
0.0
 11
-16.54332640485478
 21
18.67059129823527
 31
0.0
  0
LINE
  5
31E
330
1F
100
AcDbEntity
  8
SK2
  6
CONTINUOUS
370
25
 62
7
100
AcDbLine
 10
-19.94580841183373
 20
15.69237335996826
 30
0.0
 11
-17.81611861099059
 21
17.8220631608114
 31
0.0
  0
LINE
  5
31F
330
1F
100
AcDbEntity
  8
SK2
  6
CONTINUOUS
370
25
 62
7
100
AcDbLine
 10
-20.15794044618969
 20
15.90450539432422
 30
0.0
 11
-19.08891081712635
 21
16.97353502338756
 31
0.0
  0
LINE
  5
320
330
1F
100
AcDbEntity
  8
SK2
  6
CONTINUOUS
370
25
 62
7
100
AcDbLine
 10
-20.37007248054566
 20
16.11663742868019
 30
0.0
 11
-20.36170302326216
 21
16.12500688596368
 31
0.0
  0
LINE
  5
321
330
1F
100
AcDbEntity
  8
SK2
  6
CONTINUOUS
370
25
 62
7
100
AcDbLine
 10
-20.29337281710763
 20
16.17056035673337
 30
0.0
 11
-18.90528377303278
 21
14.78247131265853
 31
0.0
  0
LINE
  5
322
330
1F
100
AcDbEntity
  8
SK2
  6
CONTINUOUS
370
25
 62
7
100
AcDbLine
 10
-20.03881437588047
 20
16.34026598421814
 30
0.0
 11
-18.73557814554801
 21
15.03702975388568
 31
0.0
  0
LINE
  5
323
330
1F
100
AcDbEntity
  8
SK2
  6
CONTINUOUS
370
25
 62
7
100
AcDbLine
 10
-19.78425593465332
 20
16.50997161170292
 30
0.0
 11
-18.56587251806323
 21
15.29158819511284
 31
0.0
  0
LINE
  5
324
330
1F
100
AcDbEntity
  8
SK2
  6
CONTINUOUS
370
25
 62
7
100
AcDbLine
 10
-19.52969749342616
 20
16.67967723918769
 30
0.0
 11
-18.39616689057846
 21
15.54614663633999
 31
0.0
  0
LINE
  5
325
330
1F
100
AcDbEntity
  8
SK2
  6
CONTINUOUS
370
25
 62
7
100
AcDbLine
 10
-19.275139052199
 20
16.84938286667246
 30
0.0
 11
-18.22646126309369
 21
15.80070507756715
 31
0.0
  0
LINE
  5
326
330
1F
100
AcDbEntity
  8
SK2
  6
CONTINUOUS
370
25
 62
7
100
AcDbLine
 10
-19.02058061097184
 20
17.01908849415723
 30
0.0
 11
-18.05675563560892
 21
16.05526351879431
 31
0.0
  0
LINE
  5
327
330
1F
100
AcDbEntity
  8
SK2
  6
CONTINUOUS
370
25
 62
7
100
AcDbLine
 10
-18.76602216974469
 20
17.188794121642
 30
0.0
 11
-17.88705000812415
 21
16.30982196002146
 31
0.0
  0
LINE
  5
328
330
1F
100
AcDbEntity
  8
SK2
  6
CONTINUOUS
370
25
 62
7
100
AcDbLine
 10
-18.51146372851753
 20
17.35849974912677
 30
0.0
 11
-17.71734438063938
 21
16.56438040124862
 31
0.0
  0
LINE
  5
329
330
1F
100
AcDbEntity
  8
SK2
  6
CONTINUOUS
370
25
 62
7
100
AcDbLine
 10
-18.25690528729038
 20
17.52820537661154
 30
0.0
 11
-17.54763875315461
 21
16.81893884247578
 31
0.0
  0
LINE
  5
32A
330
1F
100
AcDbEntity
  8
SK2
  6
CONTINUOUS
370
25
 62
7
100
AcDbLine
 10
-18.00234684606322
 20
17.69791100409631
 30
0.0
 11
-17.37793312566984
 21
17.07349728370293
 31
0.0
  0
LINE
  5
32B
330
1F
100
AcDbEntity
  8
SK2
  6
CONTINUOUS
370
25
 62
7
100
AcDbLine
 10
-17.74778840483607
 20
17.86761663158109
 30
0.0
 11
-17.20822749818507
 21
17.32805572493009
 31
0.0
  0
LINE
  5
32C
330
1F
100
AcDbEntity
  8
SK2
  6
CONTINUOUS
370
25
 62
7
100
AcDbLine
 10
-17.49322996360891
 20
18.03732225906586
 30
0.0
 11
-17.03852187070029
 21
17.58261416615724
 31
0.0
  0
LINE
  5
32D
330
1F
100
AcDbEntity
  8
SK2
  6
CONTINUOUS
370
25
 62
7
100
AcDbLine
 10
-17.23867152238175
 20
18.20702788655063
 30
0.0
 11
-16.86881624321553
 21
17.8371726073844
 31
0.0
  0
LINE
  5
32E
330
1F
100
AcDbEntity
  8
SK2
  6
CONTINUOUS
370
25
 62
7
100
AcDbLine
 10
-16.98411308115459
 20
18.3767335140354
 30
0.0
 11
-16.69911061573075
 21
18.09173104861156
 31
0.0
  0
LINE
  5
32F
330
1F
100
AcDbEntity
  8
SK2
  6
CONTINUOUS
370
25
 62
7
100
AcDbLine
 10
-16.72955463992744
 20
18.54643914152017
 30
0.0
 11
-16.52940498824598
 21
18.34628948983871
 31
0.0
  0
LINE
  5
330
330
1F
100
AcDbEntity
  8
SK2
  6
CONTINUOUS
370
25
 62
7
100
AcDbLine
 10
-16.47499619870028
 20
18.71614476900494
 30
0.0
 11
-16.35969936076121
 21
18.60084793106587
 31
0.0
  0
LINE
  5
331
330
1F
100
AcDbEntity
  8
SK2
  6
CONTINUOUS
370
25
 62
7
100
AcDbLine
 10
-16.22043775747312
 20
18.88585039648971
 30
0.0
 11
-16.18999373327644
 21
18.85540637229303
 31
0.0
  0
LINE
  5
332
330
1F
100
AcDbEntity
  8
SK2
  6
CONTINUOUS
370
25
 62
7
100
AcDbLine
 10
-9.326738449868486
 20
25.74910567989766
 30
0.0
 11
-6.498311325122296
 21
29.99174636701695
 31
0.0
  0
LINE
  5
333
330
1F
100
AcDbEntity
  8
SK2
  6
CONTINUOUS
370
25
 62
7
100
AcDbLine
 10
-6.498311325122296
 20
29.99174636701695
 30
0.0
 11
-5.084097762749201
 21
28.57753280464386
 31
0.0
  0
LINE
  5
334
330
1F
100
AcDbEntity
  8
SK2
  6
CONTINUOUS
370
25
 62
7
100
AcDbLine
 10
-5.084097762749201
 20
28.57753280464386
 30
0.0
 11
-9.326738449868486
 21
25.74910567989766
 31
0.0
  0
LINE
  5
335
330
1F
100
AcDbEntity
  8
SK2
  6
CONTINUOUS
370
25
 62
7
100
AcDbLine
 10
-5.922582551432807
 20
28.01854294552145
 30
0.0
 11
-5.223845227529802
 21
28.71728026942446
 31
0.0
  0
LINE
  5
336
330
1F
100
AcDbEntity
  8
SK2
  6
CONTINUOUS
370
25
 62
7
100
AcDbLine
 10
-7.195374757568598
 20
27.17001480809759
 30
0.0
 11
-5.435977261885768
 21
28.92941230378042
 31
0.0
  0
LINE
  5
337
330
1F
100
AcDbEntity
  8
SK2
  6
CONTINUOUS
370
25
 62
7
100
AcDbLine
 10
-8.468166963704387
 20
26.32148667067373
 30
0.0
 11
-5.648109296241734
 21
29.14154433813639
 31
0.0
  0
LINE
  5
338
330
1F
100
AcDbEntity
  8
SK2
  6
CONTINUOUS
370
25
 62
7
100
AcDbLine
 10
-9.050591303220704
 20
26.16332639986933
 30
0.0
 11
-5.860241330597697
 21
29.35367637249235
 31
0.0
  0
LINE
  5
339
330
1F
100
AcDbEntity
  8
SK2
  6
CONTINUOUS
370
25
 62
7
100
AcDbLine
 10
-8.202063165796838
 20
27.43611860600513
 30
0.0
 11
-6.072373364953663
 21
29.56580840684832
 31
0.0
  0
LINE
  5
33A
330
1F
100
AcDbEntity
  8
SK2
  6
CONTINUOUS
370
25
 62
7
100
AcDbLine
 10
-7.353535028372966
 20
28.70891081214094
 30
0.0
 11
-6.28450539930963
 21
29.77794044120428
 31
0.0
  0
LINE
  5
33B
330
1F
100
AcDbEntity
  8
SK2
  6
CONTINUOUS
370
25
 62
7
100
AcDbLine
 10
-6.505006890949097
 20
29.98170301827675
 30
0.0
 11
-6.496637433665597
 21
29.99007247556025
 31
0.0
  0
LINE
  5
33C
330
1F
100
AcDbEntity
  8
SK2
  6
CONTINUOUS
370
25
 62
7
100
AcDbLine
 10
-9.277165869974091
 20
25.82346454973926
 30
0.0
 11
-9.252379580026894
 21
25.79867825979206
 31
0.0
  0
LINE
  5
33D
330
1F
100
AcDbEntity
  8
SK2
  6
CONTINUOUS
370
25
 62
7
100
AcDbLine
 10
-9.107460242489317
 20
26.07802299096641
 30
0.0
 11
-8.997821138799736
 21
25.96838388727683
 31
0.0
  0
LINE
  5
33E
330
1F
100
AcDbEntity
  8
SK2
  6
CONTINUOUS
370
25
 62
7
100
AcDbLine
 10
-8.937754615004547
 20
26.33258143219357
 30
0.0
 11
-8.743262697572579
 21
26.1380895147616
 31
0.0
  0
LINE
  5
33F
330
1F
100
AcDbEntity
  8
SK2
  6
CONTINUOUS
370
25
 62
7
100
AcDbLine
 10
-8.768048987519776
 20
26.58713987342072
 30
0.0
 11
-8.488704256345423
 21
26.30779514224637
 31
0.0
  0
LINE
  5
340
330
1F
100
AcDbEntity
  8
SK2
  6
CONTINUOUS
370
25
 62
7
100
AcDbLine
 10
-8.598343360035006
 20
26.84169831464789
 30
0.0
 11
-8.234145815118264
 21
26.47750076973114
 31
0.0
  0
LINE
  5
341
330
1F
100
AcDbEntity
  8
SK2
  6
CONTINUOUS
370
25
 62
7
100
AcDbLine
 10
-8.428637732550234
 20
27.09625675587504
 30
0.0
 11
-7.979587373891109
 21
26.64720639721591
 31
0.0
  0
LINE
  5
342
330
1F
100
AcDbEntity
  8
SK2
  6
CONTINUOUS
370
25
 62
7
100
AcDbLine
 10
-8.258932105065464
 20
27.3508151971022
 30
0.0
 11
-7.725028932663951
 21
26.81691202470068
 31
0.0
  0
LINE
  5
343
330
1F
100
AcDbEntity
  8
SK2
  6
CONTINUOUS
370
25
 62
7
100
AcDbLine
 10
-8.089226477580691
 20
27.60537363832935
 30
0.0
 11
-7.470470491436794
 21
26.98661765218546
 31
0.0
  0
LINE
  5
344
330
1F
100
AcDbEntity
  8
SK2
  6
CONTINUOUS
370
25
 62
7
100
AcDbLine
 10
-7.919520850095919
 20
27.85993207955651
 30
0.0
 11
-7.215912050209639
 21
27.15632327967023
 31
0.0
  0
LINE
  5
345
330
1F
100
AcDbEntity
  8
SK2
  6
CONTINUOUS
370
25
 62
7
100
AcDbLine
 10
-7.749815222611145
 20
28.11449052078367
 30
0.0
 11
-6.961353608982477
 21
27.326028907155
 31
0.0
  0
LINE
  5
346
330
1F
100
AcDbEntity
  8
SK2
  6
CONTINUOUS
370
25
 62
7
100
AcDbLine
 10
-7.580109595126376
 20
28.36904896201083
 30
0.0
 11
-6.706795167755322
 21
27.49573453463977
 31
0.0
  0
LINE
  5
347
330
1F
100
AcDbEntity
  8
SK2
  6
CONTINUOUS
370
25
 62
7
100
AcDbLine
 10
-7.410403967641604
 20
28.62360740323799
 30
0.0
 11
-6.452236726528163
 21
27.66544016212455
 31
0.0
  0
LINE
  5
348
330
1F
100
AcDbEntity
  8
SK2
  6
CONTINUOUS
370
25
 62
7
100
AcDbLine
 10
-7.240698340156832
 20
28.87816584446514
 30
0.0
 11
-6.197678285301007
 21
27.83514578960932
 31
0.0
  0
LINE
  5
349
330
1F
100
AcDbEntity
  8
SK2
  6
CONTINUOUS
370
25
 62
7
100
AcDbLine
 10
-7.070992712672059
 20
29.1327242856923
 30
0.0
 11
-5.943119844073848
 21
28.00485141709409
 31
0.0
  0
LINE
  5
34A
330
1F
100
AcDbEntity
  8
SK2
  6
CONTINUOUS
370
25
 62
7
100
AcDbLine
 10
-6.901287085187288
 20
29.38728272691946
 30
0.0
 11
-5.68856140284669
 21
28.17455704457886
 31
0.0
  0
LINE
  5
34B
330
1F
100
AcDbEntity
  8
SK2
  6
CONTINUOUS
370
25
 62
7
100
AcDbLine
 10
-6.731581457702514
 20
29.64184116814662
 30
0.0
 11
-5.434002961619533
 21
28.34426267206364
 31
0.0
  0
LINE
  5
34C
330
1F
100
AcDbEntity
  8
SK2
  6
CONTINUOUS
370
25
 62
7
100
AcDbLine
 10
-6.561875830217742
 20
29.89639960937378
 30
0.0
 11
-5.179444520392374
 21
28.51396829954841
 31
0.0
  0
TEXT
  5
34D
330
1F
100
AcDbEntity
  8
SK2
  6
CONTINUOUS
370
25
 62
7
100
AcDbText
 10
-2.80367839342258
 20
34.39348607990321
 30
0.0
 40
3.499999999999999
  1
9.62
 50
45.00000000000002
 72
     1
 11
0.9086322078067919
 21
38.10579668113258
 31
0.0
100
AcDbText
  0
CIRCLE
  5
34E
330
1F
100
AcDbEntity
  8
SK2
  6
CONTINUOUS
370
25
 62
7
100
AcDbCircle
 10
-6.021014247821375
 20
33.65102395965733
 30
0.0
 40
1.400000000000005
  0
LINE
  5
34F
330
1F
100
AcDbEntity
  8
SK2
  6
CONTINUOUS
370
25
 62
7
100
AcDbLine
 10
-6.021014247821373
 20
31.671124972335
 30
0.0
 11
-6.021014247821373
 21
35.63092294697967
 31
0.0
  0
LINE
  5
350
330
1F
100
AcDbEntity
  8
SK2
  6
CONTINUOUS
370
25
 62
7
100
AcDbLine
 10
9.38568542
 20
0.23431458
 30
0.0
 11
16.63352992716212
 21
-7.013529927162107
 31
0.0
  0
LINE
  5
351
330
1F
100
AcDbEntity
  8
SK2
  6
CONTINUOUS
370
25
 62
7
100
AcDbLine
 10
16.63352992716212
 20
-7.013529927162107
 30
0.0
 11
30.05852992716211
 21
-7.013529927162107
 31
0.0
  0
LINE
  5
352
330
1F
100
AcDbEntity
  8
SK2
  6
CONTINUOUS
370
25
 62
7
100
AcDbLine
 10
9.38568542
 20
0.23431458
 30
0.0
 11
8.819999995050761
 21
0.8000000049492382
 31
0.0
  0
LINE
  5
353
330
1F
100
AcDbEntity
  8
SK2
  6
CONTINUOUS
370
25
 62
7
100
AcDbLine
 10
9.38568542
 20
0.23431458
 30
0.0
 11
13.62832610711929
 21
-2.594112544746187
 31
0.0
  0
LINE
  5
354
330
1F
100
AcDbEntity
  8
SK2
  6
CONTINUOUS
370
25
 62
7
100
AcDbLine
 10
13.62832610711929
 20
-2.594112544746187
 30
0.0
 11
12.21411254474619
 21
-4.008326107119283
 31
0.0
  0
LINE
  5
355
330
1F
100
AcDbEntity
  8
SK2
  6
CONTINUOUS
370
25
 62
7
100
AcDbLine
 10
12.21411254474619
 20
-4.008326107119283
 30
0.0
 11
9.38568542
 21
0.23431458
 31
0.0
  0
LINE
  5
356
330
1F
100
AcDbEntity
  8
SK2
  6
CONTINUOUS
370
25
 62
7
100
AcDbLine
 10
12.19770737857615
 20
-3.983718357864211
 30
0.0
 11
13.60371835786422
 21
-2.57770737857614
 31
0.0
  0
LINE
  5
357
330
1F
100
AcDbEntity
  8
SK2
  6
CONTINUOUS
370
25
 62
7
100
AcDbLine
 10
12.02800175109137
 20
-3.729159916637057
 30
0.0
 11
13.34915991663706
 21
-2.408001751091371
 31
0.0
  0
LINE
  5
358
330
1F
100
AcDbEntity
  8
SK2
  6
CONTINUOUS
370
25
 62
7
100
AcDbLine
 10
11.8582961236066
 20
-3.4746014754099
 30
0.0
 11
13.0946014754099
 21
-2.238296123606599
 31
0.0
  0
LINE
  5
359
330
1F
100
AcDbEntity
  8
SK2
  6
CONTINUOUS
370
25
 62
7
100
AcDbLine
 10
11.68859049612183
 20
-3.220043034182742
 30
0.0
 11
12.84004303418275
 21
-2.068590496121827
 31
0.0
  0
LINE
  5
35A
330
1F
100
AcDbEntity
  8
SK2
  6
CONTINUOUS
370
25
 62
7
100
AcDbLine
 10
11.51888486863706
 20
-2.965484592955587
 30
0.0
 11
12.58548459295559
 21
-1.898884868637056
 31
0.0
  0
LINE
  5
35B
330
1F
100
AcDbEntity
  8
SK2
  6
CONTINUOUS
370
25
 62
7
100
AcDbLine
 10
11.34917924115229
 20
-2.71092615172843
 30
0.0
 11
12.33092615172843
 21
-1.729179241152286
 31
0.0
  0
LINE
  5
35C
330
1F
100
AcDbEntity
  8
SK2
  6
CONTINUOUS
370
25
 62
7
100
AcDbLine
 10
11.17947361366752
 20
-2.456367710501274
 30
0.0
 11
12.07636771050128
 21
-1.559473613667514
 31
0.0
  0
LINE
  5
35D
330
1F
100
AcDbEntity
  8
SK2
  6
CONTINUOUS
370
25
 62
7
100
AcDbLine
 10
11.00976798618274
 20
-2.201809269274118
 30
0.0
 11
11.82180926927412
 21
-1.389767986182745
 31
0.0
  0
LINE
  5
35E
330
1F
100
AcDbEntity
  8
SK2
  6
CONTINUOUS
370
25
 62
7
100
AcDbLine
 10
10.84006235869797
 20
-1.947250828046961
 30
0.0
 11
11.56725082804696
 21
-1.220062358697973
 31
0.0
  0
LINE
  5
35F
330
1F
100
AcDbEntity
  8
SK2
  6
CONTINUOUS
370
25
 62
7
100
AcDbLine
 10
10.6703567312132
 20
-1.692692386819804
 30
0.0
 11
11.3126923868198
 21
-1.050356731213201
 31
0.0
  0
LINE
  5
360
330
1F
100
AcDbEntity
  8
SK2
  6
CONTINUOUS
370
25
 62
7
100
AcDbLine
 10
10.50065110372843
 20
-1.438133945592647
 30
0.0
 11
11.05813394559265
 21
-0.8806511037284288
 31
0.0
  0
LINE
  5
361
330
1F
100
AcDbEntity
  8
SK2
  6
CONTINUOUS
370
25
 62
7
100
AcDbLine
 10
10.33094547624366
 20
-1.183575504365489
 30
0.0
 11
10.80357550436549
 21
-0.7109454762436584
 31
0.0
  0
LINE
  5
362
330
1F
100
AcDbEntity
  8
SK2
  6
CONTINUOUS
370
25
 62
7
100
AcDbLine
 10
10.16123984875889
 20
-0.9290170631383337
 30
0.0
 11
10.54901706313833
 21
-0.5412398487588881
 31
0.0
  0
LINE
  5
363
330
1F
100
AcDbEntity
  8
SK2
  6
CONTINUOUS
370
25
 62
7
100
AcDbLine
 10
9.991534221274119
 20
-0.6744586219111781
 30
0.0
 11
10.29445862191118
 21
-0.371534221274116
 31
0.0
  0
LINE
  5
364
330
1F
100
AcDbEntity
  8
SK2
  6
CONTINUOUS
370
25
 62
7
100
AcDbLine
 10
9.821828593789347
 20
-0.4199001806840208
 30
0.0
 11
10.03990018068402
 21
-0.2018285937893456
 31
0.0
  0
LINE
  5
365
330
1F
100
AcDbEntity
  8
SK2
  6
CONTINUOUS
370
25
 62
7
100
AcDbLine
 10
9.652122966304576
 20
-0.1653417394568635
 30
0.0
 11
9.785341739456863
 21
-0.032122966304577
 31
0.0
  0
LINE
  5
366
330
1F
100
AcDbEntity
  8
SK2
  6
CONTINUOUS
370
25
 62
7
100
AcDbLine
 10
9.482417338819804
 20
0.0892167017702921
 30
0.0
 11
9.530783298229707
 21
0.1375826611801951
 31
0.0
  0
LINE
  5
367
330
1F
100
AcDbEntity
  8
SK2
  6
CONTINUOUS
370
25
 62
7
100
AcDbLine
 10
11.65512267152286
 20
-3.169841297284281
 30
0.0
 11
12.35386001305203
 21
-3.868578638813453
 31
0.0
  0
LINE
  5
368
330
1F
100
AcDbEntity
  8
SK2
  6
CONTINUOUS
370
25
 62
7
100
AcDbLine
 10
10.806594534099
 20
-1.897049091148494
 30
0.0
 11
12.56599204740799
 21
-3.656446604457487
 31
0.0
  0
LINE
  5
369
330
1F
100
AcDbEntity
  8
SK2
  6
CONTINUOUS
370
25
 62
7
100
AcDbLine
 10
9.95806639667514
 20
-0.6242568850127093
 30
0.0
 11
12.77812408176396
 21
-3.444314570101524
 31
0.0
  0
LINE
  5
36A
330
1F
100
AcDbEntity
  8
SK2
  6
CONTINUOUS
370
25
 62
7
100
AcDbLine
 10
9.79990616112307
 20
-0.0418325807487125
 30
0.0
 11
12.99025611611992
 21
-3.23218253574556
 31
0.0
  0
LINE
  5
36B
330
1F
100
AcDbEntity
  8
SK2
  6
CONTINUOUS
370
25
 62
7
100
AcDbLine
 10
11.07269836725885
 20
-0.8903607181725679
 30
0.0
 11
13.20238815047588
 21
-3.020050501389594
 31
0.0
  0
LINE
  5
36C
330
1F
100
AcDbEntity
  8
SK2
  6
CONTINUOUS
370
25
 62
7
100
AcDbLine
 10
12.34549057339464
 20
-1.738888855596421
 30
0.0
 11
13.41452018483185
 21
-2.807918467033629
 31
0.0
  0
LINE
  5
36D
330
1F
100
AcDbEntity
  8
SK2
  6
CONTINUOUS
370
25
 62
7
100
AcDbLine
 10
13.61828277953042
 20
-2.58741699302028
 30
0.0
 11
13.62665221918781
 21
-2.595786432677665
 31
0.0
  0
TEXT
  5
36E
330
1F
100
AcDbEntity
  8
SK2
  6
CONTINUOUS
370
25
 62
7
100
AcDbText
 10
18.38769659382878
 20
-5.513529927162106
 30
0.0
 40
3.5
  1
R0.8
 72
     1
 11
23.34602992716211
 21
-5.513529927162106
 31
0.0
100
AcDbText
  0
ENDSEC
  0
SECTION
  2
OBJECTS
  0
DICTIONARY
  5
C
330
0
100
AcDbDictionary
281
     1
  3
ACAD_GROUP
350
D
  3
ACAD_LAYOUT
350
1A
  3
ACAD_MATERIAL
350
3B
  3
ACAD_MLEADERSTYLE
350
371
  3
ACAD_MLINESTYLE
350
17
  3
ACAD_PLOTSETTINGS
350
19
  3
ACAD_PLOTSTYLENAME
350
E
  3
ACAD_SCALELIST
350
A0
  3
ACAD_VISUALSTYLE
350
2A
  3
AcDbVariableDictionary
350
36F
  0
DICTIONARY
  5
D
102
{ACAD_REACTORS
330
C
102
}
330
C
100
AcDbDictionary
281
     1
  0
DICTIONARY
  5
1A
102
{ACAD_REACTORS
330
C
102
}
330
C
100
AcDbDictionary
281
     1
  3
Layout1
350
1E
  3
Layout2
350
26
  3
Model
350
22
  0
DICTIONARY
  5
3B
102
{ACAD_REACTORS
330
C
102
}
330
C
100
AcDbDictionary
281
     1
  3
ByBlock
350
3D
  3
ByLayer
350
3C
  3
Global
350
3E
  0
DICTIONARY
  5
371
102
{ACAD_REACTORS
330
C
102
}
330
C
100
AcDbDictionary
281
     1
  0
DICTIONARY
  5
17
102
{ACAD_REACTORS
330
C
102
}
330
C
100
AcDbDictionary
281
     1
  3
Standard
350
18
  0
DICTIONARY
  5
19
102
{ACAD_REACTORS
330
C
102
}
330
C
100
AcDbDictionary
281
     1
  0
ACDBDICTIONARYWDFLT
  5
E
102
{ACAD_REACTORS
330
C
102
}
330
C
100
AcDbDictionary
281
     1
  3
Normal
350
F
100
AcDbDictionaryWithDefault
340
F
  0
DICTIONARY
  5
A0
102
{ACAD_REACTORS
330
C
102
}
330
C
100
AcDbDictionary
281
     1
  3
A0
350
A1
  3
A1
350
A2
  3
A2
350
A3
  3
A3
350
A4
  3
A4
350
A5
  3
A5
350
A6
  3
A6
350
A7
  3
A7
350
A8
  3
A8
350
A9
  3
A9
350
AA
  3
B0
350
AB
  3
B1
350
AC
  3
B2
350
AD
  3
B3
350
AE
  3
B4
350
AF
  3
B5
350
B0
  3
B6
350
B1
  3
B7
350
B2
  3
B8
350
B3
  3
B9
350
B4
  3
C0
350
B5
  3
C1
350
B6
  3
C2
350
B7
  3
C3
350
B8
  3
C4
350
B9
  3
C5
350
BA
  3
C6
350
BB
  3
C7
350
BC
  3
C8
350
BD
  3
C9
350
BE
  3
D0
350
BF
  3
D1
350
C0
  3
D2
350
C1
  0
DICTIONARY
  5
2A
102
{ACAD_REACTORS
330
C
102
}
330
C
100
AcDbDictionary
281
     1
  3
2dWireframe
350
2F
  3
3D Hidden
350
31
  3
3dWireframe
350
30
  3
Basic
350
32
  3
Brighten
350
36
  3
ColorChange
350
3A
  3
Conceptual
350
34
  3
Dim
350
35
  3
Facepattern
350
39
  3
Flat
350
2B
  3
FlatWithEdges
350
2C
  3
Gouraud
350
2D
  3
GouraudWithEdges
350
2E
  3
Linepattern
350
38
  3
Realistic
350
33
  3
Thicken
350
37
  0
DICTIONARY
  5
36F
102
{ACAD_REACTORS
330
C
102
}
330
C
100
AcDbDictionary
281
     1
  3
CANNOSCALE
350
374
  3
DIMASSOC
350
375
  3
HIDETEXT
350
376
  3
PSOLHEIGHT
350
373
  3
PSOLWIDTH
350
372
  0
LAYOUT
  5
1E
102
{ACAD_REACTORS
330
1A
102
}
330
1A
100
AcDbPlotSettings
  1

  2
none_device
  4

  6

 40
0.0
 41
0.0
 42
0.0
 43
0.0
 44
0.0
 45
0.0
 46
0.0
 47
0.0
 48
0.0
 49
0.0
140
0.0
141
0.0
142
1.0
143
1.0
 70
   688
 72
     0
 73
     0
 74
     5
  7

 75
    16
147
1.0
148
0.0
149
0.0
100
AcDbLayout
  1
Layout1
 70
     1
 71
     1
 10
0.0
 20
0.0
 11
420.0
 21
297.0
 12
0.0
 22
0.0
 32
0.0
 14
1.000000000000000E+20
 24
1.000000000000000E+20
 34
1.000000000000000E+20
 15
-1.000000000000000E+20
 25
-1.000000000000000E+20
 35
-1.000000000000000E+20
146
0.0
 13
0.0
 23
0.0
 33
0.0
 16
1.0
 26
0.0
 36
0.0
 17
0.0
 27
1.0
 37
0.0
 76
     0
330
1B
  0
LAYOUT
  5
26
102
{ACAD_REACTORS
330
1A
102
}
330
1A
100
AcDbPlotSettings
  1

  2
none_device
  4

  6

 40
0.0
 41
0.0
 42
0.0
 43
0.0
 44
0.0
 45
0.0
 46
0.0
 47
0.0
 48
0.0
 49
0.0
140
0.0
141
0.0
142
1.0
143
1.0
 70
   688
 72
     0
 73
     0
 74
     5
  7

 75
    16
147
1.0
148
0.0
149
0.0
100
AcDbLayout
  1
Layout2
 70
     1
 71
     2
 10
0.0
 20
0.0
 11
0.0
 21
0.0
 12
0.0
 22
0.0
 32
0.0
 14
0.0
 24
0.0
 34
0.0
 15
0.0
 25
0.0
 35
0.0
146
0.0
 13
0.0
 23
0.0
 33
0.0
 16
1.0
 26
0.0
 36
0.0
 17
0.0
 27
1.0
 37
0.0
 76
     0
330
23
  0
LAYOUT
  5
22
102
{ACAD_REACTORS
330
1A
102
}
330
1A
100
AcDbPlotSettings
  1

  2
none_device
  4

  6

 40
0.0
 41
0.0
 42
0.0
 43
0.0
 44
0.0
 45
0.0
 46
0.0
 47
0.0
 48
0.0
 49
0.0
140
0.0
141
0.0
142
1.0
143
1.0
 70
  1712
 72
     0
 73
     0
 74
     0
  7

 75
     0
147
1.0
148
0.0
149
0.0
100
AcDbLayout
  1
Model
 70
     1
 71
     0
 10
0.0
 20
0.0
 11
420.0
 21
297.0
 12
0.0
 22
0.0
 32
0.0
 14
0.0
 24
0.0
 34
0.0
 15
25.0
 25
35.0
 35
0.0
146
0.0
 13
0.0
 23
0.0
 33
0.0
 16
1.0
 26
0.0
 36
0.0
 17
0.0
 27
1.0
 37
0.0
 76
     0
330
1F
331
29
  0
MATERIAL
  5
3D
102
{ACAD_REACTORS
330
3B
102
}
102
{ACAD_XDICTIONARY
360
399
102
}
330
3B
100
AcDbMaterial
  1
ByBlock
  0
MATERIAL
  5
3C
102
{ACAD_REACTORS
330
3B
102
}
102
{ACAD_XDICTIONARY
360
397
102
}
330
3B
100
AcDbMaterial
  1
ByLayer
  0
MATERIAL
  5
3E
102
{ACAD_REACTORS
330
3B
102
}
102
{ACAD_XDICTIONARY
360
39B
102
}
330
3B
100
AcDbMaterial
  1
Global
  0
MLINESTYLE
  5
18
102
{ACAD_REACTORS
330
17
102
}
330
17
100
AcDbMlineStyle
  2
Standard
 70
     0
  3

 62
   256
 51
90.0
 52
90.0
 71
     2
 49
0.5
 62
   256
  6
BYLAYER
 49
-0.5
 62
   256
  6
BYLAYER
  0
ACDBPLACEHOLDER
  5
F
102
{ACAD_REACTORS
330
E
102
}
330
E
  0
SCALE
  5
A1
102
{ACAD_REACTORS
330
A0
102
}
330
A0
100
AcDbScale
 70
     0
300
1:1
140
1.0
141
1.0
290
     1
  0
SCALE
  5
A2
102
{ACAD_REACTORS
330
A0
102
}
330
A0
100
AcDbScale
 70
     0
300
1:2
140
1.0
141
2.0
290
     0
  0
SCALE
  5
A3
102
{ACAD_REACTORS
330
A0
102
}
330
A0
100
AcDbScale
 70
     0
300
1:4
140
1.0
141
4.0
290
     0
  0
SCALE
  5
A4
102
{ACAD_REACTORS
330
A0
102
}
330
A0
100
AcDbScale
 70
     0
300
1:5
140
1.0
141
5.0
290
     0
  0
SCALE
  5
A5
102
{ACAD_REACTORS
330
A0
102
}
330
A0
100
AcDbScale
 70
     0
300
1:8
140
1.0
141
8.0
290
     0
  0
SCALE
  5
A6
102
{ACAD_REACTORS
330
A0
102
}
330
A0
100
AcDbScale
 70
     0
300
1:10
140
1.0
141
10.0
290
     0
  0
SCALE
  5
A7
102
{ACAD_REACTORS
330
A0
102
}
330
A0
100
AcDbScale
 70
     0
300
1:16
140
1.0
141
16.0
290
     0
  0
SCALE
  5
A8
102
{ACAD_REACTORS
330
A0
102
}
330
A0
100
AcDbScale
 70
     0
300
1:20
140
1.0
141
20.0
290
     0
  0
SCALE
  5
A9
102
{ACAD_REACTORS
330
A0
102
}
330
A0
100
AcDbScale
 70
     0
300
1:30
140
1.0
141
30.0
290
     0
  0
SCALE
  5
AA
102
{ACAD_REACTORS
330
A0
102
}
330
A0
100
AcDbScale
 70
     0
300
1:40
140
1.0
141
40.0
290
     0
  0
SCALE
  5
AB
102
{ACAD_REACTORS
330
A0
102
}
330
A0
100
AcDbScale
 70
     0
300
1:50
140
1.0
141
50.0
290
     0
  0
SCALE
  5
AC
102
{ACAD_REACTORS
330
A0
102
}
330
A0
100
AcDbScale
 70
     0
300
1:100
140
1.0
141
100.0
290
     0
  0
SCALE
  5
AD
102
{ACAD_REACTORS
330
A0
102
}
330
A0
100
AcDbScale
 70
     0
300
2:1
140
2.0
141
1.0
290
     0
  0
SCALE
  5
AE
102
{ACAD_REACTORS
330
A0
102
}
330
A0
100
AcDbScale
 70
     0
300
4:1
140
4.0
141
1.0
290
     0
  0
SCALE
  5
AF
102
{ACAD_REACTORS
330
A0
102
}
330
A0
100
AcDbScale
 70
     0
300
8:1
140
8.0
141
1.0
290
     0
  0
SCALE
  5
B0
102
{ACAD_REACTORS
330
A0
102
}
330
A0
100
AcDbScale
 70
     0
300
10:1
140
10.0
141
1.0
290
     0
  0
SCALE
  5
B1
102
{ACAD_REACTORS
330
A0
102
}
330
A0
100
AcDbScale
 70
     0
300
100:1
140
100.0
141
1.0
290
     0
  0
SCALE
  5
B2
102
{ACAD_REACTORS
330
A0
102
}
330
A0
100
AcDbScale
 70
     0
300
1/128" = 1'-0"
140
0.0078125
141
12.0
290
     0
  0
SCALE
  5
B3
102
{ACAD_REACTORS
330
A0
102
}
330
A0
100
AcDbScale
 70
     0
300
1/64" = 1'-0"
140
0.015625
141
12.0
290
     0
  0
SCALE
  5
B4
102
{ACAD_REACTORS
330
A0
102
}
330
A0
100
AcDbScale
 70
     0
300
1/32" = 1'-0"
140
0.03125
141
12.0
290
     0
  0
SCALE
  5
B5
102
{ACAD_REACTORS
330
A0
102
}
330
A0
100
AcDbScale
 70
     0
300
1/16" = 1'-0"
140
0.0625
141
12.0
290
     0
  0
SCALE
  5
B6
102
{ACAD_REACTORS
330
A0
102
}
330
A0
100
AcDbScale
 70
     0
300
3/32" = 1'-0"
140
0.09375
141
12.0
290
     0
  0
SCALE
  5
B7
102
{ACAD_REACTORS
330
A0
102
}
330
A0
100
AcDbScale
 70
     0
300
1/8" = 1'-0"
140
0.125
141
12.0
290
     0
  0
SCALE
  5
B8
102
{ACAD_REACTORS
330
A0
102
}
330
A0
100
AcDbScale
 70
     0
300
3/16" = 1'-0"
140
0.1875
141
12.0
290
     0
  0
SCALE
  5
B9
102
{ACAD_REACTORS
330
A0
102
}
330
A0
100
AcDbScale
 70
     0
300
1/4" = 1'-0"
140
0.25
141
12.0
290
     0
  0
SCALE
  5
BA
102
{ACAD_REACTORS
330
A0
102
}
330
A0
100
AcDbScale
 70
     0
300
3/8" = 1'-0"
140
0.375
141
12.0
290
     0
  0
SCALE
  5
BB
102
{ACAD_REACTORS
330
A0
102
}
330
A0
100
AcDbScale
 70
     0
300
1/2" = 1'-0"
140
0.5
141
12.0
290
     0
  0
SCALE
  5
BC
102
{ACAD_REACTORS
330
A0
102
}
330
A0
100
AcDbScale
 70
     0
300
3/4" = 1'-0"
140
0.75
141
12.0
290
     0
  0
SCALE
  5
BD
102
{ACAD_REACTORS
330
A0
102
}
330
A0
100
AcDbScale
 70
     0
300
1" = 1'-0"
140
1.0
141
12.0
290
     0
  0
SCALE
  5
BE
102
{ACAD_REACTORS
330
A0
102
}
330
A0
100
AcDbScale
 70
     0
300
1-1/2" = 1'-0"
140
1.5
141
12.0
290
     0
  0
SCALE
  5
BF
102
{ACAD_REACTORS
330
A0
102
}
330
A0
100
AcDbScale
 70
     0
300
3" = 1'-0"
140
3.0
141
12.0
290
     0
  0
SCALE
  5
C0
102
{ACAD_REACTORS
330
A0
102
}
330
A0
100
AcDbScale
 70
     0
300
6" = 1'-0"
140
6.0
141
12.0
290
     0
  0
SCALE
  5
C1
102
{ACAD_REACTORS
330
A0
102
}
330
A0
100
AcDbScale
 70
     0
300
1'-0" = 1'-0"
140
12.0
141
12.0
290
     0
  0
VISUALSTYLE
  5
2F
102
{ACAD_REACTORS
330
2A
102
}
102
{ACAD_XDICTIONARY
360
37F
102
}
330
2A
100
AcDbVisualStyle
  2
2dWireframe
 70
     4
 71
     0
 72
     2
 73
     0
 90
        0
 40
-0.6
 41
-30.0
 62
     5
 63
     7
 74
     1
 91
        4
 64
     7
 65
   257
 75
     1
175
     1
 42
1.0
 92
        0
 66
   257
 43
1.0
 76
     1
 77
     6
 78
     2
 67
     7
 79
     5
170
     0
171
     0
290
     0
174
     0
 93
        1
 44
0.0
173
     0
291
     0
 45
0.0
1001
ACAD
1000
AcDbSavedByObjectVersion
1070
     0
  0
VISUALSTYLE
  5
31
102
{ACAD_REACTORS
330
2A
102
}
102
{ACAD_XDICTIONARY
360
383
102
}
330
2A
100
AcDbVisualStyle
  2
3D Hidden
 70
     6
 71
     1
 72
     2
 73
     2
 90
        0
 40
-0.6
 41
-30.0
 62
     5
 63
     7
 74
     2
 91
        2
 64
     7
 65
   257
 75
     2
175
     1
 42
40.0
 92
        0
 66
   257
 43
1.0
 76
     1
 77
     6
 78
     2
 67
     7
 79
     3
170
     0
171
     0
290
     0
174
     0
 93
        1
 44
0.0
173
     0
291
     0
 45
0.0
1001
ACAD
1000
AcDbSavedByObjectVersion
1070
     0
  0
VISUALSTYLE
  5
30
102
{ACAD_REACTORS
330
2A
102
}
102
{ACAD_XDICTIONARY
360
381
102
}
330
2A
100
AcDbVisualStyle
  2
3dWireframe
 70
     5
 71
     0
 72
     2
 73
     0
 90
        0
 40
-0.6
 41
-30.0
 62
     5
 63
     7
 74
     1
 91
        4
 64
     7
 65
   257
 75
     1
175
     1
 42
1.0
 92
        0
 66
   257
 43
1.0
 76
     1
 77
     6
 78
     2
 67
     7
 79
     5
170
     0
171
     0
290
     0
174
     0
 93
        1
 44
0.0
173
     0
291
     0
 45
0.0
1001
ACAD
1000
AcDbSavedByObjectVersion
1070
     0
  0
VISUALSTYLE
  5
32
102
{ACAD_REACTORS
330
2A
102
}
102
{ACAD_XDICTIONARY
360
385
102
}
330
2A
100
AcDbVisualStyle
  2
Basic
 70
     7
 71
     1
 72
     0
 73
     1
 90
        0
 40
-0.6
 41
-30.0
 62
     5
 63
     7
 74
     0
 91
        4
 64
     7
 65
   257
 75
     1
175
     1
 42
1.0
 92
        8
 66
     7
 43
1.0
 76
     1
 77
     6
 78
     2
 67
     7
 79
     5
170
     0
171
     0
290
     0
174
     0
 93
        1
 44
0.0
173
     0
291
     1
 45
0.0
1001
ACAD
1000
AcDbSavedByObjectVersion
1070
     0
  0
VISUALSTYLE
  5
36
102
{ACAD_REACTORS
330
2A
102
}
102
{ACAD_XDICTIONARY
360
38D
102
}
330
2A
100
AcDbVisualStyle
  2
Brighten
 70
    12
 71
     2
 72
     2
 73
     0
 90
        0
 40
-0.6
 41
-30.0
 62
     5
 63
     7
 74
     1
 91
        4
 64
     7
 65
   257
 75
     1
175
     1
 42
1.0
 92
        8
 66
     7
 43
1.0
 76
     1
 77
     6
 78
     2
 67
     7
 79
     5
170
     0
171
     0
290
     0
174
     0
 93
        1
 44
50.0
173
     0
291
     1
 45
0.0
1001
ACAD
1000
AcDbSavedByObjectVersion
1070
     0
  0
VISUALSTYLE
  5
3A
102
{ACAD_REACTORS
330
2A
102
}
102
{ACAD_XDICTIONARY
360
395
102
}
330
2A
100
AcDbVisualStyle
  2
ColorChange
 70
    16
 71
     2
 72
     2
 73
     3
 90
        0
 40
-0.6
 41
-30.0
 62
     5
 63
     8
 74
     1
 91
        4
 64
     7
 65
   257
 75
     1
175
     1
 42
1.0
 92
        8
 66
     8
 43
1.0
 76
     1
 77
     6
 78
     2
 67
     7
 79
     5
170
     0
171
     0
290
     0
174
     0
 93
        1
 44
0.0
173
     0
291
     1
 45
0.0
1001
ACAD
1000
AcDbSavedByObjectVersion
1070
     0
  0
VISUALSTYLE
  5
34
102
{ACAD_REACTORS
330
2A
102
}
102
{ACAD_XDICTIONARY
360
389
102
}
330
2A
100
AcDbVisualStyle
  2
Conceptual
 70
     9
 71
     3
 72
     2
 73
     0
 90
        0
 40
-0.6
 41
-30.0
 62
     5
 63
     7
 74
     2
 91
        2
 64
     7
 65
   257
 75
     1
175
     1
 42
40.0
 92
        8
 66
     7
 43
1.0
 76
     1
 77
     6
 78
     2
 67
     7
 79
     3
170
     0
171
     0
290
     0
174
     0
 93
        1
 44
0.0
173
     0
291
     0
 45
0.0
1001
ACAD
1000
AcDbSavedByObjectVersion
1070
     0
  0
VISUALSTYLE
  5
35
102
{ACAD_REACTORS
330
2A
102
}
102
{ACAD_XDICTIONARY
360
38B
102
}
330
2A
100
AcDbVisualStyle
  2
Dim
 70
    11
 71
     2
 72
     2
 73
     0
 90
        0
 40
-0.6
 41
-30.0
 62
     5
 63
     7
 74
     1
 91
        4
 64
     7
 65
   257
 75
     1
175
     1
 42
1.0
 92
        8
 66
     7
 43
1.0
 76
     1
 77
     6
 78
     2
 67
     7
 79
     5
170
     0
171
     0
290
     0
174
     0
 93
        1
 44
-50.0
173
     0
291
     1
 45
0.0
1001
ACAD
1000
AcDbSavedByObjectVersion
1070
     0
  0
VISUALSTYLE
  5
39
102
{ACAD_REACTORS
330
2A
102
}
102
{ACAD_XDICTIONARY
360
393
102
}
330
2A
100
AcDbVisualStyle
  2
Facepattern
 70
    15
 71
     2
 72
     2
 73
     0
 90
        0
 40
-0.6
 41
-30.0
 62
     5
 63
     7
 74
     1
 91
        4
 64
     7
 65
   257
 75
     1
175
     1
 42
1.0
 92
        8
 66
     7
 43
1.0
 76
     1
 77
     6
 78
     2
 67
     7
 79
     5
170
     0
171
     0
290
     0
174
     0
 93
        1
 44
0.0
173
     0
291
     1
 45
0.0
1001
ACAD
1000
AcDbSavedByObjectVersion
1070
     0
  0
VISUALSTYLE
  5
2B
102
{ACAD_REACTORS
330
2A
102
}
102
{ACAD_XDICTIONARY
360
377
102
}
330
2A
100
AcDbVisualStyle
  2
Flat
 70
     0
 71
     2
 72
     1
 73
     1
 90
        2
 40
-0.6
 41
30.0
 62
     5
 63
     7
 74
     0
 91
        4
 64
     7
 65
   257
 75
     1
175
     1
 42
1.0
 92
        8
 66
     7
 43
1.0
 76
     1
 77
     6
 78
     2
 67
     7
 79
     5
170
     0
171
     0
290
     0
174
     0
 93
       13
 44
0.0
173
     0
291
     1
 45
0.0
1001
ACAD
1000
AcDbSavedByObjectVersion
1070
     0
  0
VISUALSTYLE
  5
2C
102
{ACAD_REACTORS
330
2A
102
}
102
{ACAD_XDICTIONARY
360
379
102
}
330
2A
100
AcDbVisualStyle
  2
FlatWithEdges
 70
     1
 71
     2
 72
     1
 73
     1
 90
        2
 40
-0.6
 41
30.0
 62
     5
 63
     7
 74
     1
 91
        4
 64
     7
 65
   257
 75
     1
175
     1
 42
1.0
 92
        0
 66
   257
 43
1.0
 76
     1
 77
     6
 78
     2
 67
     7
 79
     5
170
     0
171
     0
290
     0
174
     0
 93
       13
 44
0.0
173
     0
291
     1
 45
0.0
1001
ACAD
1000
AcDbSavedByObjectVersion
1070
     0
  0
VISUALSTYLE
  5
2D
102
{ACAD_REACTORS
330
2A
102
}
102
{ACAD_XDICTIONARY
360
37B
102
}
330
2A
100
AcDbVisualStyle
  2
Gouraud
 70
     2
 71
     2
 72
     2
 73
     1
 90
        2
 40
-0.6
 41
30.0
 62
     5
 63
     7
 74
     0
 91
        4
 64
     7
 65
   257
 75
     1
175
     1
 42
1.0
 92
        0
 66
     7
 43
1.0
 76
     1
 77
     6
 78
     2
 67
     7
 79
     5
170
     0
171
     0
290
     0
174
     0
 93
       13
 44
0.0
173
     0
291
     1
 45
0.0
1001
ACAD
1000
AcDbSavedByObjectVersion
1070
     0
  0
VISUALSTYLE
  5
2E
102
{ACAD_REACTORS
330
2A
102
}
102
{ACAD_XDICTIONARY
360
37D
102
}
330
2A
100
AcDbVisualStyle
  2
GouraudWithEdges
 70
     3
 71
     2
 72
     2
 73
     1
 90
        2
 40
-0.6
 41
30.0
 62
     5
 63
     7
 74
     1
 91
        4
 64
     7
 65
   257
 75
     1
175
     1
 42
1.0
 92
        0
 66
   257
 43
1.0
 76
     1
 77
     6
 78
     2
 67
     7
 79
     5
170
     0
171
     0
290
     0
174
     0
 93
       13
 44
0.0
173
     0
291
     1
 45
0.0
1001
ACAD
1000
AcDbSavedByObjectVersion
1070
     0
  0
VISUALSTYLE
  5
38
102
{ACAD_REACTORS
330
2A
102
}
102
{ACAD_XDICTIONARY
360
391
102
}
330
2A
100
AcDbVisualStyle
  2
Linepattern
 70
    14
 71
     2
 72
     2
 73
     0
 90
        0
 40
-0.6
 41
-30.0
 62
     5
 63
     7
 74
     1
 91
        4
 64
     7
 65
   257
 75
     7
175
     7
 42
1.0
 92
        8
 66
     7
 43
1.0
 76
     1
 77
     6
 78
     2
 67
     7
 79
     5
170
     0
171
     0
290
     0
174
     0
 93
        1
 44
0.0
173
     0
291
     1
 45
0.0
1001
ACAD
1000
AcDbSavedByObjectVersion
1070
     0
  0
VISUALSTYLE
  5
33
102
{ACAD_REACTORS
330
2A
102
}
102
{ACAD_XDICTIONARY
360
387
102
}
330
2A
100
AcDbVisualStyle
  2
Realistic
 70
     8
 71
     2
 72
     2
 73
     0
 90
        0
 40
-0.6
 41
-30.0
 62
     5
 63
     7
 74
     1
 91
        0
 64
     7
 65
   257
 75
     1
175
     1
 42
1.0
 92
        8
 66
     8
 43
1.0
 76
     1
 77
     6
 78
     2
 67
     7
 79
     5
170
     0
171
     0
290
     0
174
     0
 93
       13
 44
0.0
173
     0
291
     0
 45
0.0
1001
ACAD
1000
AcDbSavedByObjectVersion
1070
     0
  0
VISUALSTYLE
  5
37
102
{ACAD_REACTORS
330
2A
102
}
102
{ACAD_XDICTIONARY
360
38F
102
}
330
2A
100
AcDbVisualStyle
  2
Thicken
 70
    13
 71
     2
 72
     2
 73
     0
 90
        0
 40
-0.6
 41
-30.0
 62
     5
 63
     7
 74
     1
 91
        4
 64
     7
 65
   257
 75
     1
175
     1
 42
1.0
 92
       12
 66
     7
 43
1.0
 76
     1
 77
     6
 78
     2
 67
     7
 79
     5
170
     0
171
     0
290
     0
174
     0
 93
        1
 44
0.0
173
     0
291
     1
 45
0.0
1001
ACAD
1000
AcDbSavedByObjectVersion
1070
     0
  0
DICTIONARYVAR
  5
374
102
{ACAD_REACTORS
330
36F
102
}
330
36F
100
DictionaryVariables
280
     0
  1
1:1
  0
DICTIONARYVAR
  5
375
102
{ACAD_REACTORS
330
36F
102
}
330
36F
100
DictionaryVariables
280
     0
  1
2
  0
DICTIONARYVAR
  5
376
102
{ACAD_REACTORS
330
36F
102
}
330
36F
100
DictionaryVariables
280
     0
  1
1
  0
DICTIONARYVAR
  5
373
102
{ACAD_REACTORS
330
36F
102
}
330
36F
100
DictionaryVariables
280
     0
  1
80.000000
  0
DICTIONARYVAR
  5
372
102
{ACAD_REACTORS
330
36F
102
}
330
36F
100
DictionaryVariables
280
     0
  1
5.000000
  0
DICTIONARY
  5
399
330
3D
100
AcDbDictionary
280
     1
281
     1
  3
ACAD_XREC_ROUNDTRIP
360
39A
  0
DICTIONARY
  5
397
330
3C
100
AcDbDictionary
280
     1
281
     1
  3
ACAD_XREC_ROUNDTRIP
360
398
  0
DICTIONARY
  5
39B
330
3E
100
AcDbDictionary
280
     1
281
     1
  3
ACAD_XREC_ROUNDTRIP
360
39C
  0
DICTIONARY
  5
37F
330
2F
100
AcDbDictionary
280
     1
281
     1
  3
ACAD_XREC_ROUNDTRIP
360
380
  0
DICTIONARY
  5
383
330
31
100
AcDbDictionary
280
     1
281
     1
  3
ACAD_XREC_ROUNDTRIP
360
384
  0
DICTIONARY
  5
381
330
30
100
AcDbDictionary
280
     1
281
     1
  3
ACAD_XREC_ROUNDTRIP
360
382
  0
DICTIONARY
  5
385
330
32
100
AcDbDictionary
280
     1
281
     1
  3
ACAD_XREC_ROUNDTRIP
360
386
  0
DICTIONARY
  5
38D
330
36
100
AcDbDictionary
280
     1
281
     1
  3
ACAD_XREC_ROUNDTRIP
360
38E
  0
DICTIONARY
  5
395
330
3A
100
AcDbDictionary
280
     1
281
     1
  3
ACAD_XREC_ROUNDTRIP
360
396
  0
DICTIONARY
  5
389
330
34
100
AcDbDictionary
280
     1
281
     1
  3
ACAD_XREC_ROUNDTRIP
360
38A
  0
DICTIONARY
  5
38B
330
35
100
AcDbDictionary
280
     1
281
     1
  3
ACAD_XREC_ROUNDTRIP
360
38C
  0
DICTIONARY
  5
393
330
39
100
AcDbDictionary
280
     1
281
     1
  3
ACAD_XREC_ROUNDTRIP
360
394
  0
DICTIONARY
  5
377
330
2B
100
AcDbDictionary
280
     1
281
     1
  3
ACAD_XREC_ROUNDTRIP
360
378
  0
DICTIONARY
  5
379
330
2C
100
AcDbDictionary
280
     1
281
     1
  3
ACAD_XREC_ROUNDTRIP
360
37A
  0
DICTIONARY
  5
37B
330
2D
100
AcDbDictionary
280
     1
281
     1
  3
ACAD_XREC_ROUNDTRIP
360
37C
  0
DICTIONARY
  5
37D
330
2E
100
AcDbDictionary
280
     1
281
     1
  3
ACAD_XREC_ROUNDTRIP
360
37E
  0
DICTIONARY
  5
391
330
38
100
AcDbDictionary
280
     1
281
     1
  3
ACAD_XREC_ROUNDTRIP
360
392
  0
DICTIONARY
  5
387
330
33
100
AcDbDictionary
280
     1
281
     1
  3
ACAD_XREC_ROUNDTRIP
360
388
  0
DICTIONARY
  5
38F
330
37
100
AcDbDictionary
280
     1
281
     1
  3
ACAD_XREC_ROUNDTRIP
360
390
  0
XRECORD
  5
39A
102
{ACAD_REACTORS
330
399
102
}
330
399
100
AcDbXrecord
280
     1
102
MATERIAL
148
0.0
149
0.0
149
0.0
 93
        0
 94
      127
282
     0
 72
     1
 77
     1
171
     1
175
     1
179
     1
273
     0
  0
XRECORD
  5
398
102
{ACAD_REACTORS
330
397
102
}
330
397
100
AcDbXrecord
280
     1
102
MATERIAL
148
0.0
149
0.0
149
0.0
 93
        0
 94
      127
282
     0
 72
     1
 77
     1
171
     1
175
     1
179
     1
273
     0
  0
XRECORD
  5
39C
102
{ACAD_REACTORS
330
39B
102
}
330
39B
100
AcDbXrecord
280
     1
102
MATERIAL
148
0.0
149
0.0
149
0.0
 93
        0
 94
      127
282
     0
 72
     1
 77
     1
171
     1
175
     1
179
     1
273
     0
  0
XRECORD
  5
380
102
{ACAD_REACTORS
330
37F
102
}
330
37F
100
AcDbXrecord
280
     1
102
RTVSPropertyOp0
 70
     1
102
RTVSPropertyOp1
 70
     1
102
RTVSPropertyOp2
 70
     1
102
RTVSPropertyOp3
 70
     1
102
RTVSPropertyOp4
 70
     1
102
RTVSPropertyOp5
 70
     1
102
RTVSPropertyOp6
 70
     1
102
RTVSPropertyOp7
 70
     1
102
RTVSPropertyOp8
 70
     1
102
RTVSPropertyOp9
 70
     1
102
RTVSPropertyOp10
 70
     1
102
RTVSPropertyOp11
 70
     1
102
RTVSPropertyOp12
 70
     1
102
RTVSPropertyOp13
 70
     1
102
RTVSPropertyOp14
 70
     1
102
RTVSPropertyOp15
 70
     1
102
RTVSPropertyOp16
 70
     1
102
RTVSPropertyOp17
 70
     1
102
RTVSPropertyOp18
 70
     1
102
RTVSPropertyOp19
 70
     1
102
RTVSPropertyOp20
 70
     1
102
RTVSPropertyOp21
 70
     1
102
RTVSPropertyOp22
 70
     1
102
RTVSPropertyOp23
 70
     1
102
RTVSPropertyOp24
 70
     1
102
RTVSPropertyOp25
 70
     1
102
RTVSPropertyOp26
 70
     1
102
RTVSPropertyOp27
 70
     1
  0
XRECORD
  5
384
102
{ACAD_REACTORS
330
383
102
}
330
383
100
AcDbXrecord
280
     1
102
RTVSPropertyOp0
 70
     1
102
RTVSPropertyOp1
 70
     1
102
RTVSPropertyOp2
 70
     1
102
RTVSPropertyOp3
 70
     1
102
RTVSPropertyOp4
 70
     1
102
RTVSPropertyOp5
 70
     1
102
RTVSPropertyOp6
 70
     1
102
RTVSPropertyOp7
 70
     1
102
RTVSPropertyOp8
 70
     1
102
RTVSPropertyOp9
 70
     1
102
RTVSPropertyOp10
 70
     1
102
RTVSPropertyOp11
 70
     1
102
RTVSPropertyOp12
 70
     1
102
RTVSPropertyOp13
 70
     1
102
RTVSPropertyOp14
 70
     1
102
RTVSPropertyOp15
 70
     1
102
RTVSPropertyOp16
 70
     1
102
RTVSPropertyOp17
 70
     1
102
RTVSPropertyOp18
 70
     1
102
RTVSPropertyOp19
 70
     1
102
RTVSPropertyOp20
 70
     1
102
RTVSPropertyOp21
 70
     1
102
RTVSPropertyOp22
 70
     1
102
RTVSPropertyOp23
 70
     1
102
RTVSPropertyOp24
 70
     1
102
RTVSPropertyOp25
 70
     1
102
RTVSPropertyOp26
 70
     1
102
RTVSPropertyOp27
 70
     1
  0
XRECORD
  5
382
102
{ACAD_REACTORS
330
381
102
}
330
381
100
AcDbXrecord
280
     1
102
RTVSPropertyOp0
 70
     1
102
RTVSPropertyOp1
 70
     1
102
RTVSPropertyOp2
 70
     1
102
RTVSPropertyOp3
 70
     1
102
RTVSPropertyOp4
 70
     1
102
RTVSPropertyOp5
 70
     1
102
RTVSPropertyOp6
 70
     1
102
RTVSPropertyOp7
 70
     1
102
RTVSPropertyOp8
 70
     1
102
RTVSPropertyOp9
 70
     1
102
RTVSPropertyOp10
 70
     1
102
RTVSPropertyOp11
 70
     1
102
RTVSPropertyOp12
 70
     1
102
RTVSPropertyOp13
 70
     1
102
RTVSPropertyOp14
 70
     1
102
RTVSPropertyOp15
 70
     1
102
RTVSPropertyOp16
 70
     1
102
RTVSPropertyOp17
 70
     1
102
RTVSPropertyOp18
 70
     1
102
RTVSPropertyOp19
 70
     1
102
RTVSPropertyOp20
 70
     1
102
RTVSPropertyOp21
 70
     1
102
RTVSPropertyOp22
 70
     1
102
RTVSPropertyOp23
 70
     1
102
RTVSPropertyOp24
 70
     1
102
RTVSPropertyOp25
 70
     1
102
RTVSPropertyOp26
 70
     1
102
RTVSPropertyOp27
 70
     1
  0
XRECORD
  5
386
102
{ACAD_REACTORS
330
385
102
}
330
385
100
AcDbXrecord
280
     1
102
RTVSPropertyOp0
 70
     1
102
RTVSPropertyOp1
 70
     1
102
RTVSPropertyOp2
 70
     1
102
RTVSPropertyOp3
 70
     1
102
RTVSPropertyOp4
 70
     1
102
RTVSPropertyOp5
 70
     1
102
RTVSPropertyOp6
 70
     1
102
RTVSPropertyOp7
 70
     1
102
RTVSPropertyOp8
 70
     1
102
RTVSPropertyOp9
 70
     1
102
RTVSPropertyOp10
 70
     1
102
RTVSPropertyOp11
 70
     1
102
RTVSPropertyOp12
 70
     1
102
RTVSPropertyOp13
 70
     1
102
RTVSPropertyOp14
 70
     1
102
RTVSPropertyOp15
 70
     1
102
RTVSPropertyOp16
 70
     1
102
RTVSPropertyOp17
 70
     1
102
RTVSPropertyOp18
 70
     1
102
RTVSPropertyOp19
 70
     1
102
RTVSPropertyOp20
 70
     1
102
RTVSPropertyOp21
 70
     1
102
RTVSPropertyOp22
 70
     1
102
RTVSPropertyOp23
 70
     1
102
RTVSPropertyOp24
 70
     1
102
RTVSPropertyOp25
 70
     1
102
RTVSPropertyOp26
 70
     1
102
RTVSPropertyOp27
 70
     1
  0
XRECORD
  5
38E
102
{ACAD_REACTORS
330
38D
102
}
330
38D
100
AcDbXrecord
280
     1
102
RTVSPropertyOp0
 70
     1
102
RTVSPropertyOp1
 70
     1
102
RTVSPropertyOp2
 70
     1
102
RTVSPropertyOp3
 70
     1
102
RTVSPropertyOp4
 70
     1
102
RTVSPropertyOp5
 70
     1
102
RTVSPropertyOp6
 70
     1
102
RTVSPropertyOp7
 70
     1
102
RTVSPropertyOp8
 70
     1
102
RTVSPropertyOp9
 70
     1
102
RTVSPropertyOp10
 70
     1
102
RTVSPropertyOp11
 70
     1
102
RTVSPropertyOp12
 70
     1
102
RTVSPropertyOp13
 70
     1
102
RTVSPropertyOp14
 70
     1
102
RTVSPropertyOp15
 70
     1
102
RTVSPropertyOp16
 70
     1
102
RTVSPropertyOp17
 70
     1
102
RTVSPropertyOp18
 70
     1
102
RTVSPropertyOp19
 70
     1
102
RTVSPropertyOp20
 70
     1
102
RTVSPropertyOp21
 70
     1
102
RTVSPropertyOp22
 70
     1
102
RTVSPropertyOp23
 70
     1
102
RTVSPropertyOp24
 70
     1
102
RTVSPropertyOp25
 70
     1
102
RTVSPropertyOp26
 70
     1
102
RTVSPropertyOp27
 70
     1
  0
XRECORD
  5
396
102
{ACAD_REACTORS
330
395
102
}
330
395
100
AcDbXrecord
280
     1
102
RTVSPropertyOp0
 70
     1
102
RTVSPropertyOp1
 70
     1
102
RTVSPropertyOp2
 70
     1
102
RTVSPropertyOp3
 70
     1
102
RTVSPropertyOp4
 70
     1
102
RTVSPropertyOp5
 70
     1
102
RTVSPropertyOp6
 70
     1
102
RTVSPropertyOp7
 70
     1
102
RTVSPropertyOp8
 70
     1
102
RTVSPropertyOp9
 70
     1
102
RTVSPropertyOp10
 70
     1
102
RTVSPropertyOp11
 70
     1
102
RTVSPropertyOp12
 70
     1
102
RTVSPropertyOp13
 70
     1
102
RTVSPropertyOp14
 70
     1
102
RTVSPropertyOp15
 70
     1
102
RTVSPropertyOp16
 70
     1
102
RTVSPropertyOp17
 70
     1
102
RTVSPropertyOp18
 70
     1
102
RTVSPropertyOp19
 70
     1
102
RTVSPropertyOp20
 70
     1
102
RTVSPropertyOp21
 70
     1
102
RTVSPropertyOp22
 70
     1
102
RTVSPropertyOp23
 70
     1
102
RTVSPropertyOp24
 70
     1
102
RTVSPropertyOp25
 70
     1
102
RTVSPropertyOp26
 70
     1
102
RTVSPropertyOp27
 70
     1
  0
XRECORD
  5
38A
102
{ACAD_REACTORS
330
389
102
}
330
389
100
AcDbXrecord
280
     1
102
RTVSPropertyOp0
 70
     1
102
RTVSPropertyOp1
 70
     1
102
RTVSPropertyOp2
 70
     1
102
RTVSPropertyOp3
 70
     1
102
RTVSPropertyOp4
 70
     1
102
RTVSPropertyOp5
 70
     1
102
RTVSPropertyOp6
 70
     1
102
RTVSPropertyOp7
 70
     1
102
RTVSPropertyOp8
 70
     1
102
RTVSPropertyOp9
 70
     1
102
RTVSPropertyOp10
 70
     1
102
RTVSPropertyOp11
 70
     1
102
RTVSPropertyOp12
 70
     1
102
RTVSPropertyOp13
 70
     1
102
RTVSPropertyOp14
 70
     1
102
RTVSPropertyOp15
 70
     1
102
RTVSPropertyOp16
 70
     1
102
RTVSPropertyOp17
 70
     1
102
RTVSPropertyOp18
 70
     1
102
RTVSPropertyOp19
 70
     1
102
RTVSPropertyOp20
 70
     1
102
RTVSPropertyOp21
 70
     1
102
RTVSPropertyOp22
 70
     1
102
RTVSPropertyOp23
 70
     1
102
RTVSPropertyOp24
 70
     1
102
RTVSPropertyOp25
 70
     1
102
RTVSPropertyOp26
 70
     1
102
RTVSPropertyOp27
 70
     1
  0
XRECORD
  5
38C
102
{ACAD_REACTORS
330
38B
102
}
330
38B
100
AcDbXrecord
280
     1
102
RTVSPropertyOp0
 70
     1
102
RTVSPropertyOp1
 70
     1
102
RTVSPropertyOp2
 70
     1
102
RTVSPropertyOp3
 70
     1
102
RTVSPropertyOp4
 70
     1
102
RTVSPropertyOp5
 70
     1
102
RTVSPropertyOp6
 70
     1
102
RTVSPropertyOp7
 70
     1
102
RTVSPropertyOp8
 70
     1
102
RTVSPropertyOp9
 70
     1
102
RTVSPropertyOp10
 70
     1
102
RTVSPropertyOp11
 70
     1
102
RTVSPropertyOp12
 70
     1
102
RTVSPropertyOp13
 70
     1
102
RTVSPropertyOp14
 70
     1
102
RTVSPropertyOp15
 70
     1
102
RTVSPropertyOp16
 70
     1
102
RTVSPropertyOp17
 70
     1
102
RTVSPropertyOp18
 70
     1
102
RTVSPropertyOp19
 70
     1
102
RTVSPropertyOp20
 70
     1
102
RTVSPropertyOp21
 70
     1
102
RTVSPropertyOp22
 70
     1
102
RTVSPropertyOp23
 70
     1
102
RTVSPropertyOp24
 70
     1
102
RTVSPropertyOp25
 70
     1
102
RTVSPropertyOp26
 70
     1
102
RTVSPropertyOp27
 70
     1
  0
XRECORD
  5
394
102
{ACAD_REACTORS
330
393
102
}
330
393
100
AcDbXrecord
280
     1
102
RTVSPropertyOp0
 70
     1
102
RTVSPropertyOp1
 70
     1
102
RTVSPropertyOp2
 70
     1
102
RTVSPropertyOp3
 70
     1
102
RTVSPropertyOp4
 70
     1
102
RTVSPropertyOp5
 70
     1
102
RTVSPropertyOp6
 70
     1
102
RTVSPropertyOp7
 70
     1
102
RTVSPropertyOp8
 70
     1
102
RTVSPropertyOp9
 70
     1
102
RTVSPropertyOp10
 70
     1
102
RTVSPropertyOp11
 70
     1
102
RTVSPropertyOp12
 70
     1
102
RTVSPropertyOp13
 70
     1
102
RTVSPropertyOp14
 70
     1
102
RTVSPropertyOp15
 70
     1
102
RTVSPropertyOp16
 70
     1
102
RTVSPropertyOp17
 70
     1
102
RTVSPropertyOp18
 70
     1
102
RTVSPropertyOp19
 70
     1
102
RTVSPropertyOp20
 70
     1
102
RTVSPropertyOp21
 70
     1
102
RTVSPropertyOp22
 70
     1
102
RTVSPropertyOp23
 70
     1
102
RTVSPropertyOp24
 70
     1
102
RTVSPropertyOp25
 70
     1
102
RTVSPropertyOp26
 70
     1
102
RTVSPropertyOp27
 70
     1
  0
XRECORD
  5
378
102
{ACAD_REACTORS
330
377
102
}
330
377
100
AcDbXrecord
280
     1
102
RTVSPropertyOp0
 70
     1
102
RTVSPropertyOp1
 70
     1
102
RTVSPropertyOp2
 70
     1
102
RTVSPropertyOp3
 70
     1
102
RTVSPropertyOp4
 70
     1
102
RTVSPropertyOp5
 70
     1
102
RTVSPropertyOp6
 70
     1
102
RTVSPropertyOp7
 70
     1
102
RTVSPropertyOp8
 70
     1
102
RTVSPropertyOp9
 70
     1
102
RTVSPropertyOp10
 70
     1
102
RTVSPropertyOp11
 70
     1
102
RTVSPropertyOp12
 70
     1
102
RTVSPropertyOp13
 70
     1
102
RTVSPropertyOp14
 70
     1
102
RTVSPropertyOp15
 70
     1
102
RTVSPropertyOp16
 70
     1
102
RTVSPropertyOp17
 70
     1
102
RTVSPropertyOp18
 70
     1
102
RTVSPropertyOp19
 70
     1
102
RTVSPropertyOp20
 70
     1
102
RTVSPropertyOp21
 70
     1
102
RTVSPropertyOp22
 70
     1
102
RTVSPropertyOp23
 70
     1
102
RTVSPropertyOp24
 70
     1
102
RTVSPropertyOp25
 70
     1
102
RTVSPropertyOp26
 70
     1
102
RTVSPropertyOp27
 70
     1
  0
XRECORD
  5
37A
102
{ACAD_REACTORS
330
379
102
}
330
379
100
AcDbXrecord
280
     1
102
RTVSPropertyOp0
 70
     1
102
RTVSPropertyOp1
 70
     1
102
RTVSPropertyOp2
 70
     1
102
RTVSPropertyOp3
 70
     1
102
RTVSPropertyOp4
 70
     1
102
RTVSPropertyOp5
 70
     1
102
RTVSPropertyOp6
 70
     1
102
RTVSPropertyOp7
 70
     1
102
RTVSPropertyOp8
 70
     1
102
RTVSPropertyOp9
 70
     1
102
RTVSPropertyOp10
 70
     1
102
RTVSPropertyOp11
 70
     1
102
RTVSPropertyOp12
 70
     1
102
RTVSPropertyOp13
 70
     1
102
RTVSPropertyOp14
 70
     1
102
RTVSPropertyOp15
 70
     1
102
RTVSPropertyOp16
 70
     1
102
RTVSPropertyOp17
 70
     1
102
RTVSPropertyOp18
 70
     1
102
RTVSPropertyOp19
 70
     1
102
RTVSPropertyOp20
 70
     1
102
RTVSPropertyOp21
 70
     1
102
RTVSPropertyOp22
 70
     1
102
RTVSPropertyOp23
 70
     1
102
RTVSPropertyOp24
 70
     1
102
RTVSPropertyOp25
 70
     1
102
RTVSPropertyOp26
 70
     1
102
RTVSPropertyOp27
 70
     1
  0
XRECORD
  5
37C
102
{ACAD_REACTORS
330
37B
102
}
330
37B
100
AcDbXrecord
280
     1
102
RTVSPropertyOp0
 70
     1
102
RTVSPropertyOp1
 70
     1
102
RTVSPropertyOp2
 70
     1
102
RTVSPropertyOp3
 70
     1
102
RTVSPropertyOp4
 70
     1
102
RTVSPropertyOp5
 70
     1
102
RTVSPropertyOp6
 70
     1
102
RTVSPropertyOp7
 70
     1
102
RTVSPropertyOp8
 70
     1
102
RTVSPropertyOp9
 70
     1
102
RTVSPropertyOp10
 70
     1
102
RTVSPropertyOp11
 70
     1
102
RTVSPropertyOp12
 70
     1
102
RTVSPropertyOp13
 70
     1
102
RTVSPropertyOp14
 70
     1
102
RTVSPropertyOp15
 70
     1
102
RTVSPropertyOp16
 70
     1
102
RTVSPropertyOp17
 70
     1
102
RTVSPropertyOp18
 70
     1
102
RTVSPropertyOp19
 70
     1
102
RTVSPropertyOp20
 70
     1
102
RTVSPropertyOp21
 70
     1
102
RTVSPropertyOp22
 70
     1
102
RTVSPropertyOp23
 70
     1
102
RTVSPropertyOp24
 70
     1
102
RTVSPropertyOp25
 70
     1
102
RTVSPropertyOp26
 70
     1
102
RTVSPropertyOp27
 70
     1
  0
XRECORD
  5
37E
102
{ACAD_REACTORS
330
37D
102
}
330
37D
100
AcDbXrecord
280
     1
102
RTVSPropertyOp0
 70
     1
102
RTVSPropertyOp1
 70
     1
102
RTVSPropertyOp2
 70
     1
102
RTVSPropertyOp3
 70
     1
102
RTVSPropertyOp4
 70
     1
102
RTVSPropertyOp5
 70
     1
102
RTVSPropertyOp6
 70
     1
102
RTVSPropertyOp7
 70
     1
102
RTVSPropertyOp8
 70
     1
102
RTVSPropertyOp9
 70
     1
102
RTVSPropertyOp10
 70
     1
102
RTVSPropertyOp11
 70
     1
102
RTVSPropertyOp12
 70
     1
102
RTVSPropertyOp13
 70
     1
102
RTVSPropertyOp14
 70
     1
102
RTVSPropertyOp15
 70
     1
102
RTVSPropertyOp16
 70
     1
102
RTVSPropertyOp17
 70
     1
102
RTVSPropertyOp18
 70
     1
102
RTVSPropertyOp19
 70
     1
102
RTVSPropertyOp20
 70
     1
102
RTVSPropertyOp21
 70
     1
102
RTVSPropertyOp22
 70
     1
102
RTVSPropertyOp23
 70
     1
102
RTVSPropertyOp24
 70
     1
102
RTVSPropertyOp25
 70
     1
102
RTVSPropertyOp26
 70
     1
102
RTVSPropertyOp27
 70
     1
  0
XRECORD
  5
392
102
{ACAD_REACTORS
330
391
102
}
330
391
100
AcDbXrecord
280
     1
102
RTVSPropertyOp0
 70
     1
102
RTVSPropertyOp1
 70
     1
102
RTVSPropertyOp2
 70
     1
102
RTVSPropertyOp3
 70
     1
102
RTVSPropertyOp4
 70
     1
102
RTVSPropertyOp5
 70
     1
102
RTVSPropertyOp6
 70
     1
102
RTVSPropertyOp7
 70
     1
102
RTVSPropertyOp8
 70
     1
102
RTVSPropertyOp9
 70
     1
102
RTVSPropertyOp10
 70
     1
102
RTVSPropertyOp11
 70
     1
102
RTVSPropertyOp12
 70
     1
102
RTVSPropertyOp13
 70
     1
102
RTVSPropertyOp14
 70
     1
102
RTVSPropertyOp15
 70
     1
102
RTVSPropertyOp16
 70
     1
102
RTVSPropertyOp17
 70
     1
102
RTVSPropertyOp18
 70
     1
102
RTVSPropertyOp19
 70
     1
102
RTVSPropertyOp20
 70
     1
102
RTVSPropertyOp21
 70
     1
102
RTVSPropertyOp22
 70
     1
102
RTVSPropertyOp23
 70
     1
102
RTVSPropertyOp24
 70
     1
102
RTVSPropertyOp25
 70
     1
102
RTVSPropertyOp26
 70
     1
102
RTVSPropertyOp27
 70
     1
  0
XRECORD
  5
388
102
{ACAD_REACTORS
330
387
102
}
330
387
100
AcDbXrecord
280
     1
102
RTVSPropertyOp0
 70
     1
102
RTVSPropertyOp1
 70
     1
102
RTVSPropertyOp2
 70
     1
102
RTVSPropertyOp3
 70
     1
102
RTVSPropertyOp4
 70
     1
102
RTVSPropertyOp5
 70
     1
102
RTVSPropertyOp6
 70
     1
102
RTVSPropertyOp7
 70
     1
102
RTVSPropertyOp8
 70
     1
102
RTVSPropertyOp9
 70
     1
102
RTVSPropertyOp10
 70
     1
102
RTVSPropertyOp11
 70
     1
102
RTVSPropertyOp12
 70
     1
102
RTVSPropertyOp13
 70
     1
102
RTVSPropertyOp14
 70
     1
102
RTVSPropertyOp15
 70
     1
102
RTVSPropertyOp16
 70
     1
102
RTVSPropertyOp17
 70
     1
102
RTVSPropertyOp18
 70
     1
102
RTVSPropertyOp19
 70
     1
102
RTVSPropertyOp20
 70
     1
102
RTVSPropertyOp21
 70
     1
102
RTVSPropertyOp22
 70
     1
102
RTVSPropertyOp23
 70
     1
102
RTVSPropertyOp24
 70
     1
102
RTVSPropertyOp25
 70
     1
102
RTVSPropertyOp26
 70
     1
102
RTVSPropertyOp27
 70
     1
  0
XRECORD
  5
390
102
{ACAD_REACTORS
330
38F
102
}
330
38F
100
AcDbXrecord
280
     1
102
RTVSPropertyOp0
 70
     1
102
RTVSPropertyOp1
 70
     1
102
RTVSPropertyOp2
 70
     1
102
RTVSPropertyOp3
 70
     1
102
RTVSPropertyOp4
 70
     1
102
RTVSPropertyOp5
 70
     1
102
RTVSPropertyOp6
 70
     1
102
RTVSPropertyOp7
 70
     1
102
RTVSPropertyOp8
 70
     1
102
RTVSPropertyOp9
 70
     1
102
RTVSPropertyOp10
 70
     1
102
RTVSPropertyOp11
 70
     1
102
RTVSPropertyOp12
 70
     1
102
RTVSPropertyOp13
 70
     1
102
RTVSPropertyOp14
 70
     1
102
RTVSPropertyOp15
 70
     1
102
RTVSPropertyOp16
 70
     1
102
RTVSPropertyOp17
 70
     1
102
RTVSPropertyOp18
 70
     1
102
RTVSPropertyOp19
 70
     1
102
RTVSPropertyOp20
 70
     1
102
RTVSPropertyOp21
 70
     1
102
RTVSPropertyOp22
 70
     1
102
RTVSPropertyOp23
 70
     1
102
RTVSPropertyOp24
 70
     1
102
RTVSPropertyOp25
 70
     1
102
RTVSPropertyOp26
 70
     1
102
RTVSPropertyOp27
 70
     1
  0
ENDSEC
  0
EOF
