ISO-10303-21;
HEADER;
FILE_DESCRIPTION (( 'STEP AP203' ),
    '1' );
FILE_NAME ('52259012_C.STEP',
    '2024-02-22T23:33:52',
    ( '' ),
    ( '' ),
    'SwSTEP 2.0',
    'SolidWorks 2021',
    '' );
FILE_SCHEMA (( 'CONFIG_CONTROL_DESIGN' ));
ENDSEC;

DATA;
#1 = EDGE_CURVE ( 'NONE', #282, #98, #13, .T. ) ;
#2 = EDGE_CURVE ( 'NONE', #37, #382, #384, .T. ) ;
#3 = DIRECTION ( 'NONE',  ( -0.000000000000000000, -0.000000000000000000, 1.000000000000000000 ) ) ;
#4 = PRODUCT_DEFINITION ( 'UNKNOWN', '', #283, #119 ) ;
#5 = ORIENTED_EDGE ( 'NONE', *, *, #92, .F. ) ;
#6 = ORIENTED_EDGE ( 'NONE', *, *, #1, .T. ) ;
#7 = ORIENTED_EDGE ( 'NONE', *, *, #219, .F. ) ;
#8 = SECURITY_CLASSIFICATION ( '', '', #290 ) ;
#9 = LINE ( 'NONE', #137, #304 ) ;
#10 = DIRECTION ( 'NONE',  ( 0.7071067811865570096, 0.000000000000000000, 0.7071067811865380248 ) ) ;
#11 = PERSON_AND_ORGANIZATION ( #104, #205 ) ;
#12 = ORIENTED_EDGE ( 'NONE', *, *, #275, .T. ) ;
#13 = CIRCLE ( 'NONE', #395, 4.492499999999999716 ) ;
#14 = DATE_AND_TIME ( #293, #292 ) ;
#15 = DIRECTION ( 'NONE',  ( -1.000000000000000000, 0.000000000000000000, 0.000000000000000000 ) ) ;
#16 = APPROVAL ( #105, 'UNSPECIFIED' ) ;
#17 = CIRCLE ( 'NONE', #256, 4.492499999999999716 ) ;
#18 = EDGE_LOOP ( 'NONE', ( #226, #12, #243, #281 ) ) ;
#19 = LINE ( 'NONE', #370, #241 ) ;
#20 = EDGE_CURVE ( 'NONE', #223, #132, #263, .T. ) ;
#21 = CIRCLE ( 'NONE', #179, 4.349999999999999645 ) ;
#22 = DIRECTION ( 'NONE',  ( -0.000000000000000000, -0.000000000000000000, 1.000000000000000000 ) ) ;
#23 = FACE_OUTER_BOUND ( 'NONE', #49, .T. ) ;
#24 = DIRECTION ( 'NONE',  ( 1.000000000000000000, 0.000000000000000000, 0.000000000000000000 ) ) ;
#25 = AXIS2_PLACEMENT_3D ( 'NONE', #238, #118, #54 ) ;
#26 = FACE_OUTER_BOUND ( 'NONE', #18, .T. ) ;
#27 = MECHANICAL_CONTEXT ( 'NONE', #43, 'mechanical' ) ;
#28 = ORIENTED_EDGE ( 'NONE', *, *, #76, .F. ) ;
#29 = ADVANCED_FACE ( 'NONE', ( #316 ), #286, .T. ) ;
#30 = ORIENTED_EDGE ( 'NONE', *, *, #220, .T. ) ;
#31 = DIRECTION ( 'NONE',  ( -0.000000000000000000, -0.000000000000000000, 1.000000000000000000 ) ) ;
#32 = EDGE_LOOP ( 'NONE', ( #375, #159 ) ) ;
#33 = CYLINDRICAL_SURFACE ( 'NONE', #216, 4.349999999999999645 ) ;
#34 = ORIENTED_EDGE ( 'NONE', *, *, #261, .F. ) ;
#35 = APPROVAL_ROLE ( '' ) ;
#36 = ORIENTED_EDGE ( 'NONE', *, *, #149, .F. ) ;
#37 = VERTEX_POINT ( 'NONE', #388 ) ;
#38 = VECTOR ( 'NONE', #10, 1000.000000000000000 ) ;
#39 = COORDINATED_UNIVERSAL_TIME_OFFSET ( 9, 0, .AHEAD. ) ;
#40 = DIRECTION ( 'NONE',  ( -0.000000000000000000, -0.000000000000000000, 1.000000000000000000 ) ) ;
#41 = SHAPE_DEFINITION_REPRESENTATION ( #330, #75 ) ;
#42 = DIRECTION ( 'NONE',  ( -0.000000000000000000, -0.000000000000000000, 1.000000000000000000 ) ) ;
#43 = APPLICATION_CONTEXT ( 'configuration controlled 3d designs of mechanical parts and assemblies' ) ;
#44 = DATE_AND_TIME ( #385, #303 ) ;
#45 = ADVANCED_FACE ( 'NONE', ( #113 ), #273, .T. ) ;
#46 = DIRECTION ( 'NONE',  ( 1.000000000000000000, 0.000000000000000000, 0.000000000000000000 ) ) ;
#47 = CC_DESIGN_SECURITY_CLASSIFICATION ( #8, ( #283 ) ) ;
#48 = VECTOR ( 'NONE', #228, 1000.000000000000000 ) ;
#49 = EDGE_LOOP ( 'NONE', ( #310, #255 ) ) ;
#50 = CARTESIAN_POINT ( 'NONE',  ( 0.000000000000000000, 0.000000000000000000, 1.300590449943975990 ) ) ;
#51 = DIRECTION ( 'NONE',  ( 0.000000000000000000, -0.000000000000000000, 1.000000000000000000 ) ) ;
#52 = FACE_OUTER_BOUND ( 'NONE', #96, .T. ) ;
#53 = DIRECTION ( 'NONE',  ( -0.000000000000000000, -0.000000000000000000, 1.000000000000000000 ) ) ;
#54 = DIRECTION ( 'NONE',  ( 1.000000000000000000, 0.000000000000000000, 0.000000000000000000 ) ) ;
#55 = AXIS2_PLACEMENT_3D ( 'NONE', #193, #279, #187 ) ;
#56 = APPROVAL_PERSON_ORGANIZATION ( #168, #16, #71 ) ;
#57 = DIRECTION ( 'NONE',  ( 1.000000000000000000, 0.000000000000000000, 0.000000000000000000 ) ) ;
#58 = ORIENTED_EDGE ( 'NONE', *, *, #59, .T. ) ;
#59 = EDGE_CURVE ( 'NONE', #98, #278, #9, .T. ) ;
#60 = ADVANCED_FACE ( 'NONE', ( #359 ), #326, .T. ) ;
#61 = CARTESIAN_POINT ( 'NONE',  ( 0.000000000000000000, 0.000000000000000000, -88.90000000000000568 ) ) ;
#62 = ORIENTED_EDGE ( 'NONE', *, *, #366, .T. ) ;
#63 = LINE ( 'NONE', #214, #235 ) ;
#64 = ORIENTED_EDGE ( 'NONE', *, *, #189, .T. ) ;
#65 = CARTESIAN_POINT ( 'NONE',  ( 0.000000000000000000, 0.000000000000000000, -33.68765371804360598 ) ) ;
#66 = ORIENTED_EDGE ( 'NONE', *, *, #351, .F. ) ;
#67 = DIRECTION ( 'NONE',  ( 1.000000000000000000, 0.000000000000000000, 0.000000000000000000 ) ) ;
#68 = ORIENTED_EDGE ( 'NONE', *, *, #220, .F. ) ;
#69 = PERSON_AND_ORGANIZATION_ROLE ( 'creator' ) ;
#70 = EDGE_LOOP ( 'NONE', ( #312, #188, #350, #36 ) ) ;
#71 = APPROVAL_ROLE ( '' ) ;
#72 = CONICAL_SURFACE ( 'NONE', #297, 3.762500000000000178, 0.7853981633974617127 ) ;
#73 = DIRECTION ( 'NONE',  ( -0.000000000000000000, -0.000000000000000000, 1.000000000000000000 ) ) ;
#74 = VECTOR ( 'NONE', #82, 1000.000000000000000 ) ;
#75 = ADVANCED_BREP_SHAPE_REPRESENTATION ( '52259012_C', ( #357, #153 ), #272 ) ;
#76 = EDGE_CURVE ( 'NONE', #382, #136, #361, .T. ) ;
#77 = EDGE_CURVE ( 'NONE', #127, #215, #207, .T. ) ;
#78 = CARTESIAN_POINT ( 'NONE',  ( 4.349999999999999645, 0.000000000000000000, 0.000000000000000000 ) ) ;
#79 = EDGE_CURVE ( 'NONE', #37, #127, #206, .T. ) ;
#80 = ORIENTED_EDGE ( 'NONE', *, *, #244, .T. ) ;
#81 = PERSON_AND_ORGANIZATION ( #104, #205 ) ;
#82 = DIRECTION ( 'NONE',  ( -0.000000000000000000, -0.000000000000000000, 1.000000000000000000 ) ) ;
#83 = AXIS2_PLACEMENT_3D ( 'NONE', #97, #402, #221 ) ;
#84 = AXIS2_PLACEMENT_3D ( 'NONE', #212, #117, #364 ) ;
#85 = FACE_BOUND ( 'NONE', #32, .T. ) ;
#86 = CARTESIAN_POINT ( 'NONE',  ( -4.349999999999999645, 5.327213576290986242E-16, -29.30999999999999872 ) ) ;
#87 = PLANE ( 'NONE',  #172 ) ;
#88 = LINE ( 'NONE', #183, #267 ) ;
#89 = CC_DESIGN_PERSON_AND_ORGANIZATION_ASSIGNMENT ( #387, #108, ( #8 ) ) ;
#90 = CARTESIAN_POINT ( 'NONE',  ( 0.000000000000000000, 0.000000000000000000, 1.300590449943975990 ) ) ;
#91 = DIRECTION ( 'NONE',  ( -0.000000000000000000, -0.000000000000000000, 1.000000000000000000 ) ) ;
#92 = EDGE_CURVE ( 'NONE', #127, #37, #116, .T. ) ;
#93 = DIRECTION ( 'NONE',  ( 1.000000000000000000, 0.000000000000000000, 0.000000000000000000 ) ) ;
#94 = ORIENTED_EDGE ( 'NONE', *, *, #20, .F. ) ;
#95 = CARTESIAN_POINT ( 'NONE',  ( -4.762500000000000178, 5.832380380939270108E-16, -87.90000000000003411 ) ) ;
#96 = EDGE_LOOP ( 'NONE', ( #163, #103, #372, #94 ) ) ;
#97 = CARTESIAN_POINT ( 'NONE',  ( 0.000000000000000000, 0.000000000000000000, 0.000000000000000000 ) ) ;
#98 = VERTEX_POINT ( 'NONE', #199 ) ;
#99 = FACE_OUTER_BOUND ( 'NONE', #314, .T. ) ;
#100 = AXIS2_PLACEMENT_3D ( 'NONE', #390, #42, #106 ) ;
#101 = ORIENTED_EDGE ( 'NONE', *, *, #2, .T. ) ;
#102 = AXIS2_PLACEMENT_3D ( 'NONE', #294, #269, #367 ) ;
#103 = ORIENTED_EDGE ( 'NONE', *, *, #192, .T. ) ;
#104 = PERSON ( 'UNSPECIFIED', 'UNSPECIFIED', 'UNSPECIFIED', ('UNSPECIFIED'), ('UNSPECIFIED'), ('UNSPECIFIED') ) ;
#105 = APPROVAL_STATUS ( 'not_yet_approved' ) ;
#106 = DIRECTION ( 'NONE',  ( 1.000000000000000000, 0.000000000000000000, 0.000000000000000000 ) ) ;
#107 = EDGE_CURVE ( 'NONE', #223, #142, #21, .T. ) ;
#108 = PERSON_AND_ORGANIZATION_ROLE ( 'classification_officer' ) ;
#109 = DIRECTION ( 'NONE',  ( -0.000000000000000000, -0.000000000000000000, 1.000000000000000000 ) ) ;
#110 = PERSON_AND_ORGANIZATION ( #104, #205 ) ;
#111 = ORIENTED_EDGE ( 'NONE', *, *, #79, .T. ) ;
#112 = DATE_AND_TIME ( #262, #122 ) ;
#113 = FACE_OUTER_BOUND ( 'NONE', #295, .T. ) ;
#114 = DIRECTION ( 'NONE',  ( -0.000000000000000000, -0.000000000000000000, 1.000000000000000000 ) ) ;
#115 = LOCAL_TIME ( 8, 33, 52.00000000000000000, #227 ) ;
#116 = CIRCLE ( 'NONE', #317, 3.762500000000000178 ) ;
#117 = DIRECTION ( 'NONE',  ( 0.000000000000000000, 0.000000000000000000, -1.000000000000000000 ) ) ;
#118 = DIRECTION ( 'NONE',  ( -0.000000000000000000, -0.000000000000000000, 1.000000000000000000 ) ) ;
#119 = DESIGN_CONTEXT ( 'detailed design', #164, 'design' ) ;
#120 = LINE ( 'NONE', #331, #306 ) ;
#121 = PRODUCT_RELATED_PRODUCT_CATEGORY ( 'detail', '', ( #399 ) ) ;
#122 = LOCAL_TIME ( 8, 33, 52.00000000000000000, #200 ) ;
#123 = CARTESIAN_POINT ( 'NONE',  ( 0.000000000000000000, 0.000000000000000000, -33.68765371804360598 ) ) ;
#124 = AXIS2_PLACEMENT_3D ( 'NONE', #90, #114, #145 ) ;
#125 = CARTESIAN_POINT ( 'NONE',  ( 4.492499999999999716, 0.000000000000000000, -29.30999999999999872 ) ) ;
#126 = CARTESIAN_POINT ( 'NONE',  ( 0.000000000000000000, 0.000000000000000000, 1.300590449943975990 ) ) ;
#127 = VERTEX_POINT ( 'NONE', #167 ) ;
#128 = CONICAL_SURFACE ( 'NONE', #84, 4.762500000000000178, 0.5235987755982879355 ) ;
#129 = ORIENTED_EDGE ( 'NONE', *, *, #77, .T. ) ;
#130 = ORIENTED_EDGE ( 'NONE', *, *, #397, .F. ) ;
#131 = DIRECTION ( 'NONE',  ( -0.000000000000000000, -0.000000000000000000, 1.000000000000000000 ) ) ;
#132 = VERTEX_POINT ( 'NONE', #78 ) ;
#133 = APPROVAL_PERSON_ORGANIZATION ( #349, #180, #170 ) ;
#134 = COORDINATED_UNIVERSAL_TIME_OFFSET ( 9, 0, .AHEAD. ) ;
#135 = AXIS2_PLACEMENT_3D ( 'NONE', #335, #334, #177 ) ;
#136 = VERTEX_POINT ( 'NONE', #201 ) ;
#137 = CARTESIAN_POINT ( 'NONE',  ( -4.492499999999999716, 5.501725745169483749E-16, 1.300590449943975990 ) ) ;
#138 = ADVANCED_FACE ( 'NONE', ( #169 ), #128, .T. ) ;
#139 = DIRECTION ( 'NONE',  ( 1.000000000000000000, 0.000000000000000000, 0.000000000000000000 ) ) ;
#140 = COORDINATED_UNIVERSAL_TIME_OFFSET ( 9, 0, .AHEAD. ) ;
#141 = AXIS2_PLACEMENT_3D ( 'NONE', #123, #22, #270 ) ;
#142 = VERTEX_POINT ( 'NONE', #86 ) ;
#143 = DIRECTION ( 'NONE',  ( -0.7071067811865570096, 8.659560562355048722E-17, 0.7071067811865380248 ) ) ;
#144 = PLANE ( 'NONE',  #155 ) ;
#145 = DIRECTION ( 'NONE',  ( 1.000000000000000000, 0.000000000000000000, 0.000000000000000000 ) ) ;
#146 = CLOSED_SHELL ( 'NONE', ( #45, #176, #138, #150, #246, #178, #332, #148, #288, #60, #29, #320, #260 ) ) ;
#147 = DIRECTION ( 'NONE',  ( 1.000000000000000000, 0.000000000000000000, 0.000000000000000000 ) ) ;
#148 = ADVANCED_FACE ( 'NONE', ( #85, #23 ), #393, .F. ) ;
#149 = EDGE_CURVE ( 'NONE', #215, #343, #88, .T. ) ;
#150 = ADVANCED_FACE ( 'NONE', ( #298 ), #296, .T. ) ;
#151 = CARTESIAN_POINT ( 'NONE',  ( -4.349999999999999645, 5.327213576290986242E-16, 0.000000000000000000 ) ) ;
#152 = CARTESIAN_POINT ( 'NONE',  ( -4.349999999999999645, 5.327213576290986242E-16, 1.300590449943975990 ) ) ;
#153 = AXIS2_PLACEMENT_3D ( 'NONE', #336, #305, #338 ) ;
#154 = VECTOR ( 'NONE', #143, 1000.000000000000000 ) ;
#155 = AXIS2_PLACEMENT_3D ( 'NONE', #268, #51, #147 ) ;
#156 = CYLINDRICAL_SURFACE ( 'NONE', #373, 4.492499999999999716 ) ;
#157 = EDGE_LOOP ( 'NONE', ( #5, #280 ) ) ;
#158 = PERSON_AND_ORGANIZATION ( #104, #205 ) ;
#159 = ORIENTED_EDGE ( 'NONE', *, *, #275, .F. ) ;
#160 = ORIENTED_EDGE ( 'NONE', *, *, #1, .F. ) ;
#161 = FACE_OUTER_BOUND ( 'NONE', #248, .T. ) ;
#162 = CC_DESIGN_PERSON_AND_ORGANIZATION_ASSIGNMENT ( #158, #277, ( #399 ) ) ;
#163 = ORIENTED_EDGE ( 'NONE', *, *, #107, .T. ) ;
#164 = APPLICATION_CONTEXT ( 'configuration controlled 3d designs of mechanical parts and assemblies' ) ;
#165 = CIRCLE ( 'NONE', #315, 4.349999999999999645 ) ;
#166 = CARTESIAN_POINT ( 'NONE',  ( -3.762500000000000178, 4.607733581791916655E-16, -88.90000000000000568 ) ) ;
#167 = CARTESIAN_POINT ( 'NONE',  ( 3.762500000000000178, 0.000000000000000000, -88.90000000000000568 ) ) ;
#168 = PERSON_AND_ORGANIZATION ( #104, #205 ) ;
#169 = FACE_OUTER_BOUND ( 'NONE', #218, .T. ) ;
#170 = APPROVAL_ROLE ( '' ) ;
#171 = CIRCLE ( 'NONE', #83, 4.349999999999999645 ) ;
#172 = AXIS2_PLACEMENT_3D ( 'NONE', #236, #208, #266 ) ;
#173 = DIRECTION ( 'NONE',  ( 0.000000000000000000, 0.000000000000000000, -1.000000000000000000 ) ) ;
#174 = CARTESIAN_POINT ( 'NONE',  ( 0.000000000000000000, 0.000000000000000000, -33.21999999999999886 ) ) ;
#175 = DIRECTION ( 'NONE',  ( -0.000000000000000000, -0.000000000000000000, 1.000000000000000000 ) ) ;
#176 = ADVANCED_FACE ( 'NONE', ( #400 ), #182, .T. ) ;
#177 = DIRECTION ( 'NONE',  ( -1.000000000000000000, 0.000000000000000000, -0.000000000000000000 ) ) ;
#178 = ADVANCED_FACE ( 'NONE', ( #396 ), #87, .F. ) ;
#179 = AXIS2_PLACEMENT_3D ( 'NONE', #321, #40, #356 ) ;
#180 = APPROVAL ( #360, 'UNSPECIFIED' ) ;
#181 = LINE ( 'NONE', #152, #374 ) ;
#182 = CYLINDRICAL_SURFACE ( 'NONE', #253, 4.762500000000000178 ) ;
#183 = CARTESIAN_POINT ( 'NONE',  ( 4.762500000000000178, 0.000000000000000000, 1.300590449943975990 ) ) ;
#184 = CC_DESIGN_APPROVAL ( #180, ( #283 ) ) ;
#185 = AXIS2_PLACEMENT_3D ( 'NONE', #301, #240, #24 ) ;
#186 =( NAMED_UNIT ( * ) PLANE_ANGLE_UNIT ( ) SI_UNIT ( $, .RADIAN. ) );
#187 = DIRECTION ( 'NONE',  ( 1.000000000000000000, 0.000000000000000000, 0.000000000000000000 ) ) ;
#188 = ORIENTED_EDGE ( 'NONE', *, *, #76, .T. ) ;
#189 = EDGE_CURVE ( 'NONE', #132, #195, #363, .T. ) ;
#190 = EDGE_CURVE ( 'NONE', #278, #377, #245, .T. ) ;
#191 = ORIENTED_EDGE ( 'NONE', *, *, #261, .T. ) ;
#192 = EDGE_CURVE ( 'NONE', #142, #195, #181, .T. ) ;
#193 = CARTESIAN_POINT ( 'NONE',  ( 0.000000000000000000, 0.000000000000000000, -87.90000000000003411 ) ) ;
#194 = ORIENTED_EDGE ( 'NONE', *, *, #59, .F. ) ;
#195 = VERTEX_POINT ( 'NONE', #151 ) ;
#196 = ORIENTED_EDGE ( 'NONE', *, *, #190, .F. ) ;
#197 = CIRCLE ( 'NONE', #392, 4.762500000000000178 ) ;
#198 = AXIS2_PLACEMENT_3D ( 'NONE', #327, #258, #139 ) ;
#199 = CARTESIAN_POINT ( 'NONE',  ( -4.492499999999999716, 5.501725745169483749E-16, -33.21999999999999886 ) ) ;
#200 = COORDINATED_UNIVERSAL_TIME_OFFSET ( 9, 0, .AHEAD. ) ;
#201 = CARTESIAN_POINT ( 'NONE',  ( -4.762500000000000178, 0.000000000000000000, -33.68765371804360598 ) ) ;
#202 = DATE_TIME_ROLE ( 'creation_date' ) ;
#203 = CARTESIAN_POINT ( 'NONE',  ( 0.000000000000000000, 0.000000000000000000, -33.68765371804360598 ) ) ;
#204 = CIRCLE ( 'NONE', #55, 4.762500000000000178 ) ;
#205 = ORGANIZATION ( 'UNSPECIFIED', 'UNSPECIFIED', '' ) ;
#206 = CIRCLE ( 'NONE', #198, 3.762500000000000178 ) ;
#207 = LINE ( 'NONE', #391, #38 ) ;
#208 = DIRECTION ( 'NONE',  ( 0.000000000000000000, 0.000000000000000000, -1.000000000000000000 ) ) ;
#209 = EDGE_CURVE ( 'NONE', #343, #136, #405, .T. ) ;
#210 = CARTESIAN_POINT ( 'NONE',  ( 4.762500000000000178, 0.000000000000000000, -87.90000000000003411 ) ) ;
#211 = DIRECTION ( 'NONE',  ( 1.000000000000000000, 0.000000000000000000, 0.000000000000000000 ) ) ;
#212 = CARTESIAN_POINT ( 'NONE',  ( 0.000000000000000000, 0.000000000000000000, -33.68765371804360598 ) ) ;
#213 = FACE_OUTER_BOUND ( 'NONE', #157, .T. ) ;
#214 = CARTESIAN_POINT ( 'NONE',  ( 4.492499999999999716, 0.000000000000000000, 1.300590449943975990 ) ) ;
#215 = VERTEX_POINT ( 'NONE', #210 ) ;
#216 = AXIS2_PLACEMENT_3D ( 'NONE', #242, #3, #404 ) ;
#217 = DIRECTION ( 'NONE',  ( -0.000000000000000000, -0.000000000000000000, 1.000000000000000000 ) ) ;
#218 = EDGE_LOOP ( 'NONE', ( #160, #30, #379, #337 ) ) ;
#219 = EDGE_CURVE ( 'NONE', #377, #278, #17, .T. ) ;
#220 = EDGE_CURVE ( 'NONE', #282, #343, #120, .T. ) ;
#221 = DIRECTION ( 'NONE',  ( 1.000000000000000000, 0.000000000000000000, 0.000000000000000000 ) ) ;
#222 = ORIENTED_EDGE ( 'NONE', *, *, #289, .F. ) ;
#223 = VERTEX_POINT ( 'NONE', #401 ) ;
#224 = CC_DESIGN_APPROVAL ( #16, ( #8 ) ) ;
#225 = CARTESIAN_POINT ( 'NONE',  ( -4.492499999999999716, 5.501725745169483749E-16, -29.30999999999999872 ) ) ;
#226 = ORIENTED_EDGE ( 'NONE', *, *, #192, .F. ) ;
#227 = COORDINATED_UNIVERSAL_TIME_OFFSET ( 9, 0, .AHEAD. ) ;
#228 = DIRECTION ( 'NONE',  ( -0.000000000000000000, -0.000000000000000000, 1.000000000000000000 ) ) ;
#229 = EDGE_LOOP ( 'NONE', ( #28, #339, #276, #222 ) ) ;
#230 = CARTESIAN_POINT ( 'NONE',  ( 0.000000000000000000, 0.000000000000000000, -88.90000000000000568 ) ) ;
#231 = PERSON_AND_ORGANIZATION_ROLE ( 'creator' ) ;
#232 = ORIENTED_EDGE ( 'NONE', *, *, #397, .T. ) ;
#233 = APPROVAL ( #355, 'UNSPECIFIED' ) ;
#234 = CARTESIAN_POINT ( 'NONE',  ( 0.000000000000000000, 0.000000000000000000, 1.300590449943975990 ) ) ;
#235 = VECTOR ( 'NONE', #217, 1000.000000000000000 ) ;
#236 = CARTESIAN_POINT ( 'NONE',  ( 0.000000000000000000, 0.000000000000000000, 0.000000000000000000 ) ) ;
#237 = DIRECTION ( 'NONE',  ( 1.000000000000000000, 0.000000000000000000, 0.000000000000000000 ) ) ;
#238 = CARTESIAN_POINT ( 'NONE',  ( 0.000000000000000000, 0.000000000000000000, 1.300590449943975990 ) ) ;
#239 = DIRECTION ( 'NONE',  ( -0.000000000000000000, -0.000000000000000000, 1.000000000000000000 ) ) ;
#240 = DIRECTION ( 'NONE',  ( -0.000000000000000000, -0.000000000000000000, 1.000000000000000000 ) ) ;
#241 = VECTOR ( 'NONE', #398, 1000.000000000000000 ) ;
#242 = CARTESIAN_POINT ( 'NONE',  ( 0.000000000000000000, 0.000000000000000000, 1.300590449943975990 ) ) ;
#243 = ORIENTED_EDGE ( 'NONE', *, *, #20, .T. ) ;
#244 = EDGE_CURVE ( 'NONE', #98, #136, #19, .T. ) ;
#245 = CIRCLE ( 'NONE', #185, 4.492499999999999716 ) ;
#246 = ADVANCED_FACE ( 'NONE', ( #52 ), #329, .T. ) ;
#247 = APPLICATION_PROTOCOL_DEFINITION ( 'international standard', 'config_control_design', 1994, #164 ) ;
#248 = EDGE_LOOP ( 'NONE', ( #251, #111, #129, #66 ) ) ;
#249 = ORIENTED_EDGE ( 'NONE', *, *, #77, .F. ) ;
#250 = DIRECTION ( 'NONE',  ( -0.000000000000000000, -0.000000000000000000, 1.000000000000000000 ) ) ;
#251 = ORIENTED_EDGE ( 'NONE', *, *, #2, .F. ) ;
#252 = CC_DESIGN_APPROVAL ( #233, ( #4 ) ) ;
#253 = AXIS2_PLACEMENT_3D ( 'NONE', #50, #53, #237 ) ;
#254 = CALENDAR_DATE ( 2024, 23, 2 ) ;
#255 = ORIENTED_EDGE ( 'NONE', *, *, #190, .T. ) ;
#256 = AXIS2_PLACEMENT_3D ( 'NONE', #302, #328, #271 ) ;
#257 = DATE_AND_TIME ( #254, #362 ) ;
#258 = DIRECTION ( 'NONE',  ( -0.000000000000000000, -0.000000000000000000, 1.000000000000000000 ) ) ;
#259 = DIRECTION ( 'NONE',  ( -0.000000000000000000, -0.000000000000000000, 1.000000000000000000 ) ) ;
#260 = ADVANCED_FACE ( 'NONE', ( #213 ), #144, .F. ) ;
#261 = EDGE_CURVE ( 'NONE', #98, #282, #348, .T. ) ;
#262 = CALENDAR_DATE ( 2024, 23, 2 ) ;
#263 = LINE ( 'NONE', #325, #48 ) ;
#264 = CC_DESIGN_DATE_AND_TIME_ASSIGNMENT ( #112, #313, ( #8 ) ) ;
#265 = DIRECTION ( 'NONE',  ( -0.000000000000000000, -0.000000000000000000, 1.000000000000000000 ) ) ;
#266 = DIRECTION ( 'NONE',  ( -1.000000000000000000, 0.000000000000000000, -0.000000000000000000 ) ) ;
#267 = VECTOR ( 'NONE', #239, 1000.000000000000000 ) ;
#268 = CARTESIAN_POINT ( 'NONE',  ( 0.000000000000000000, 3.762500000000000178, -88.90000000000000568 ) ) ;
#269 = DIRECTION ( 'NONE',  ( -0.000000000000000000, -0.000000000000000000, 1.000000000000000000 ) ) ;
#270 = DIRECTION ( 'NONE',  ( 1.000000000000000000, 0.000000000000000000, 0.000000000000000000 ) ) ;
#271 = DIRECTION ( 'NONE',  ( 1.000000000000000000, 0.000000000000000000, 0.000000000000000000 ) ) ;
#272 =( GEOMETRIC_REPRESENTATION_CONTEXT ( 3 ) GLOBAL_UNCERTAINTY_ASSIGNED_CONTEXT ( ( #368 ) ) GLOBAL_UNIT_ASSIGNED_CONTEXT ( ( #307, #186, #378 ) ) REPRESENTATION_CONTEXT ( 'NONE', 'WORKASPACE' ) );
#273 = CONICAL_SURFACE ( 'NONE', #100, 3.762500000000000178, 0.7853981633974617127 ) ;
#274 = CARTESIAN_POINT ( 'NONE',  ( 4.762500000000000178, 5.832380380939270108E-16, -33.68765371804360598 ) ) ;
#275 = EDGE_CURVE ( 'NONE', #142, #223, #165, .T. ) ;
#276 = ORIENTED_EDGE ( 'NONE', *, *, #149, .T. ) ;
#277 = PERSON_AND_ORGANIZATION_ROLE ( 'design_owner' ) ;
#278 = VERTEX_POINT ( 'NONE', #225 ) ;
#279 = DIRECTION ( 'NONE',  ( -0.000000000000000000, -0.000000000000000000, 1.000000000000000000 ) ) ;
#280 = ORIENTED_EDGE ( 'NONE', *, *, #79, .F. ) ;
#281 = ORIENTED_EDGE ( 'NONE', *, *, #366, .F. ) ;
#282 = VERTEX_POINT ( 'NONE', #340 ) ;
#283 = PRODUCT_DEFINITION_FORMATION_WITH_SPECIFIED_SOURCE ( 'ANY', '', #399, .NOT_KNOWN. ) ;
#284 = AXIS2_PLACEMENT_3D ( 'NONE', #365, #299, #211 ) ;
#285 = APPROVAL_DATE_TIME ( #324, #233 ) ;
#286 = CYLINDRICAL_SURFACE ( 'NONE', #354, 4.762500000000000178 ) ;
#287 = EDGE_LOOP ( 'NONE', ( #68, #34, #80, #403 ) ) ;
#288 = ADVANCED_FACE ( 'NONE', ( #99 ), #156, .T. ) ;
#289 = EDGE_CURVE ( 'NONE', #136, #343, #197, .T. ) ;
#290 = SECURITY_CLASSIFICATION_LEVEL ( 'unclassified' ) ;
#291 = DIRECTION ( 'NONE',  ( 1.000000000000000000, 0.000000000000000000, 0.000000000000000000 ) ) ;
#292 = LOCAL_TIME ( 8, 33, 52.00000000000000000, #134 ) ;
#293 = CALENDAR_DATE ( 2024, 23, 2 ) ;
#294 = CARTESIAN_POINT ( 'NONE',  ( 0.000000000000000000, 0.000000000000000000, -33.21999999999999886 ) ) ;
#295 = EDGE_LOOP ( 'NONE', ( #347, #101, #308, #249 ) ) ;
#296 = CYLINDRICAL_SURFACE ( 'NONE', #25, 4.492499999999999716 ) ;
#297 = AXIS2_PLACEMENT_3D ( 'NONE', #61, #91, #67 ) ;
#298 = FACE_OUTER_BOUND ( 'NONE', #323, .T. ) ;
#299 = DIRECTION ( 'NONE',  ( -0.000000000000000000, -0.000000000000000000, 1.000000000000000000 ) ) ;
#300 = CC_DESIGN_PERSON_AND_ORGANIZATION_ASSIGNMENT ( #322, #69, ( #4 ) ) ;
#301 = CARTESIAN_POINT ( 'NONE',  ( 0.000000000000000000, 0.000000000000000000, -29.30999999999999872 ) ) ;
#302 = CARTESIAN_POINT ( 'NONE',  ( 0.000000000000000000, 0.000000000000000000, -29.30999999999999872 ) ) ;
#303 = LOCAL_TIME ( 8, 33, 52.00000000000000000, #140 ) ;
#304 = VECTOR ( 'NONE', #259, 1000.000000000000000 ) ;
#305 = DIRECTION ( 'NONE',  ( 0.000000000000000000, 0.000000000000000000, 1.000000000000000000 ) ) ;
#306 = VECTOR ( 'NONE', #369, 1000.000000000000000 ) ;
#307 =( LENGTH_UNIT ( ) NAMED_UNIT ( * ) SI_UNIT ( .MILLI., .METRE. ) );
#308 = ORIENTED_EDGE ( 'NONE', *, *, #318, .F. ) ;
#309 = DIRECTION ( 'NONE',  ( 1.000000000000000000, 0.000000000000000000, 0.000000000000000000 ) ) ;
#310 = ORIENTED_EDGE ( 'NONE', *, *, #219, .T. ) ;
#311 = APPLICATION_PROTOCOL_DEFINITION ( 'international standard', 'config_control_design', 1994, #43 ) ;
#312 = ORIENTED_EDGE ( 'NONE', *, *, #318, .T. ) ;
#313 = DATE_TIME_ROLE ( 'classification_date' ) ;
#314 = EDGE_LOOP ( 'NONE', ( #194, #191, #232, #196 ) ) ;
#315 = AXIS2_PLACEMENT_3D ( 'NONE', #371, #342, #309 ) ;
#316 = FACE_OUTER_BOUND ( 'NONE', #229, .T. ) ;
#317 = AXIS2_PLACEMENT_3D ( 'NONE', #230, #73, #386 ) ;
#318 = EDGE_CURVE ( 'NONE', #215, #382, #204, .T. ) ;
#319 = CALENDAR_DATE ( 2024, 23, 2 ) ;
#320 = ADVANCED_FACE ( 'NONE', ( #161 ), #72, .T. ) ;
#321 = CARTESIAN_POINT ( 'NONE',  ( 0.000000000000000000, 0.000000000000000000, -29.30999999999999872 ) ) ;
#322 = PERSON_AND_ORGANIZATION ( #104, #205 ) ;
#323 = EDGE_LOOP ( 'NONE', ( #6, #58, #7, #130 ) ) ;
#324 = DATE_AND_TIME ( #319, #115 ) ;
#325 = CARTESIAN_POINT ( 'NONE',  ( 4.349999999999999645, 0.000000000000000000, 1.300590449943975990 ) ) ;
#326 = CONICAL_SURFACE ( 'NONE', #345, 4.762500000000000178, 0.5235987755982879355 ) ;
#327 = CARTESIAN_POINT ( 'NONE',  ( 0.000000000000000000, 0.000000000000000000, -88.90000000000000568 ) ) ;
#328 = DIRECTION ( 'NONE',  ( -0.000000000000000000, -0.000000000000000000, 1.000000000000000000 ) ) ;
#329 = CYLINDRICAL_SURFACE ( 'NONE', #124, 4.349999999999999645 ) ;
#330 = PRODUCT_DEFINITION_SHAPE ( 'NONE', 'NONE',  #4 ) ;
#331 = CARTESIAN_POINT ( 'NONE',  ( 4.762500000000000178, 5.832380380939270108E-16, -33.68765371804360598 ) ) ;
#332 = ADVANCED_FACE ( 'NONE', ( #26 ), #33, .T. ) ;
#333 = CC_DESIGN_DATE_AND_TIME_ASSIGNMENT ( #44, #202, ( #4 ) ) ;
#334 = DIRECTION ( 'NONE',  ( 0.000000000000000000, 0.000000000000000000, -1.000000000000000000 ) ) ;
#335 = CARTESIAN_POINT ( 'NONE',  ( 0.000000000000000000, 4.349999999999999645, -29.30999999999999872 ) ) ;
#336 = CARTESIAN_POINT ( 'NONE',  ( 0.000000000000000000, 0.000000000000000000, 0.000000000000000000 ) ) ;
#337 = ORIENTED_EDGE ( 'NONE', *, *, #244, .F. ) ;
#338 = DIRECTION ( 'NONE',  ( 1.000000000000000000, 0.000000000000000000, 0.000000000000000000 ) ) ;
#339 = ORIENTED_EDGE ( 'NONE', *, *, #351, .T. ) ;
#340 = CARTESIAN_POINT ( 'NONE',  ( 4.492499999999999716, 0.000000000000000000, -33.21999999999999886 ) ) ;
#341 = EDGE_LOOP ( 'NONE', ( #64, #62 ) ) ;
#342 = DIRECTION ( 'NONE',  ( -0.000000000000000000, -0.000000000000000000, 1.000000000000000000 ) ) ;
#343 = VERTEX_POINT ( 'NONE', #274 ) ;
#344 = AXIS2_PLACEMENT_3D ( 'NONE', #376, #31, #57 ) ;
#345 = AXIS2_PLACEMENT_3D ( 'NONE', #203, #173, #15 ) ;
#346 = CC_DESIGN_PERSON_AND_ORGANIZATION_ASSIGNMENT ( #11, #231, ( #283 ) ) ;
#347 = ORIENTED_EDGE ( 'NONE', *, *, #92, .T. ) ;
#348 = CIRCLE ( 'NONE', #102, 4.492499999999999716 ) ;
#349 = PERSON_AND_ORGANIZATION ( #104, #205 ) ;
#350 = ORIENTED_EDGE ( 'NONE', *, *, #209, .F. ) ;
#351 = EDGE_CURVE ( 'NONE', #382, #215, #394, .T. ) ;
#352 = PERSON_AND_ORGANIZATION_ROLE ( 'design_supplier' ) ;
#353 = CARTESIAN_POINT ( 'NONE',  ( -4.762500000000000178, 5.832380380939270108E-16, 1.300590449943975990 ) ) ;
#354 = AXIS2_PLACEMENT_3D ( 'NONE', #234, #265, #46 ) ;
#355 = APPROVAL_STATUS ( 'not_yet_approved' ) ;
#356 = DIRECTION ( 'NONE',  ( 1.000000000000000000, 0.000000000000000000, 0.000000000000000000 ) ) ;
#357 = MANIFOLD_SOLID_BREP ( '‰ñ“]11', #146 ) ;
#358 = APPROVAL_DATE_TIME ( #14, #16 ) ;
#359 = FACE_OUTER_BOUND ( 'NONE', #287, .T. ) ;
#360 = APPROVAL_STATUS ( 'not_yet_approved' ) ;
#361 = LINE ( 'NONE', #353, #74 ) ;
#362 = LOCAL_TIME ( 8, 33, 52.00000000000000000, #39 ) ;
#363 = CIRCLE ( 'NONE', #284, 4.349999999999999645 ) ;
#364 = DIRECTION ( 'NONE',  ( -1.000000000000000000, 0.000000000000000000, 0.000000000000000000 ) ) ;
#365 = CARTESIAN_POINT ( 'NONE',  ( 0.000000000000000000, 0.000000000000000000, 0.000000000000000000 ) ) ;
#366 = EDGE_CURVE ( 'NONE', #195, #132, #171, .T. ) ;
#367 = DIRECTION ( 'NONE',  ( 1.000000000000000000, 0.000000000000000000, 0.000000000000000000 ) ) ;
#368 = UNCERTAINTY_MEASURE_WITH_UNIT (LENGTH_MEASURE( 1.000000000000000082E-05 ), #307, 'distance_accuracy_value', 'NONE');
#369 = DIRECTION ( 'NONE',  ( 0.4999999999999905076, 6.123233995736650172E-17, -0.8660254037844441477 ) ) ;
#370 = CARTESIAN_POINT ( 'NONE',  ( -4.762500000000000178, 0.000000000000000000, -33.68765371804360598 ) ) ;
#371 = CARTESIAN_POINT ( 'NONE',  ( 0.000000000000000000, 0.000000000000000000, -29.30999999999999872 ) ) ;
#372 = ORIENTED_EDGE ( 'NONE', *, *, #189, .F. ) ;
#373 = AXIS2_PLACEMENT_3D ( 'NONE', #126, #131, #93 ) ;
#374 = VECTOR ( 'NONE', #175, 1000.000000000000000 ) ;
#375 = ORIENTED_EDGE ( 'NONE', *, *, #107, .F. ) ;
#376 = CARTESIAN_POINT ( 'NONE',  ( 0.000000000000000000, 0.000000000000000000, -87.90000000000003411 ) ) ;
#377 = VERTEX_POINT ( 'NONE', #125 ) ;
#378 =( NAMED_UNIT ( * ) SI_UNIT ( $, .STERADIAN. ) SOLID_ANGLE_UNIT ( ) );
#379 = ORIENTED_EDGE ( 'NONE', *, *, #209, .T. ) ;
#380 = CC_DESIGN_PERSON_AND_ORGANIZATION_ASSIGNMENT ( #81, #352, ( #283 ) ) ;
#381 = DIRECTION ( 'NONE',  ( 1.000000000000000000, 0.000000000000000000, 0.000000000000000000 ) ) ;
#382 = VERTEX_POINT ( 'NONE', #95 ) ;
#383 = APPROVAL_PERSON_ORGANIZATION ( #110, #233, #35 ) ;
#384 = LINE ( 'NONE', #166, #154 ) ;
#385 = CALENDAR_DATE ( 2024, 23, 2 ) ;
#386 = DIRECTION ( 'NONE',  ( 1.000000000000000000, 0.000000000000000000, 0.000000000000000000 ) ) ;
#387 = PERSON_AND_ORGANIZATION ( #104, #205 ) ;
#388 = CARTESIAN_POINT ( 'NONE',  ( -3.762500000000000178, 5.220056981365594368E-16, -88.90000000000000568 ) ) ;
#389 = APPROVAL_DATE_TIME ( #257, #180 ) ;
#390 = CARTESIAN_POINT ( 'NONE',  ( 0.000000000000000000, 0.000000000000000000, -88.90000000000000568 ) ) ;
#391 = CARTESIAN_POINT ( 'NONE',  ( 3.762500000000000178, 0.000000000000000000, -88.90000000000000568 ) ) ;
#392 = AXIS2_PLACEMENT_3D ( 'NONE', #65, #250, #381 ) ;
#393 = PLANE ( 'NONE',  #135 ) ;
#394 = CIRCLE ( 'NONE', #344, 4.762500000000000178 ) ;
#395 = AXIS2_PLACEMENT_3D ( 'NONE', #174, #109, #291 ) ;
#396 = FACE_OUTER_BOUND ( 'NONE', #341, .T. ) ;
#397 = EDGE_CURVE ( 'NONE', #282, #377, #63, .T. ) ;
#398 = DIRECTION ( 'NONE',  ( -0.4999999999999905076, 0.000000000000000000, -0.8660254037844441477 ) ) ;
#399 = PRODUCT ( '52259012_C', '52259012_C', '', ( #27 ) ) ;
#400 = FACE_OUTER_BOUND ( 'NONE', #70, .T. ) ;
#401 = CARTESIAN_POINT ( 'NONE',  ( 4.349999999999999645, 0.000000000000000000, -29.30999999999999872 ) ) ;
#402 = DIRECTION ( 'NONE',  ( -0.000000000000000000, -0.000000000000000000, 1.000000000000000000 ) ) ;
#403 = ORIENTED_EDGE ( 'NONE', *, *, #289, .T. ) ;
#404 = DIRECTION ( 'NONE',  ( 1.000000000000000000, 0.000000000000000000, 0.000000000000000000 ) ) ;
#405 = CIRCLE ( 'NONE', #141, 4.762500000000000178 ) ;
ENDSEC;
END-ISO-10303-21;
