ISO-10303-21;
HEADER;
FILE_DESCRIPTION(('no description'),'unknown implementation level');
FILE_NAME('solidcFmbYXf_TqLz_LpbmYOO0BKjptw_1.STP','  ',('CIMSOURCE GmbH'),('CADClick - KiM GmbH - www.kimweb.de'),'unknown preprocess','ACIS','unknown authorization');
FILE_SCHEMA(('automotive_design'));
ENDSEC;
DATA;
#1=MECHANICAL_DESIGN_GEOMETRIC_PRESENTATION_REPRESENTATION(' ',(#10,#11,#12,#13,#14,#15,#16,#17,#18,#19,#20,#21,#22,#23,#24,#25,#26,#27,#28,#29,#30,#31,#32,#33,#34,#35,#36,#37,#38,#39,#40),#6);
#2=PRODUCT_DEFINITION_CONTEXT('',#41,'design');
#3=APPLICATION_PROTOCOL_DEFINITION('INTERNATIONAL STANDARD','automotive_design',1994,#41);
#4=PRODUCT_CATEGORY_RELATIONSHIP('NONE','NONE',#42,#43);
#5=SHAPE_DEFINITION_REPRESENTATION(#44,#45);
#6= (GEOMETRIC_REPRESENTATION_CONTEXT(3)GLOBAL_UNCERTAINTY_ASSIGNED_CONTEXT((#48))GLOBAL_UNIT_ASSIGNED_CONTEXT((#50,#51,#52))REPRESENTATION_CONTEXT('NONE','WORKSPACE'));
#10=STYLED_ITEM('',(#54),#55);
#11=STYLED_ITEM('',(#56),#57);
#12=STYLED_ITEM('',(#58),#59);
#13=STYLED_ITEM('',(#60),#61);
#14=STYLED_ITEM('',(#62),#63);
#15=STYLED_ITEM('',(#64),#65);
#16=STYLED_ITEM('',(#66),#67);
#17=STYLED_ITEM('',(#68),#69);
#18=STYLED_ITEM('',(#70),#71);
#19=STYLED_ITEM('',(#72),#73);
#20=STYLED_ITEM('',(#74),#75);
#21=STYLED_ITEM('',(#76),#77);
#22=STYLED_ITEM('',(#78),#79);
#23=STYLED_ITEM('',(#80),#81);
#24=STYLED_ITEM('',(#82),#83);
#25=STYLED_ITEM('',(#84),#85);
#26=STYLED_ITEM('',(#86),#87);
#27=STYLED_ITEM('',(#88),#89);
#28=STYLED_ITEM('',(#90),#91);
#29=STYLED_ITEM('',(#92),#93);
#30=STYLED_ITEM('',(#94),#95);
#31=STYLED_ITEM('',(#96),#97);
#32=STYLED_ITEM('',(#98),#99);
#33=STYLED_ITEM('',(#100),#101);
#34=STYLED_ITEM('',(#102),#103);
#35=STYLED_ITEM('',(#104),#105);
#36=STYLED_ITEM('',(#106),#107);
#37=STYLED_ITEM('',(#108),#109);
#38=STYLED_ITEM('',(#110),#111);
#39=STYLED_ITEM('',(#112),#113);
#40=STYLED_ITEM('',(#114),#115);
#41=APPLICATION_CONTEXT(' ');
#42=PRODUCT_CATEGORY('part','NONE');
#43=PRODUCT_RELATED_PRODUCT_CATEGORY('detail',' ',(#116));
#44=PRODUCT_DEFINITION_SHAPE('NONE','NONE',#117);
#45=ADVANCED_BREP_SHAPE_REPRESENTATION('1',(#67,#118),#6);
#48=UNCERTAINTY_MEASURE_WITH_UNIT(LENGTH_MEASURE(1.0E-006),#50,'','');
#50= (CONVERSION_BASED_UNIT('MILLIMETRE',#121)LENGTH_UNIT()NAMED_UNIT(#124));
#51= (NAMED_UNIT(#126)PLANE_ANGLE_UNIT()SI_UNIT($,.RADIAN.));
#52= (NAMED_UNIT(#126)SOLID_ANGLE_UNIT()SI_UNIT($,.STERADIAN.));
#54=PRESENTATION_STYLE_ASSIGNMENT((#132));
#55=EDGE_CURVE('',#77,#79,#133,.T.);
#56=PRESENTATION_STYLE_ASSIGNMENT((#134));
#57=VERTEX_POINT('',#135);
#58=PRESENTATION_STYLE_ASSIGNMENT((#136));
#59=ADVANCED_FACE('',(#137),#138,.T.);
#60=PRESENTATION_STYLE_ASSIGNMENT((#139));
#61=EDGE_CURVE('',#105,#101,#140,.T.);
#62=PRESENTATION_STYLE_ASSIGNMENT((#141));
#63=EDGE_CURVE('',#57,#77,#142,.T.);
#64=PRESENTATION_STYLE_ASSIGNMENT((#143));
#65=ADVANCED_FACE('',(#144),#145,.T.);
#66=PRESENTATION_STYLE_ASSIGNMENT((#146));
#67=MANIFOLD_SOLID_BREP('1',#147);
#68=PRESENTATION_STYLE_ASSIGNMENT((#148));
#69=EDGE_CURVE('',#91,#79,#149,.T.);
#70=PRESENTATION_STYLE_ASSIGNMENT((#150));
#71=ADVANCED_FACE('',(#151),#152,.T.);
#72=PRESENTATION_STYLE_ASSIGNMENT((#153));
#73=ADVANCED_FACE('',(#154),#155,.T.);
#74=PRESENTATION_STYLE_ASSIGNMENT((#156));
#75=VERTEX_POINT('',#157);
#76=PRESENTATION_STYLE_ASSIGNMENT((#158));
#77=VERTEX_POINT('',#159);
#78=PRESENTATION_STYLE_ASSIGNMENT((#160));
#79=VERTEX_POINT('',#161);
#80=PRESENTATION_STYLE_ASSIGNMENT((#162));
#81=ADVANCED_FACE('',(#163),#164,.T.);
#82=PRESENTATION_STYLE_ASSIGNMENT((#165));
#83=EDGE_CURVE('',#57,#105,#166,.T.);
#84=PRESENTATION_STYLE_ASSIGNMENT((#167));
#85=VERTEX_POINT('',#168);
#86=PRESENTATION_STYLE_ASSIGNMENT((#169));
#87=ADVANCED_FACE('',(#170),#171,.T.);
#88=PRESENTATION_STYLE_ASSIGNMENT((#172));
#89=ADVANCED_FACE('',(#173),#174,.T.);
#90=PRESENTATION_STYLE_ASSIGNMENT((#175));
#91=VERTEX_POINT('',#176);
#92=PRESENTATION_STYLE_ASSIGNMENT((#177));
#93=EDGE_CURVE('',#77,#57,#178,.T.);
#94=PRESENTATION_STYLE_ASSIGNMENT((#179));
#95=EDGE_CURVE('',#91,#57,#180,.T.);
#96=PRESENTATION_STYLE_ASSIGNMENT((#181));
#97=EDGE_CURVE('',#101,#77,#182,.T.);
#98=PRESENTATION_STYLE_ASSIGNMENT((#183));
#99=EDGE_CURVE('',#85,#75,#184,.T.);
#100=PRESENTATION_STYLE_ASSIGNMENT((#185));
#101=VERTEX_POINT('',#186);
#102=PRESENTATION_STYLE_ASSIGNMENT((#187));
#103=EDGE_CURVE('',#75,#101,#188,.T.);
#104=PRESENTATION_STYLE_ASSIGNMENT((#189));
#105=VERTEX_POINT('',#190);
#106=PRESENTATION_STYLE_ASSIGNMENT((#191));
#107=EDGE_CURVE('',#101,#105,#192,.T.);
#108=PRESENTATION_STYLE_ASSIGNMENT((#193));
#109=EDGE_CURVE('',#75,#85,#194,.T.);
#110=PRESENTATION_STYLE_ASSIGNMENT((#195));
#111=ADVANCED_FACE('',(#196),#197,.T.);
#112=PRESENTATION_STYLE_ASSIGNMENT((#198));
#113=EDGE_CURVE('',#79,#91,#199,.T.);
#114=PRESENTATION_STYLE_ASSIGNMENT((#200));
#115=EDGE_CURVE('',#105,#85,#201,.T.);
#116=PRODUCT('1','1','PART-1-DESC',(#202));
#117=PRODUCT_DEFINITION('NONE','NONE',#203,#2);
#118=AXIS2_PLACEMENT_3D('',#204,#205,#206);
#121=LENGTH_MEASURE_WITH_UNIT(LENGTH_MEASURE(1.0),#207);
#124=DIMENSIONAL_EXPONENTS(1.0,0.0,0.0,0.0,0.0,0.0,0.0);
#126=DIMENSIONAL_EXPONENTS(0.0,0.0,0.0,0.0,0.0,0.0,0.0);
#132=CURVE_STYLE('',#208,POSITIVE_LENGTH_MEASURE(1.0E-006),#209);
#133=LINE('',#210,#211);
#134=POINT_STYLE(' ',#212,POSITIVE_LENGTH_MEASURE(1.0E-006),#213);
#135=CARTESIAN_POINT('',(3.67381906146713E-016,-3.0,-64.6459999976209));
#136=SURFACE_STYLE_USAGE(.BOTH.,#214);
#137=FACE_OUTER_BOUND('',#215,.T.);
#138=CONICAL_SURFACE('',#216,2.693427005,1.0471975511966);
#139=CURVE_STYLE('',#217,POSITIVE_LENGTH_MEASURE(1.0E-006),#218);
#140=CIRCLE('',#219,3.0);
#141=CURVE_STYLE('',#220,POSITIVE_LENGTH_MEASURE(1.0E-006),#221);
#142=CIRCLE('',#222,3.0);
#143=SURFACE_STYLE_USAGE(.BOTH.,#223);
#144=FACE_OUTER_BOUND('',#224,.T.);
#145=CYLINDRICAL_SURFACE('',#225,3.0);
#146=SURFACE_STYLE_USAGE(.BOTH.,#226);
#147=CLOSED_SHELL('',(#87,#111,#59,#73,#89,#71,#65,#81));
#148=CURVE_STYLE('',#227,POSITIVE_LENGTH_MEASURE(1.0E-006),#228);
#149=CIRCLE('',#229,2.38685401);
#150=SURFACE_STYLE_USAGE(.BOTH.,#230);
#151=FACE_OUTER_BOUND('',#231,.T.);
#152=CONICAL_SURFACE('',#232,2.8,0.78539816339745);
#153=SURFACE_STYLE_USAGE(.BOTH.,#233);
#154=FACE_OUTER_BOUND('',#234,.T.);
#155=CONICAL_SURFACE('',#235,2.693427005,1.0471975511966);
#156=POINT_STYLE(' ',#236,POSITIVE_LENGTH_MEASURE(1.0E-006),#237);
#157=CARTESIAN_POINT('',(0.0,2.6,0.0));
#158=POINT_STYLE(' ',#238,POSITIVE_LENGTH_MEASURE(1.0E-006),#239);
#159=CARTESIAN_POINT('',(0.0,3.0,-64.645999997621));
#160=POINT_STYLE(' ',#240,POSITIVE_LENGTH_MEASURE(1.0E-006),#241);
#161=CARTESIAN_POINT('',(0.0,2.38685401,-65.0));
#162=SURFACE_STYLE_USAGE(.BOTH.,#242);
#163=FACE_OUTER_BOUND('',#243,.T.);
#164=PLANE('',#244);
#165=CURVE_STYLE('',#245,POSITIVE_LENGTH_MEASURE(1.0E-006),#246);
#166=LINE('',#247,#248);
#167=POINT_STYLE(' ',#249,POSITIVE_LENGTH_MEASURE(1.0E-006),#250);
#168=CARTESIAN_POINT('',(3.18397651993818E-016,-2.6,0.0));
#169=SURFACE_STYLE_USAGE(.BOTH.,#251);
#170=FACE_OUTER_BOUND('',#252,.T.);
#171=CYLINDRICAL_SURFACE('',#253,3.0);
#172=SURFACE_STYLE_USAGE(.BOTH.,#254);
#173=FACE_OUTER_BOUND('',#255,.T.);
#174=PLANE('',#256);
#175=POINT_STYLE(' ',#257,POSITIVE_LENGTH_MEASURE(1.0E-006),#258);
#176=CARTESIAN_POINT('',(2.92295658629242E-016,-2.38685401,-65.0));
#177=CURVE_STYLE('',#259,POSITIVE_LENGTH_MEASURE(1.0E-006),#260);
#178=CIRCLE('',#261,3.0);
#179=CURVE_STYLE('',#262,POSITIVE_LENGTH_MEASURE(1.0E-006),#263);
#180=LINE('',#264,#265);
#181=CURVE_STYLE('',#266,POSITIVE_LENGTH_MEASURE(1.0E-006),#267);
#182=LINE('',#268,#269);
#183=CURVE_STYLE('',#270,POSITIVE_LENGTH_MEASURE(1.0E-006),#271);
#184=CIRCLE('',#272,2.6);
#185=POINT_STYLE(' ',#273,POSITIVE_LENGTH_MEASURE(1.0E-006),#274);
#186=CARTESIAN_POINT('',(0.0,3.0,-0.399999999999999));
#187=CURVE_STYLE('',#275,POSITIVE_LENGTH_MEASURE(1.0E-006),#276);
#188=LINE('',#277,#278);
#189=POINT_STYLE(' ',#279,POSITIVE_LENGTH_MEASURE(1.0E-006),#280);
#190=CARTESIAN_POINT('',(3.67381906146713E-016,-3.0,-0.399999999999999));
#191=CURVE_STYLE('',#281,POSITIVE_LENGTH_MEASURE(1.0E-006),#282);
#192=CIRCLE('',#283,3.0);
#193=CURVE_STYLE('',#284,POSITIVE_LENGTH_MEASURE(1.0E-006),#285);
#194=CIRCLE('',#286,2.6);
#195=SURFACE_STYLE_USAGE(.BOTH.,#287);
#196=FACE_OUTER_BOUND('',#288,.T.);
#197=CONICAL_SURFACE('',#289,2.8,0.78539816339745);
#198=CURVE_STYLE('',#290,POSITIVE_LENGTH_MEASURE(1.0E-006),#291);
#199=CIRCLE('',#292,2.38685401);
#200=CURVE_STYLE('',#293,POSITIVE_LENGTH_MEASURE(1.0E-006),#294);
#201=LINE('',#295,#296);
#202=PRODUCT_CONTEXT('',#41,'mechanical');
#203=PRODUCT_DEFINITION_FORMATION_WITH_SPECIFIED_SOURCE(' ','NONE',#116,.NOT_KNOWN.);
#204=CARTESIAN_POINT('',(0.0,0.0,0.0));
#205=DIRECTION('',(0.0,0.0,1.0));
#206=DIRECTION('',(1.0,0.0,0.0));
#207= (NAMED_UNIT(#124)LENGTH_UNIT()SI_UNIT(.MILLI.,.METRE.));
#208=DRAUGHTING_PRE_DEFINED_CURVE_FONT('continuous');
#209=COLOUR_RGB('',0.800000011920929,0.800000011920929,0.800000011920929);
#210=CARTESIAN_POINT('',(-3.29838782387978E-016,2.693427005,-64.8229999988105));
#211=VECTOR('',#298,1.0);
#212=PRE_DEFINED_MARKER('');
#213=COLOUR_RGB('',0.800000011920929,0.800000011920929,0.800000011920929);
#214=SURFACE_SIDE_STYLE('',(#299));
#215=EDGE_LOOP('',(#300,#301,#302,#303));
#216=AXIS2_PLACEMENT_3D('',#304,#305,#306);
#217=DRAUGHTING_PRE_DEFINED_CURVE_FONT('continuous');
#218=COLOUR_RGB('',0.498039215803146,0.498039215803146,0.498039215803146);
#219=AXIS2_PLACEMENT_3D('',#307,#308,#309);
#220=DRAUGHTING_PRE_DEFINED_CURVE_FONT('continuous');
#221=COLOUR_RGB('',0.800000011920929,0.800000011920929,0.800000011920929);
#222=AXIS2_PLACEMENT_3D('',#310,#311,#312);
#223=SURFACE_SIDE_STYLE('',(#313));
#224=EDGE_LOOP('',(#314,#315,#316,#317));
#225=AXIS2_PLACEMENT_3D('',#318,#319,#320);
#226=SURFACE_SIDE_STYLE('',(#321));
#227=DRAUGHTING_PRE_DEFINED_CURVE_FONT('continuous');
#228=COLOUR_RGB('',0.498039215803146,0.498039215803146,0.498039215803146);
#229=AXIS2_PLACEMENT_3D('',#322,#323,#324);
#230=SURFACE_SIDE_STYLE('',(#325));
#231=EDGE_LOOP('',(#326,#327,#328,#329));
#232=AXIS2_PLACEMENT_3D('',#330,#331,#332);
#233=SURFACE_SIDE_STYLE('',(#333));
#234=EDGE_LOOP('',(#334,#335,#336,#337));
#235=AXIS2_PLACEMENT_3D('',#338,#339,#340);
#236=PRE_DEFINED_MARKER('');
#237=COLOUR_RGB('',0.498039215803146,0.498039215803146,0.498039215803146);
#238=PRE_DEFINED_MARKER('');
#239=COLOUR_RGB('',0.800000011920929,0.800000011920929,0.800000011920929);
#240=PRE_DEFINED_MARKER('');
#241=COLOUR_RGB('',0.498039215803146,0.498039215803146,0.498039215803146);
#242=SURFACE_SIDE_STYLE('',(#341));
#243=EDGE_LOOP('',(#342,#343));
#244=AXIS2_PLACEMENT_3D('',#344,#345,#346);
#245=DRAUGHTING_PRE_DEFINED_CURVE_FONT('continuous');
#246=COLOUR_RGB('',0.498039215803146,0.498039215803146,0.498039215803146);
#247=CARTESIAN_POINT('',(3.67381906146713E-016,-3.0,-19.7));
#248=VECTOR('',#347,1.0);
#249=PRE_DEFINED_MARKER('');
#250=COLOUR_RGB('',0.498039215803146,0.498039215803146,0.498039215803146);
#251=SURFACE_SIDE_STYLE('',(#348));
#252=EDGE_LOOP('',(#349,#350,#351,#352));
#253=AXIS2_PLACEMENT_3D('',#353,#354,#355);
#254=SURFACE_SIDE_STYLE('',(#356));
#255=EDGE_LOOP('',(#357,#358));
#256=AXIS2_PLACEMENT_3D('',#359,#360,#361);
#257=PRE_DEFINED_MARKER('');
#258=COLOUR_RGB('',0.498039215803146,0.498039215803146,0.498039215803146);
#259=DRAUGHTING_PRE_DEFINED_CURVE_FONT('continuous');
#260=COLOUR_RGB('',0.800000011920929,0.800000011920929,0.800000011920929);
#261=AXIS2_PLACEMENT_3D('',#362,#363,#364);
#262=DRAUGHTING_PRE_DEFINED_CURVE_FONT('continuous');
#263=COLOUR_RGB('',0.800000011920929,0.800000011920929,0.800000011920929);
#264=CARTESIAN_POINT('',(3.29838782387978E-016,-2.693427005,-64.8229999988105));
#265=VECTOR('',#365,1.0);
#266=DRAUGHTING_PRE_DEFINED_CURVE_FONT('continuous');
#267=COLOUR_RGB('',0.498039215803146,0.498039215803146,0.498039215803146);
#268=CARTESIAN_POINT('',(-3.67381906146713E-016,3.0,-19.7));
#269=VECTOR('',#366,1.0);
#270=DRAUGHTING_PRE_DEFINED_CURVE_FONT('continuous');
#271=COLOUR_RGB('',0.498039215803146,0.498039215803146,0.498039215803146);
#272=AXIS2_PLACEMENT_3D('',#367,#368,#369);
#273=PRE_DEFINED_MARKER('');
#274=COLOUR_RGB('',0.498039215803146,0.498039215803146,0.498039215803146);
#275=DRAUGHTING_PRE_DEFINED_CURVE_FONT('continuous');
#276=COLOUR_RGB('',0.498039215803146,0.498039215803146,0.498039215803146);
#277=CARTESIAN_POINT('',(-3.42889779070266E-016,2.8,-0.200000000000003));
#278=VECTOR('',#370,1.0);
#279=PRE_DEFINED_MARKER('');
#280=COLOUR_RGB('',0.498039215803146,0.498039215803146,0.498039215803146);
#281=DRAUGHTING_PRE_DEFINED_CURVE_FONT('continuous');
#282=COLOUR_RGB('',0.498039215803146,0.498039215803146,0.498039215803146);
#283=AXIS2_PLACEMENT_3D('',#371,#372,#373);
#284=DRAUGHTING_PRE_DEFINED_CURVE_FONT('continuous');
#285=COLOUR_RGB('',0.498039215803146,0.498039215803146,0.498039215803146);
#286=AXIS2_PLACEMENT_3D('',#374,#375,#376);
#287=SURFACE_SIDE_STYLE('',(#377));
#288=EDGE_LOOP('',(#378,#379,#380,#381));
#289=AXIS2_PLACEMENT_3D('',#382,#383,#384);
#290=DRAUGHTING_PRE_DEFINED_CURVE_FONT('continuous');
#291=COLOUR_RGB('',0.498039215803146,0.498039215803146,0.498039215803146);
#292=AXIS2_PLACEMENT_3D('',#385,#386,#387);
#293=DRAUGHTING_PRE_DEFINED_CURVE_FONT('continuous');
#294=COLOUR_RGB('',0.498039215803146,0.498039215803146,0.498039215803146);
#295=CARTESIAN_POINT('',(3.42889779070266E-016,-2.8,-0.200000000000003));
#296=VECTOR('',#388,1.0);
#298=DIRECTION('',(1.06054021204601E-016,-0.866025403784439,-0.499999999999999));
#299=SURFACE_STYLE_FILL_AREA(#389);
#300=ORIENTED_EDGE('',*,*,#55,.F.);
#301=ORIENTED_EDGE('',*,*,#93,.T.);
#302=ORIENTED_EDGE('',*,*,#95,.F.);
#303=ORIENTED_EDGE('',*,*,#113,.F.);
#304=CARTESIAN_POINT('',(0.0,0.0,-64.8229999988105));
#305=DIRECTION('',(-0.0,-0.0,1.0));
#306=DIRECTION('',(0.0,1.0,0.0));
#307=CARTESIAN_POINT('',(0.0,0.0,-0.399999999999999));
#308=DIRECTION('',(0.0,0.0,-1.0));
#309=DIRECTION('',(0.0,1.0,0.0));
#310=CARTESIAN_POINT('',(0.0,0.0,-64.645999997621));
#311=DIRECTION('',(0.0,0.0,-1.0));
#312=DIRECTION('',(0.0,1.0,0.0));
#313=SURFACE_STYLE_FILL_AREA(#390);
#314=ORIENTED_EDGE('',*,*,#97,.T.);
#315=ORIENTED_EDGE('',*,*,#63,.F.);
#316=ORIENTED_EDGE('',*,*,#83,.T.);
#317=ORIENTED_EDGE('',*,*,#61,.T.);
#318=CARTESIAN_POINT('',(0.0,0.0,-19.7));
#319=DIRECTION('',(-0.0,-0.0,1.0));
#320=DIRECTION('',(0.0,1.0,0.0));
#321=SURFACE_STYLE_FILL_AREA(#391);
#322=CARTESIAN_POINT('',(0.0,0.0,-65.0));
#323=DIRECTION('',(0.0,0.0,-1.0));
#324=DIRECTION('',(0.0,1.0,0.0));
#325=SURFACE_STYLE_FILL_AREA(#392);
#326=ORIENTED_EDGE('',*,*,#103,.T.);
#327=ORIENTED_EDGE('',*,*,#61,.F.);
#328=ORIENTED_EDGE('',*,*,#115,.T.);
#329=ORIENTED_EDGE('',*,*,#99,.T.);
#330=CARTESIAN_POINT('',(0.0,0.0,-0.200000000000003));
#331=DIRECTION('',(0.0,-0.0,-1.0));
#332=DIRECTION('',(0.0,1.0,0.0));
#333=SURFACE_STYLE_FILL_AREA(#393);
#334=ORIENTED_EDGE('',*,*,#55,.T.);
#335=ORIENTED_EDGE('',*,*,#69,.F.);
#336=ORIENTED_EDGE('',*,*,#95,.T.);
#337=ORIENTED_EDGE('',*,*,#63,.T.);
#338=CARTESIAN_POINT('',(0.0,0.0,-64.8229999988105));
#339=DIRECTION('',(-0.0,-0.0,1.0));
#340=DIRECTION('',(0.0,1.0,0.0));
#341=SURFACE_STYLE_FILL_AREA(#394);
#342=ORIENTED_EDGE('',*,*,#113,.T.);
#343=ORIENTED_EDGE('',*,*,#69,.T.);
#344=CARTESIAN_POINT('',(0.0,1.193427005,-65.0));
#345=DIRECTION('',(0.0,0.0,-1.0));
#346=DIRECTION('',(0.0,1.0,0.0));
#347=DIRECTION('',(-0.0,-0.0,1.0));
#348=SURFACE_STYLE_FILL_AREA(#395);
#349=ORIENTED_EDGE('',*,*,#97,.F.);
#350=ORIENTED_EDGE('',*,*,#107,.T.);
#351=ORIENTED_EDGE('',*,*,#83,.F.);
#352=ORIENTED_EDGE('',*,*,#93,.F.);
#353=CARTESIAN_POINT('',(0.0,0.0,-19.7));
#354=DIRECTION('',(-0.0,-0.0,1.0));
#355=DIRECTION('',(0.0,1.0,0.0));
#356=SURFACE_STYLE_FILL_AREA(#396);
#357=ORIENTED_EDGE('',*,*,#109,.F.);
#358=ORIENTED_EDGE('',*,*,#99,.F.);
#359=CARTESIAN_POINT('',(0.0,1.3,0.0));
#360=DIRECTION('',(-0.0,0.0,1.0));
#361=DIRECTION('',(0.0,-1.0,0.0));
#362=CARTESIAN_POINT('',(0.0,0.0,-64.645999997621));
#363=DIRECTION('',(0.0,0.0,-1.0));
#364=DIRECTION('',(0.0,1.0,0.0));
#365=DIRECTION('',(1.06054021204601E-016,-0.866025403784439,0.499999999999999));
#366=DIRECTION('',(0.0,0.0,-1.0));
#367=CARTESIAN_POINT('',(0.0,0.0,0.0));
#368=DIRECTION('',(0.0,0.0,-1.0));
#369=DIRECTION('',(0.0,1.0,0.0));
#370=DIRECTION('',(-8.65927457071937E-017,0.707106781186549,-0.707106781186546));
#371=CARTESIAN_POINT('',(0.0,0.0,-0.399999999999999));
#372=DIRECTION('',(0.0,0.0,-1.0));
#373=DIRECTION('',(0.0,1.0,0.0));
#374=CARTESIAN_POINT('',(0.0,0.0,0.0));
#375=DIRECTION('',(0.0,0.0,-1.0));
#376=DIRECTION('',(0.0,1.0,0.0));
#377=SURFACE_STYLE_FILL_AREA(#397);
#378=ORIENTED_EDGE('',*,*,#103,.F.);
#379=ORIENTED_EDGE('',*,*,#109,.T.);
#380=ORIENTED_EDGE('',*,*,#115,.F.);
#381=ORIENTED_EDGE('',*,*,#107,.F.);
#382=CARTESIAN_POINT('',(0.0,0.0,-0.200000000000003));
#383=DIRECTION('',(0.0,-0.0,-1.0));
#384=DIRECTION('',(0.0,1.0,0.0));
#385=CARTESIAN_POINT('',(0.0,0.0,-65.0));
#386=DIRECTION('',(0.0,0.0,-1.0));
#387=DIRECTION('',(0.0,1.0,0.0));
#388=DIRECTION('',(-8.65927457071937E-017,0.707106781186549,0.707106781186546));
#389=FILL_AREA_STYLE('',(#398));
#390=FILL_AREA_STYLE('',(#399));
#391=FILL_AREA_STYLE('',(#400));
#392=FILL_AREA_STYLE('',(#401));
#393=FILL_AREA_STYLE('',(#402));
#394=FILL_AREA_STYLE('',(#403));
#395=FILL_AREA_STYLE('',(#404));
#396=FILL_AREA_STYLE('',(#405));
#397=FILL_AREA_STYLE('',(#406));
#398=FILL_AREA_STYLE_COLOUR('',#407);
#399=FILL_AREA_STYLE_COLOUR('',#408);
#400=FILL_AREA_STYLE_COLOUR('',#409);
#401=FILL_AREA_STYLE_COLOUR('',#410);
#402=FILL_AREA_STYLE_COLOUR('',#411);
#403=FILL_AREA_STYLE_COLOUR('',#412);
#404=FILL_AREA_STYLE_COLOUR('',#413);
#405=FILL_AREA_STYLE_COLOUR('',#414);
#406=FILL_AREA_STYLE_COLOUR('',#415);
#407=COLOUR_RGB('',0.800000011920929,0.800000011920929,0.800000011920929);
#408=COLOUR_RGB('',0.498039215803146,0.498039215803146,0.498039215803146);
#409=COLOUR_RGB('',0.498039215803146,0.498039215803146,0.498039215803146);
#410=COLOUR_RGB('',0.498039215803146,0.498039215803146,0.498039215803146);
#411=COLOUR_RGB('',0.800000011920929,0.800000011920929,0.800000011920929);
#412=COLOUR_RGB('',0.498039215803146,0.498039215803146,0.498039215803146);
#413=COLOUR_RGB('',0.498039215803146,0.498039215803146,0.498039215803146);
#414=COLOUR_RGB('',0.498039215803146,0.498039215803146,0.498039215803146);
#415=COLOUR_RGB('',0.498039215803146,0.498039215803146,0.498039215803146);
#416=AXIS2_PLACEMENT_3D('PCS',#417,#418,#419);
#417=CARTESIAN_POINT('',(0.0,0.0,0.0));
#418=DIRECTION('',(0.0,0.0,1.0));
#419=DIRECTION('',(1.0,0.0,0.0));
#420=AXIS2_PLACEMENT_3D('CIP',#421,#422,#423);
#421=CARTESIAN_POINT('',(0.0,0.0,-65.0));
#422=DIRECTION('',(0.0,0.0,1.0));
#423=DIRECTION('',(1.0,0.0,0.0));
#424=AXIS2_PLACEMENT_3D('CRP',#425,#426,#427);
#425=CARTESIAN_POINT('',(-3.0,0.0,-65.0));
#426=DIRECTION('',(0.0,0.0,1.0));
#427=DIRECTION('',(1.0,0.0,0.0));
#428=AXIS2_PLACEMENT_3D('MCS',#429,#430,#431);
#429=CARTESIAN_POINT('',(0.0,0.0,-39.0));
#430=DIRECTION('',(0.0,0.0,1.0));
#431=DIRECTION('',(1.0,0.0,0.0));
#432=CONSTRUCTIVE_GEOMETRY_REPRESENTATION_RELATIONSHIP('coordinate systems',$,#45,#433);
#433=CONSTRUCTIVE_GEOMETRY_REPRESENTATION('coordinate systems',(#416,#420,#424,#428),#6);
ENDSEC;
END-ISO-10303-21;
