ISO-10303-21;
HEADER;
FILE_DESCRIPTION(('no description'),'unknown implementation level');
FILE_NAME('solidWOeX0gj9mY_KchYBxpckZ0WSCi8_1.STP','  ',('CIMSOURCE GmbH'),('CADClick - KiM GmbH - www.kimweb.de'),'unknown preprocess','ACIS','unknown authorization');
FILE_SCHEMA(('automotive_design'));
ENDSEC;
DATA;
#1=MECHANICAL_DESIGN_GEOMETRIC_PRESENTATION_REPRESENTATION(' ',(#10,#11,#12,#13,#14,#15,#16,#17,#18,#19,#20,#21,#22,#23,#24,#25,#26,#27,#28,#29,#30,#31,#32,#33,#34,#35,#36,#37,#38,#39,#40),#6);
#2=PRODUCT_DEFINITION_CONTEXT('',#41,'design');
#3=APPLICATION_PROTOCOL_DEFINITION('INTERNATIONAL STANDARD','automotive_design',1994,#41);
#4=PRODUCT_CATEGORY_RELATIONSHIP('NONE','NONE',#42,#43);
#5=SHAPE_DEFINITION_REPRESENTATION(#44,#45);
#6= (GEOMETRIC_REPRESENTATION_CONTEXT(3)GLOBAL_UNCERTAINTY_ASSIGNED_CONTEXT((#48))GLOBAL_UNIT_ASSIGNED_CONTEXT((#50,#51,#52))REPRESENTATION_CONTEXT('NONE','WORKSPACE'));
#10=STYLED_ITEM('',(#54),#55);
#11=STYLED_ITEM('',(#56),#57);
#12=STYLED_ITEM('',(#58),#59);
#13=STYLED_ITEM('',(#60),#61);
#14=STYLED_ITEM('',(#62),#63);
#15=STYLED_ITEM('',(#64),#65);
#16=STYLED_ITEM('',(#66),#67);
#17=STYLED_ITEM('',(#68),#69);
#18=STYLED_ITEM('',(#70),#71);
#19=STYLED_ITEM('',(#72),#73);
#20=STYLED_ITEM('',(#74),#75);
#21=STYLED_ITEM('',(#76),#77);
#22=STYLED_ITEM('',(#78),#79);
#23=STYLED_ITEM('',(#80),#81);
#24=STYLED_ITEM('',(#82),#83);
#25=STYLED_ITEM('',(#84),#85);
#26=STYLED_ITEM('',(#86),#87);
#27=STYLED_ITEM('',(#88),#89);
#28=STYLED_ITEM('',(#90),#91);
#29=STYLED_ITEM('',(#92),#93);
#30=STYLED_ITEM('',(#94),#95);
#31=STYLED_ITEM('',(#96),#97);
#32=STYLED_ITEM('',(#98),#99);
#33=STYLED_ITEM('',(#100),#101);
#34=STYLED_ITEM('',(#102),#103);
#35=STYLED_ITEM('',(#104),#105);
#36=STYLED_ITEM('',(#106),#107);
#37=STYLED_ITEM('',(#108),#109);
#38=STYLED_ITEM('',(#110),#111);
#39=STYLED_ITEM('',(#112),#113);
#40=STYLED_ITEM('',(#114),#115);
#41=APPLICATION_CONTEXT(' ');
#42=PRODUCT_CATEGORY('part','NONE');
#43=PRODUCT_RELATED_PRODUCT_CATEGORY('detail',' ',(#116));
#44=PRODUCT_DEFINITION_SHAPE('NONE','NONE',#117);
#45=ADVANCED_BREP_SHAPE_REPRESENTATION('1',(#95,#118),#6);
#48=UNCERTAINTY_MEASURE_WITH_UNIT(LENGTH_MEASURE(1.0E-006),#50,'','');
#50= (CONVERSION_BASED_UNIT('MILLIMETRE',#121)LENGTH_UNIT()NAMED_UNIT(#124));
#51= (NAMED_UNIT(#126)PLANE_ANGLE_UNIT()SI_UNIT($,.RADIAN.));
#52= (NAMED_UNIT(#126)SOLID_ANGLE_UNIT()SI_UNIT($,.STERADIAN.));
#54=PRESENTATION_STYLE_ASSIGNMENT((#132));
#55=ADVANCED_FACE('',(#133),#134,.T.);
#56=PRESENTATION_STYLE_ASSIGNMENT((#135));
#57=EDGE_CURVE('',#61,#85,#136,.T.);
#58=PRESENTATION_STYLE_ASSIGNMENT((#137));
#59=VERTEX_POINT('',#138);
#60=PRESENTATION_STYLE_ASSIGNMENT((#139));
#61=VERTEX_POINT('',#140);
#62=PRESENTATION_STYLE_ASSIGNMENT((#141));
#63=EDGE_CURVE('',#91,#103,#142,.T.);
#64=PRESENTATION_STYLE_ASSIGNMENT((#143));
#65=VERTEX_POINT('',#144);
#66=PRESENTATION_STYLE_ASSIGNMENT((#145));
#67=ADVANCED_FACE('',(#146),#147,.T.);
#68=PRESENTATION_STYLE_ASSIGNMENT((#148));
#69=ADVANCED_FACE('',(#149),#150,.T.);
#70=PRESENTATION_STYLE_ASSIGNMENT((#151));
#71=EDGE_CURVE('',#85,#79,#152,.T.);
#72=PRESENTATION_STYLE_ASSIGNMENT((#153));
#73=EDGE_CURVE('',#103,#91,#154,.T.);
#74=PRESENTATION_STYLE_ASSIGNMENT((#155));
#75=EDGE_CURVE('',#65,#91,#156,.T.);
#76=PRESENTATION_STYLE_ASSIGNMENT((#157));
#77=ADVANCED_FACE('',(#158),#159,.T.);
#78=PRESENTATION_STYLE_ASSIGNMENT((#160));
#79=VERTEX_POINT('',#161);
#80=PRESENTATION_STYLE_ASSIGNMENT((#162));
#81=ADVANCED_FACE('',(#163),#164,.T.);
#82=PRESENTATION_STYLE_ASSIGNMENT((#165));
#83=ADVANCED_FACE('',(#166),#167,.T.);
#84=PRESENTATION_STYLE_ASSIGNMENT((#168));
#85=VERTEX_POINT('',#169);
#86=PRESENTATION_STYLE_ASSIGNMENT((#170));
#87=EDGE_CURVE('',#59,#61,#171,.T.);
#88=PRESENTATION_STYLE_ASSIGNMENT((#172));
#89=EDGE_CURVE('',#61,#115,#173,.T.);
#90=PRESENTATION_STYLE_ASSIGNMENT((#174));
#91=VERTEX_POINT('',#175);
#92=PRESENTATION_STYLE_ASSIGNMENT((#176));
#93=EDGE_CURVE('',#115,#61,#177,.T.);
#94=PRESENTATION_STYLE_ASSIGNMENT((#178));
#95=MANIFOLD_SOLID_BREP('1',#179);
#96=PRESENTATION_STYLE_ASSIGNMENT((#180));
#97=EDGE_CURVE('',#79,#85,#181,.T.);
#98=PRESENTATION_STYLE_ASSIGNMENT((#182));
#99=EDGE_CURVE('',#103,#59,#183,.T.);
#100=PRESENTATION_STYLE_ASSIGNMENT((#184));
#101=EDGE_CURVE('',#65,#59,#185,.T.);
#102=PRESENTATION_STYLE_ASSIGNMENT((#186));
#103=VERTEX_POINT('',#187);
#104=PRESENTATION_STYLE_ASSIGNMENT((#188));
#105=EDGE_CURVE('',#79,#115,#189,.T.);
#106=PRESENTATION_STYLE_ASSIGNMENT((#190));
#107=ADVANCED_FACE('',(#191),#192,.T.);
#108=PRESENTATION_STYLE_ASSIGNMENT((#193));
#109=EDGE_CURVE('',#59,#65,#194,.T.);
#110=PRESENTATION_STYLE_ASSIGNMENT((#195));
#111=ADVANCED_FACE('',(#196),#197,.T.);
#112=PRESENTATION_STYLE_ASSIGNMENT((#198));
#113=EDGE_CURVE('',#115,#65,#199,.T.);
#114=PRESENTATION_STYLE_ASSIGNMENT((#200));
#115=VERTEX_POINT('',#201);
#116=PRODUCT('1','1','PART-1-DESC',(#202));
#117=PRODUCT_DEFINITION('NONE','NONE',#203,#2);
#118=AXIS2_PLACEMENT_3D('',#204,#205,#206);
#121=LENGTH_MEASURE_WITH_UNIT(LENGTH_MEASURE(1.0),#207);
#124=DIMENSIONAL_EXPONENTS(1.0,0.0,0.0,0.0,0.0,0.0,0.0);
#126=DIMENSIONAL_EXPONENTS(0.0,0.0,0.0,0.0,0.0,0.0,0.0);
#132=SURFACE_STYLE_USAGE(.BOTH.,#208);
#133=FACE_OUTER_BOUND('',#209,.T.);
#134=CYLINDRICAL_SURFACE('',#210,3.0);
#135=CURVE_STYLE('',#211,POSITIVE_LENGTH_MEASURE(1.0E-006),#212);
#136=LINE('',#213,#214);
#137=POINT_STYLE(' ',#215,POSITIVE_LENGTH_MEASURE(1.0E-006),#216);
#138=CARTESIAN_POINT('',(0.0,3.0,-0.399999999999999));
#139=POINT_STYLE(' ',#217,POSITIVE_LENGTH_MEASURE(1.0E-006),#218);
#140=CARTESIAN_POINT('',(0.0,3.0,-64.5575000013563));
#141=CURVE_STYLE('',#219,POSITIVE_LENGTH_MEASURE(1.0E-006),#220);
#142=CIRCLE('',#221,2.6);
#143=POINT_STYLE(' ',#222,POSITIVE_LENGTH_MEASURE(1.0E-006),#223);
#144=CARTESIAN_POINT('',(3.67381906146713E-016,-3.0,-0.399999999999999));
#145=SURFACE_STYLE_USAGE(.BOTH.,#224);
#146=FACE_OUTER_BOUND('',#225,.T.);
#147=PLANE('',#226);
#148=SURFACE_STYLE_USAGE(.BOTH.,#227);
#149=FACE_OUTER_BOUND('',#228,.T.);
#150=CONICAL_SURFACE('',#229,2.8,0.78539816339745);
#151=CURVE_STYLE('',#230,POSITIVE_LENGTH_MEASURE(1.0E-006),#231);
#152=CIRCLE('',#232,2.23356752);
#153=CURVE_STYLE('',#233,POSITIVE_LENGTH_MEASURE(1.0E-006),#234);
#154=CIRCLE('',#235,2.6);
#155=CURVE_STYLE('',#236,POSITIVE_LENGTH_MEASURE(1.0E-006),#237);
#156=LINE('',#238,#239);
#157=SURFACE_STYLE_USAGE(.BOTH.,#240);
#158=FACE_OUTER_BOUND('',#241,.T.);
#159=CONICAL_SURFACE('',#242,2.61678376,1.0471975511966);
#160=POINT_STYLE(' ',#243,POSITIVE_LENGTH_MEASURE(1.0E-006),#244);
#161=CARTESIAN_POINT('',(2.73524097668329E-016,-2.23356752,-65.0));
#162=SURFACE_STYLE_USAGE(.BOTH.,#245);
#163=FACE_OUTER_BOUND('',#246,.T.);
#164=PLANE('',#247);
#165=SURFACE_STYLE_USAGE(.BOTH.,#248);
#166=FACE_OUTER_BOUND('',#249,.T.);
#167=CONICAL_SURFACE('',#250,2.61678376,1.0471975511966);
#168=POINT_STYLE(' ',#251,POSITIVE_LENGTH_MEASURE(1.0E-006),#252);
#169=CARTESIAN_POINT('',(0.0,2.23356752,-65.0));
#170=CURVE_STYLE('',#253,POSITIVE_LENGTH_MEASURE(1.0E-006),#254);
#171=LINE('',#255,#256);
#172=CURVE_STYLE('',#257,POSITIVE_LENGTH_MEASURE(1.0E-006),#258);
#173=CIRCLE('',#259,3.0);
#174=POINT_STYLE(' ',#260,POSITIVE_LENGTH_MEASURE(1.0E-006),#261);
#175=CARTESIAN_POINT('',(3.18397651993818E-016,-2.6,0.0));
#176=CURVE_STYLE('',#262,POSITIVE_LENGTH_MEASURE(1.0E-006),#263);
#177=CIRCLE('',#264,3.0);
#178=SURFACE_STYLE_USAGE(.BOTH.,#265);
#179=CLOSED_SHELL('',(#55,#107,#77,#83,#67,#69,#111,#81));
#180=CURVE_STYLE('',#266,POSITIVE_LENGTH_MEASURE(1.0E-006),#267);
#181=CIRCLE('',#268,2.23356752);
#182=CURVE_STYLE('',#269,POSITIVE_LENGTH_MEASURE(1.0E-006),#270);
#183=LINE('',#271,#272);
#184=CURVE_STYLE('',#273,POSITIVE_LENGTH_MEASURE(1.0E-006),#274);
#185=CIRCLE('',#275,3.0);
#186=POINT_STYLE(' ',#276,POSITIVE_LENGTH_MEASURE(1.0E-006),#277);
#187=CARTESIAN_POINT('',(0.0,2.6,0.0));
#188=CURVE_STYLE('',#278,POSITIVE_LENGTH_MEASURE(1.0E-006),#279);
#189=LINE('',#280,#281);
#190=SURFACE_STYLE_USAGE(.BOTH.,#282);
#191=FACE_OUTER_BOUND('',#283,.T.);
#192=CONICAL_SURFACE('',#284,2.8,0.78539816339745);
#193=CURVE_STYLE('',#285,POSITIVE_LENGTH_MEASURE(1.0E-006),#286);
#194=CIRCLE('',#287,3.0);
#195=SURFACE_STYLE_USAGE(.BOTH.,#288);
#196=FACE_OUTER_BOUND('',#289,.T.);
#197=CYLINDRICAL_SURFACE('',#290,3.0);
#198=CURVE_STYLE('',#291,POSITIVE_LENGTH_MEASURE(1.0E-006),#292);
#199=LINE('',#293,#294);
#200=POINT_STYLE(' ',#295,POSITIVE_LENGTH_MEASURE(1.0E-006),#296);
#201=CARTESIAN_POINT('',(3.67381906146713E-016,-3.0,-64.5575000013563));
#202=PRODUCT_CONTEXT('',#41,'mechanical');
#203=PRODUCT_DEFINITION_FORMATION_WITH_SPECIFIED_SOURCE(' ','NONE',#116,.NOT_KNOWN.);
#204=CARTESIAN_POINT('',(0.0,0.0,0.0));
#205=DIRECTION('',(0.0,0.0,1.0));
#206=DIRECTION('',(1.0,0.0,0.0));
#207= (NAMED_UNIT(#124)LENGTH_UNIT()SI_UNIT(.MILLI.,.METRE.));
#208=SURFACE_SIDE_STYLE('',(#298));
#209=EDGE_LOOP('',(#299,#300,#301,#302));
#210=AXIS2_PLACEMENT_3D('',#303,#304,#305);
#211=DRAUGHTING_PRE_DEFINED_CURVE_FONT('continuous');
#212=COLOUR_RGB('',0.800000011920929,0.800000011920929,0.800000011920929);
#213=CARTESIAN_POINT('',(-3.20453001907521E-016,2.61678376,-64.7787500006782));
#214=VECTOR('',#306,1.0);
#215=PRE_DEFINED_MARKER('');
#216=COLOUR_RGB('',0.498039215803146,0.498039215803146,0.498039215803146);
#217=PRE_DEFINED_MARKER('');
#218=COLOUR_RGB('',0.800000011920929,0.800000011920929,0.800000011920929);
#219=DRAUGHTING_PRE_DEFINED_CURVE_FONT('continuous');
#220=COLOUR_RGB('',0.498039215803146,0.498039215803146,0.498039215803146);
#221=AXIS2_PLACEMENT_3D('',#307,#308,#309);
#222=PRE_DEFINED_MARKER('');
#223=COLOUR_RGB('',0.498039215803146,0.498039215803146,0.498039215803146);
#224=SURFACE_SIDE_STYLE('',(#310));
#225=EDGE_LOOP('',(#311,#312));
#226=AXIS2_PLACEMENT_3D('',#313,#314,#315);
#227=SURFACE_SIDE_STYLE('',(#316));
#228=EDGE_LOOP('',(#317,#318,#319,#320));
#229=AXIS2_PLACEMENT_3D('',#321,#322,#323);
#230=DRAUGHTING_PRE_DEFINED_CURVE_FONT('continuous');
#231=COLOUR_RGB('',0.498039215803146,0.498039215803146,0.498039215803146);
#232=AXIS2_PLACEMENT_3D('',#324,#325,#326);
#233=DRAUGHTING_PRE_DEFINED_CURVE_FONT('continuous');
#234=COLOUR_RGB('',0.498039215803146,0.498039215803146,0.498039215803146);
#235=AXIS2_PLACEMENT_3D('',#327,#328,#329);
#236=DRAUGHTING_PRE_DEFINED_CURVE_FONT('continuous');
#237=COLOUR_RGB('',0.498039215803146,0.498039215803146,0.498039215803146);
#238=CARTESIAN_POINT('',(3.42889779070266E-016,-2.8,-0.199999999999996));
#239=VECTOR('',#330,1.0);
#240=SURFACE_SIDE_STYLE('',(#331));
#241=EDGE_LOOP('',(#332,#333,#334,#335));
#242=AXIS2_PLACEMENT_3D('',#336,#337,#338);
#243=PRE_DEFINED_MARKER('');
#244=COLOUR_RGB('',0.498039215803146,0.498039215803146,0.498039215803146);
#245=SURFACE_SIDE_STYLE('',(#339));
#246=EDGE_LOOP('',(#340,#341));
#247=AXIS2_PLACEMENT_3D('',#342,#343,#344);
#248=SURFACE_SIDE_STYLE('',(#345));
#249=EDGE_LOOP('',(#346,#347,#348,#349));
#250=AXIS2_PLACEMENT_3D('',#350,#351,#352);
#251=PRE_DEFINED_MARKER('');
#252=COLOUR_RGB('',0.498039215803146,0.498039215803146,0.498039215803146);
#253=DRAUGHTING_PRE_DEFINED_CURVE_FONT('continuous');
#254=COLOUR_RGB('',0.498039215803146,0.498039215803146,0.498039215803146);
#255=CARTESIAN_POINT('',(-3.67381906146713E-016,3.0,-19.2));
#256=VECTOR('',#353,1.0);
#257=DRAUGHTING_PRE_DEFINED_CURVE_FONT('continuous');
#258=COLOUR_RGB('',0.800000011920929,0.800000011920929,0.800000011920929);
#259=AXIS2_PLACEMENT_3D('',#354,#355,#356);
#260=PRE_DEFINED_MARKER('');
#261=COLOUR_RGB('',0.498039215803146,0.498039215803146,0.498039215803146);
#262=DRAUGHTING_PRE_DEFINED_CURVE_FONT('continuous');
#263=COLOUR_RGB('',0.800000011920929,0.800000011920929,0.800000011920929);
#264=AXIS2_PLACEMENT_3D('',#357,#358,#359);
#265=SURFACE_SIDE_STYLE('',(#360));
#266=DRAUGHTING_PRE_DEFINED_CURVE_FONT('continuous');
#267=COLOUR_RGB('',0.498039215803146,0.498039215803146,0.498039215803146);
#268=AXIS2_PLACEMENT_3D('',#361,#362,#363);
#269=DRAUGHTING_PRE_DEFINED_CURVE_FONT('continuous');
#270=COLOUR_RGB('',0.498039215803146,0.498039215803146,0.498039215803146);
#271=CARTESIAN_POINT('',(-3.42889779070266E-016,2.8,-0.199999999999996));
#272=VECTOR('',#364,1.0);
#273=DRAUGHTING_PRE_DEFINED_CURVE_FONT('continuous');
#274=COLOUR_RGB('',0.498039215803146,0.498039215803146,0.498039215803146);
#275=AXIS2_PLACEMENT_3D('',#365,#366,#367);
#276=PRE_DEFINED_MARKER('');
#277=COLOUR_RGB('',0.498039215803146,0.498039215803146,0.498039215803146);
#278=DRAUGHTING_PRE_DEFINED_CURVE_FONT('continuous');
#279=COLOUR_RGB('',0.800000011920929,0.800000011920929,0.800000011920929);
#280=CARTESIAN_POINT('',(3.20453001907521E-016,-2.61678376,-64.7787500006782));
#281=VECTOR('',#368,1.0);
#282=SURFACE_SIDE_STYLE('',(#369));
#283=EDGE_LOOP('',(#370,#371,#372,#373));
#284=AXIS2_PLACEMENT_3D('',#374,#375,#376);
#285=DRAUGHTING_PRE_DEFINED_CURVE_FONT('continuous');
#286=COLOUR_RGB('',0.498039215803146,0.498039215803146,0.498039215803146);
#287=AXIS2_PLACEMENT_3D('',#377,#378,#379);
#288=SURFACE_SIDE_STYLE('',(#380));
#289=EDGE_LOOP('',(#381,#382,#383,#384));
#290=AXIS2_PLACEMENT_3D('',#385,#386,#387);
#291=DRAUGHTING_PRE_DEFINED_CURVE_FONT('continuous');
#292=COLOUR_RGB('',0.498039215803146,0.498039215803146,0.498039215803146);
#293=CARTESIAN_POINT('',(3.67381906146713E-016,-3.0,-19.2));
#294=VECTOR('',#388,1.0);
#295=PRE_DEFINED_MARKER('');
#296=COLOUR_RGB('',0.800000011920929,0.800000011920929,0.800000011920929);
#298=SURFACE_STYLE_FILL_AREA(#389);
#299=ORIENTED_EDGE('',*,*,#87,.F.);
#300=ORIENTED_EDGE('',*,*,#109,.T.);
#301=ORIENTED_EDGE('',*,*,#113,.F.);
#302=ORIENTED_EDGE('',*,*,#89,.F.);
#303=CARTESIAN_POINT('',(0.0,0.0,-19.2));
#304=DIRECTION('',(-0.0,-0.0,1.0));
#305=DIRECTION('',(0.0,1.0,0.0));
#306=DIRECTION('',(1.06054021204601E-016,-0.866025403784439,-0.5));
#307=CARTESIAN_POINT('',(0.0,0.0,0.0));
#308=DIRECTION('',(0.0,0.0,-1.0));
#309=DIRECTION('',(0.0,1.0,0.0));
#310=SURFACE_STYLE_FILL_AREA(#390);
#311=ORIENTED_EDGE('',*,*,#73,.F.);
#312=ORIENTED_EDGE('',*,*,#63,.F.);
#313=CARTESIAN_POINT('',(0.0,1.3,0.0));
#314=DIRECTION('',(-0.0,0.0,1.0));
#315=DIRECTION('',(0.0,-1.0,0.0));
#316=SURFACE_STYLE_FILL_AREA(#391);
#317=ORIENTED_EDGE('',*,*,#99,.T.);
#318=ORIENTED_EDGE('',*,*,#101,.F.);
#319=ORIENTED_EDGE('',*,*,#75,.T.);
#320=ORIENTED_EDGE('',*,*,#63,.T.);
#321=CARTESIAN_POINT('',(0.0,0.0,-0.199999999999996));
#322=DIRECTION('',(0.0,-0.0,-1.0));
#323=DIRECTION('',(0.0,1.0,0.0));
#324=CARTESIAN_POINT('',(0.0,0.0,-65.0));
#325=DIRECTION('',(0.0,0.0,-1.0));
#326=DIRECTION('',(0.0,1.0,0.0));
#327=CARTESIAN_POINT('',(0.0,0.0,0.0));
#328=DIRECTION('',(0.0,0.0,-1.0));
#329=DIRECTION('',(0.0,1.0,0.0));
#330=DIRECTION('',(-8.65927457071937E-017,0.707106781186549,0.707106781186546));
#331=SURFACE_STYLE_FILL_AREA(#392);
#332=ORIENTED_EDGE('',*,*,#57,.F.);
#333=ORIENTED_EDGE('',*,*,#89,.T.);
#334=ORIENTED_EDGE('',*,*,#105,.F.);
#335=ORIENTED_EDGE('',*,*,#71,.F.);
#336=CARTESIAN_POINT('',(0.0,0.0,-64.7787500006782));
#337=DIRECTION('',(-0.0,-0.0,1.0));
#338=DIRECTION('',(0.0,1.0,0.0));
#339=SURFACE_STYLE_FILL_AREA(#393);
#340=ORIENTED_EDGE('',*,*,#71,.T.);
#341=ORIENTED_EDGE('',*,*,#97,.T.);
#342=CARTESIAN_POINT('',(0.0,1.11678376,-65.0));
#343=DIRECTION('',(0.0,0.0,-1.0));
#344=DIRECTION('',(0.0,1.0,0.0));
#345=SURFACE_STYLE_FILL_AREA(#394);
#346=ORIENTED_EDGE('',*,*,#57,.T.);
#347=ORIENTED_EDGE('',*,*,#97,.F.);
#348=ORIENTED_EDGE('',*,*,#105,.T.);
#349=ORIENTED_EDGE('',*,*,#93,.T.);
#350=CARTESIAN_POINT('',(0.0,0.0,-64.7787500006782));
#351=DIRECTION('',(-0.0,-0.0,1.0));
#352=DIRECTION('',(0.0,1.0,0.0));
#353=DIRECTION('',(0.0,0.0,-1.0));
#354=CARTESIAN_POINT('',(0.0,0.0,-64.5575000013563));
#355=DIRECTION('',(0.0,0.0,-1.0));
#356=DIRECTION('',(0.0,1.0,0.0));
#357=CARTESIAN_POINT('',(0.0,0.0,-64.5575000013563));
#358=DIRECTION('',(0.0,0.0,-1.0));
#359=DIRECTION('',(0.0,1.0,0.0));
#360=SURFACE_STYLE_FILL_AREA(#395);
#361=CARTESIAN_POINT('',(0.0,0.0,-65.0));
#362=DIRECTION('',(0.0,0.0,-1.0));
#363=DIRECTION('',(0.0,1.0,0.0));
#364=DIRECTION('',(-8.65927457071937E-017,0.707106781186549,-0.707106781186546));
#365=CARTESIAN_POINT('',(0.0,0.0,-0.399999999999999));
#366=DIRECTION('',(0.0,0.0,-1.0));
#367=DIRECTION('',(0.0,1.0,0.0));
#368=DIRECTION('',(1.06054021204601E-016,-0.866025403784439,0.5));
#369=SURFACE_STYLE_FILL_AREA(#396);
#370=ORIENTED_EDGE('',*,*,#99,.F.);
#371=ORIENTED_EDGE('',*,*,#73,.T.);
#372=ORIENTED_EDGE('',*,*,#75,.F.);
#373=ORIENTED_EDGE('',*,*,#109,.F.);
#374=CARTESIAN_POINT('',(0.0,0.0,-0.199999999999996));
#375=DIRECTION('',(0.0,-0.0,-1.0));
#376=DIRECTION('',(0.0,1.0,0.0));
#377=CARTESIAN_POINT('',(0.0,0.0,-0.399999999999999));
#378=DIRECTION('',(0.0,0.0,-1.0));
#379=DIRECTION('',(0.0,1.0,0.0));
#380=SURFACE_STYLE_FILL_AREA(#397);
#381=ORIENTED_EDGE('',*,*,#87,.T.);
#382=ORIENTED_EDGE('',*,*,#93,.F.);
#383=ORIENTED_EDGE('',*,*,#113,.T.);
#384=ORIENTED_EDGE('',*,*,#101,.T.);
#385=CARTESIAN_POINT('',(0.0,0.0,-19.2));
#386=DIRECTION('',(-0.0,-0.0,1.0));
#387=DIRECTION('',(0.0,1.0,0.0));
#388=DIRECTION('',(-0.0,-0.0,1.0));
#389=FILL_AREA_STYLE('',(#398));
#390=FILL_AREA_STYLE('',(#399));
#391=FILL_AREA_STYLE('',(#400));
#392=FILL_AREA_STYLE('',(#401));
#393=FILL_AREA_STYLE('',(#402));
#394=FILL_AREA_STYLE('',(#403));
#395=FILL_AREA_STYLE('',(#404));
#396=FILL_AREA_STYLE('',(#405));
#397=FILL_AREA_STYLE('',(#406));
#398=FILL_AREA_STYLE_COLOUR('',#407);
#399=FILL_AREA_STYLE_COLOUR('',#408);
#400=FILL_AREA_STYLE_COLOUR('',#409);
#401=FILL_AREA_STYLE_COLOUR('',#410);
#402=FILL_AREA_STYLE_COLOUR('',#411);
#403=FILL_AREA_STYLE_COLOUR('',#412);
#404=FILL_AREA_STYLE_COLOUR('',#413);
#405=FILL_AREA_STYLE_COLOUR('',#414);
#406=FILL_AREA_STYLE_COLOUR('',#415);
#407=COLOUR_RGB('',0.498039215803146,0.498039215803146,0.498039215803146);
#408=COLOUR_RGB('',0.498039215803146,0.498039215803146,0.498039215803146);
#409=COLOUR_RGB('',0.498039215803146,0.498039215803146,0.498039215803146);
#410=COLOUR_RGB('',0.800000011920929,0.800000011920929,0.800000011920929);
#411=COLOUR_RGB('',0.498039215803146,0.498039215803146,0.498039215803146);
#412=COLOUR_RGB('',0.800000011920929,0.800000011920929,0.800000011920929);
#413=COLOUR_RGB('',0.498039215803146,0.498039215803146,0.498039215803146);
#414=COLOUR_RGB('',0.498039215803146,0.498039215803146,0.498039215803146);
#415=COLOUR_RGB('',0.498039215803146,0.498039215803146,0.498039215803146);
#416=AXIS2_PLACEMENT_3D('PCS',#417,#418,#419);
#417=CARTESIAN_POINT('',(0.0,0.0,0.0));
#418=DIRECTION('',(0.0,0.0,1.0));
#419=DIRECTION('',(1.0,0.0,0.0));
#420=AXIS2_PLACEMENT_3D('CIP',#421,#422,#423);
#421=CARTESIAN_POINT('',(0.0,0.0,-65.0));
#422=DIRECTION('',(0.0,0.0,1.0));
#423=DIRECTION('',(1.0,0.0,0.0));
#424=AXIS2_PLACEMENT_3D('CRP',#425,#426,#427);
#425=CARTESIAN_POINT('',(-3.0,0.0,-65.0));
#426=DIRECTION('',(0.0,0.0,1.0));
#427=DIRECTION('',(1.0,0.0,0.0));
#428=AXIS2_PLACEMENT_3D('MCS',#429,#430,#431);
#429=CARTESIAN_POINT('',(0.0,0.0,-38.0));
#430=DIRECTION('',(0.0,0.0,1.0));
#431=DIRECTION('',(1.0,0.0,0.0));
#432=CONSTRUCTIVE_GEOMETRY_REPRESENTATION_RELATIONSHIP('coordinate systems',$,#45,#433);
#433=CONSTRUCTIVE_GEOMETRY_REPRESENTATION('coordinate systems',(#416,#420,#424,#428),#6);
ENDSEC;
END-ISO-10303-21;
