ISO-10303-21;
HEADER;
FILE_DESCRIPTION(('no description'),'unknown implementation level');
FILE_NAME('solidnPz7ox1KOxi40q4ap5B3_pjlcyA_1.STP','  ',('CIMSOURCE GmbH'),('CADClick - KiM GmbH - www.kimweb.de'),'unknown preprocess','ACIS','unknown authorization');
FILE_SCHEMA(('automotive_design'));
ENDSEC;
DATA;
#1=MECHANICAL_DESIGN_GEOMETRIC_PRESENTATION_REPRESENTATION(' ',(#10,#11,#12,#13,#14,#15,#16,#17,#18,#19,#20,#21,#22,#23,#24,#25,#26,#27,#28,#29,#30,#31,#32,#33,#34,#35,#36,#37,#38,#39,#40),#6);
#2=PRODUCT_DEFINITION_CONTEXT('',#41,'design');
#3=APPLICATION_PROTOCOL_DEFINITION('INTERNATIONAL STANDARD','automotive_design',1994,#41);
#4=PRODUCT_CATEGORY_RELATIONSHIP('NONE','NONE',#42,#43);
#5=SHAPE_DEFINITION_REPRESENTATION(#44,#45);
#6= (GEOMETRIC_REPRESENTATION_CONTEXT(3)GLOBAL_UNCERTAINTY_ASSIGNED_CONTEXT((#48))GLOBAL_UNIT_ASSIGNED_CONTEXT((#50,#51,#52))REPRESENTATION_CONTEXT('NONE','WORKSPACE'));
#10=STYLED_ITEM('',(#54),#55);
#11=STYLED_ITEM('',(#56),#57);
#12=STYLED_ITEM('',(#58),#59);
#13=STYLED_ITEM('',(#60),#61);
#14=STYLED_ITEM('',(#62),#63);
#15=STYLED_ITEM('',(#64),#65);
#16=STYLED_ITEM('',(#66),#67);
#17=STYLED_ITEM('',(#68),#69);
#18=STYLED_ITEM('',(#70),#71);
#19=STYLED_ITEM('',(#72),#73);
#20=STYLED_ITEM('',(#74),#75);
#21=STYLED_ITEM('',(#76),#77);
#22=STYLED_ITEM('',(#78),#79);
#23=STYLED_ITEM('',(#80),#81);
#24=STYLED_ITEM('',(#82),#83);
#25=STYLED_ITEM('',(#84),#85);
#26=STYLED_ITEM('',(#86),#87);
#27=STYLED_ITEM('',(#88),#89);
#28=STYLED_ITEM('',(#90),#91);
#29=STYLED_ITEM('',(#92),#93);
#30=STYLED_ITEM('',(#94),#95);
#31=STYLED_ITEM('',(#96),#97);
#32=STYLED_ITEM('',(#98),#99);
#33=STYLED_ITEM('',(#100),#101);
#34=STYLED_ITEM('',(#102),#103);
#35=STYLED_ITEM('',(#104),#105);
#36=STYLED_ITEM('',(#106),#107);
#37=STYLED_ITEM('',(#108),#109);
#38=STYLED_ITEM('',(#110),#111);
#39=STYLED_ITEM('',(#112),#113);
#40=STYLED_ITEM('',(#114),#115);
#41=APPLICATION_CONTEXT(' ');
#42=PRODUCT_CATEGORY('part','NONE');
#43=PRODUCT_RELATED_PRODUCT_CATEGORY('detail',' ',(#116));
#44=PRODUCT_DEFINITION_SHAPE('NONE','NONE',#117);
#45=ADVANCED_BREP_SHAPE_REPRESENTATION('1',(#75,#118),#6);
#48=UNCERTAINTY_MEASURE_WITH_UNIT(LENGTH_MEASURE(1.0E-006),#50,'','');
#50= (CONVERSION_BASED_UNIT('MILLIMETRE',#121)LENGTH_UNIT()NAMED_UNIT(#124));
#51= (NAMED_UNIT(#126)PLANE_ANGLE_UNIT()SI_UNIT($,.RADIAN.));
#52= (NAMED_UNIT(#126)SOLID_ANGLE_UNIT()SI_UNIT($,.STERADIAN.));
#54=PRESENTATION_STYLE_ASSIGNMENT((#132));
#55=EDGE_CURVE('',#93,#107,#133,.T.);
#56=PRESENTATION_STYLE_ASSIGNMENT((#134));
#57=ADVANCED_FACE('',(#135),#136,.T.);
#58=PRESENTATION_STYLE_ASSIGNMENT((#137));
#59=EDGE_CURVE('',#79,#93,#138,.T.);
#60=PRESENTATION_STYLE_ASSIGNMENT((#139));
#61=VERTEX_POINT('',#140);
#62=PRESENTATION_STYLE_ASSIGNMENT((#141));
#63=ADVANCED_FACE('',(#142),#143,.T.);
#64=PRESENTATION_STYLE_ASSIGNMENT((#144));
#65=ADVANCED_FACE('',(#145),#146,.T.);
#66=PRESENTATION_STYLE_ASSIGNMENT((#147));
#67=EDGE_CURVE('',#115,#79,#148,.T.);
#68=PRESENTATION_STYLE_ASSIGNMENT((#149));
#69=ADVANCED_FACE('',(#150),#151,.T.);
#70=PRESENTATION_STYLE_ASSIGNMENT((#152));
#71=EDGE_CURVE('',#113,#93,#153,.T.);
#72=PRESENTATION_STYLE_ASSIGNMENT((#154));
#73=ADVANCED_FACE('',(#155),#156,.T.);
#74=PRESENTATION_STYLE_ASSIGNMENT((#157));
#75=MANIFOLD_SOLID_BREP('1',#158);
#76=PRESENTATION_STYLE_ASSIGNMENT((#159));
#77=EDGE_CURVE('',#107,#111,#160,.T.);
#78=PRESENTATION_STYLE_ASSIGNMENT((#161));
#79=VERTEX_POINT('',#162);
#80=PRESENTATION_STYLE_ASSIGNMENT((#163));
#81=EDGE_CURVE('',#113,#115,#164,.T.);
#82=PRESENTATION_STYLE_ASSIGNMENT((#165));
#83=EDGE_CURVE('',#61,#111,#166,.T.);
#84=PRESENTATION_STYLE_ASSIGNMENT((#167));
#85=ADVANCED_FACE('',(#168),#169,.T.);
#86=PRESENTATION_STYLE_ASSIGNMENT((#170));
#87=ADVANCED_FACE('',(#171),#172,.T.);
#88=PRESENTATION_STYLE_ASSIGNMENT((#173));
#89=VERTEX_POINT('',#174);
#90=PRESENTATION_STYLE_ASSIGNMENT((#175));
#91=EDGE_CURVE('',#111,#113,#176,.T.);
#92=PRESENTATION_STYLE_ASSIGNMENT((#177));
#93=VERTEX_POINT('',#178);
#94=PRESENTATION_STYLE_ASSIGNMENT((#179));
#95=EDGE_CURVE('',#111,#107,#180,.T.);
#96=PRESENTATION_STYLE_ASSIGNMENT((#181));
#97=ADVANCED_FACE('',(#182),#183,.T.);
#98=PRESENTATION_STYLE_ASSIGNMENT((#184));
#99=EDGE_CURVE('',#61,#89,#185,.T.);
#100=PRESENTATION_STYLE_ASSIGNMENT((#186));
#101=EDGE_CURVE('',#107,#89,#187,.T.);
#102=PRESENTATION_STYLE_ASSIGNMENT((#188));
#103=EDGE_CURVE('',#93,#113,#189,.T.);
#104=PRESENTATION_STYLE_ASSIGNMENT((#190));
#105=EDGE_CURVE('',#89,#61,#191,.T.);
#106=PRESENTATION_STYLE_ASSIGNMENT((#192));
#107=VERTEX_POINT('',#193);
#108=PRESENTATION_STYLE_ASSIGNMENT((#194));
#109=EDGE_CURVE('',#79,#115,#195,.T.);
#110=PRESENTATION_STYLE_ASSIGNMENT((#196));
#111=VERTEX_POINT('',#197);
#112=PRESENTATION_STYLE_ASSIGNMENT((#198));
#113=VERTEX_POINT('',#199);
#114=PRESENTATION_STYLE_ASSIGNMENT((#200));
#115=VERTEX_POINT('',#201);
#116=PRODUCT('1','1','PART-1-DESC',(#202));
#117=PRODUCT_DEFINITION('NONE','NONE',#203,#2);
#118=AXIS2_PLACEMENT_3D('',#204,#205,#206);
#121=LENGTH_MEASURE_WITH_UNIT(LENGTH_MEASURE(1.0),#207);
#124=DIMENSIONAL_EXPONENTS(1.0,0.0,0.0,0.0,0.0,0.0,0.0);
#126=DIMENSIONAL_EXPONENTS(0.0,0.0,0.0,0.0,0.0,0.0,0.0);
#132=CURVE_STYLE('',#208,POSITIVE_LENGTH_MEASURE(1.0E-006),#209);
#133=LINE('',#210,#211);
#134=SURFACE_STYLE_USAGE(.BOTH.,#212);
#135=FACE_OUTER_BOUND('',#213,.T.);
#136=CYLINDRICAL_SURFACE('',#214,5.0);
#137=CURVE_STYLE('',#215,POSITIVE_LENGTH_MEASURE(1.0E-006),#216);
#138=LINE('',#217,#218);
#139=POINT_STYLE(' ',#219,POSITIVE_LENGTH_MEASURE(1.0E-006),#220);
#140=CARTESIAN_POINT('',(0.0,4.5,0.0));
#141=SURFACE_STYLE_USAGE(.BOTH.,#221);
#142=FACE_OUTER_BOUND('',#222,.T.);
#143=CONICAL_SURFACE('',#223,4.54014051,1.0471975511966);
#144=SURFACE_STYLE_USAGE(.BOTH.,#224);
#145=FACE_OUTER_BOUND('',#225,.T.);
#146=PLANE('',#226);
#147=CURVE_STYLE('',#227,POSITIVE_LENGTH_MEASURE(1.0E-006),#228);
#148=CIRCLE('',#229,4.08028102);
#149=SURFACE_STYLE_USAGE(.BOTH.,#230);
#150=FACE_OUTER_BOUND('',#231,.T.);
#151=PLANE('',#232);
#152=CURVE_STYLE('',#233,POSITIVE_LENGTH_MEASURE(1.0E-006),#234);
#153=CIRCLE('',#235,5.0);
#154=SURFACE_STYLE_USAGE(.BOTH.,#236);
#155=FACE_OUTER_BOUND('',#237,.T.);
#156=CYLINDRICAL_SURFACE('',#238,5.0);
#157=SURFACE_STYLE_USAGE(.BOTH.,#239);
#158=CLOSED_SHELL('',(#73,#97,#63,#87,#69,#85,#57,#65));
#159=CURVE_STYLE('',#240,POSITIVE_LENGTH_MEASURE(1.0E-006),#241);
#160=CIRCLE('',#242,5.0);
#161=POINT_STYLE(' ',#243,POSITIVE_LENGTH_MEASURE(1.0E-006),#244);
#162=CARTESIAN_POINT('',(4.99673806247285E-016,-4.08028102,-85.0));
#163=CURVE_STYLE('',#245,POSITIVE_LENGTH_MEASURE(1.0E-006),#246);
#164=LINE('',#247,#248);
#165=CURVE_STYLE('',#249,POSITIVE_LENGTH_MEASURE(1.0E-006),#250);
#166=LINE('',#251,#252);
#167=SURFACE_STYLE_USAGE(.BOTH.,#253);
#168=FACE_OUTER_BOUND('',#254,.T.);
#169=CONICAL_SURFACE('',#255,4.75,0.785398163397448);
#170=SURFACE_STYLE_USAGE(.BOTH.,#256);
#171=FACE_OUTER_BOUND('',#257,.T.);
#172=CONICAL_SURFACE('',#258,4.54014051,1.0471975511966);
#173=POINT_STYLE(' ',#259,POSITIVE_LENGTH_MEASURE(1.0E-006),#260);
#174=CARTESIAN_POINT('',(5.5107285922007E-016,-4.5,0.0));
#175=CURVE_STYLE('',#261,POSITIVE_LENGTH_MEASURE(1.0E-006),#262);
#176=LINE('',#263,#264);
#177=POINT_STYLE(' ',#265,POSITIVE_LENGTH_MEASURE(1.0E-006),#266);
#178=CARTESIAN_POINT('',(6.12303176911189E-016,-5.0,-84.4689999993182));
#179=CURVE_STYLE('',#267,POSITIVE_LENGTH_MEASURE(1.0E-006),#268);
#180=CIRCLE('',#269,5.0);
#181=SURFACE_STYLE_USAGE(.BOTH.,#270);
#182=FACE_OUTER_BOUND('',#271,.T.);
#183=CONICAL_SURFACE('',#272,4.75,0.785398163397448);
#184=CURVE_STYLE('',#273,POSITIVE_LENGTH_MEASURE(1.0E-006),#274);
#185=CIRCLE('',#275,4.5);
#186=CURVE_STYLE('',#276,POSITIVE_LENGTH_MEASURE(1.0E-006),#277);
#187=LINE('',#278,#279);
#188=CURVE_STYLE('',#280,POSITIVE_LENGTH_MEASURE(1.0E-006),#281);
#189=CIRCLE('',#282,5.0);
#190=CURVE_STYLE('',#283,POSITIVE_LENGTH_MEASURE(1.0E-006),#284);
#191=CIRCLE('',#285,4.5);
#192=POINT_STYLE(' ',#286,POSITIVE_LENGTH_MEASURE(1.0E-006),#287);
#193=CARTESIAN_POINT('',(6.12303176911189E-016,-5.0,-0.5));
#194=CURVE_STYLE('',#288,POSITIVE_LENGTH_MEASURE(1.0E-006),#289);
#195=CIRCLE('',#290,4.08028102);
#196=POINT_STYLE(' ',#291,POSITIVE_LENGTH_MEASURE(1.0E-006),#292);
#197=CARTESIAN_POINT('',(0.0,5.0,-0.5));
#198=POINT_STYLE(' ',#293,POSITIVE_LENGTH_MEASURE(1.0E-006),#294);
#199=CARTESIAN_POINT('',(0.0,5.0,-84.4689999993182));
#200=POINT_STYLE(' ',#295,POSITIVE_LENGTH_MEASURE(1.0E-006),#296);
#201=CARTESIAN_POINT('',(0.0,4.08028102,-85.0));
#202=PRODUCT_CONTEXT('',#41,'mechanical');
#203=PRODUCT_DEFINITION_FORMATION_WITH_SPECIFIED_SOURCE(' ','NONE',#116,.NOT_KNOWN.);
#204=CARTESIAN_POINT('',(0.0,0.0,0.0));
#205=DIRECTION('',(0.0,0.0,1.0));
#206=DIRECTION('',(1.0,0.0,0.0));
#207= (NAMED_UNIT(#124)LENGTH_UNIT()SI_UNIT(.MILLI.,.METRE.));
#208=DRAUGHTING_PRE_DEFINED_CURVE_FONT('continuous');
#209=COLOUR_RGB('',0.498039215803146,0.498039215803146,0.498039215803146);
#210=CARTESIAN_POINT('',(6.12303176911189E-016,-5.0,-22.75));
#211=VECTOR('',#298,1.0);
#212=SURFACE_SIDE_STYLE('',(#299));
#213=EDGE_LOOP('',(#300,#301,#302,#303));
#214=AXIS2_PLACEMENT_3D('',#304,#305,#306);
#215=DRAUGHTING_PRE_DEFINED_CURVE_FONT('continuous');
#216=COLOUR_RGB('',0.800000011920929,0.800000011920929,0.800000011920929);
#217=CARTESIAN_POINT('',(5.55988491579237E-016,-4.54014051,-84.7344999996591));
#218=VECTOR('',#307,1.0);
#219=PRE_DEFINED_MARKER('');
#220=COLOUR_RGB('',0.498039215803146,0.498039215803146,0.498039215803146);
#221=SURFACE_SIDE_STYLE('',(#308));
#222=EDGE_LOOP('',(#309,#310,#311,#312));
#223=AXIS2_PLACEMENT_3D('',#313,#314,#315);
#224=SURFACE_SIDE_STYLE('',(#316));
#225=EDGE_LOOP('',(#317,#318));
#226=AXIS2_PLACEMENT_3D('',#319,#320,#321);
#227=DRAUGHTING_PRE_DEFINED_CURVE_FONT('continuous');
#228=COLOUR_RGB('',0.498039215803146,0.498039215803146,0.498039215803146);
#229=AXIS2_PLACEMENT_3D('',#322,#323,#324);
#230=SURFACE_SIDE_STYLE('',(#325));
#231=EDGE_LOOP('',(#326,#327));
#232=AXIS2_PLACEMENT_3D('',#328,#329,#330);
#233=DRAUGHTING_PRE_DEFINED_CURVE_FONT('continuous');
#234=COLOUR_RGB('',0.800000011920929,0.800000011920929,0.800000011920929);
#235=AXIS2_PLACEMENT_3D('',#331,#332,#333);
#236=SURFACE_SIDE_STYLE('',(#334));
#237=EDGE_LOOP('',(#335,#336,#337,#338));
#238=AXIS2_PLACEMENT_3D('',#339,#340,#341);
#239=SURFACE_SIDE_STYLE('',(#342));
#240=DRAUGHTING_PRE_DEFINED_CURVE_FONT('continuous');
#241=COLOUR_RGB('',0.498039215803146,0.498039215803146,0.498039215803146);
#242=AXIS2_PLACEMENT_3D('',#343,#344,#345);
#243=PRE_DEFINED_MARKER('');
#244=COLOUR_RGB('',0.498039215803146,0.498039215803146,0.498039215803146);
#245=DRAUGHTING_PRE_DEFINED_CURVE_FONT('continuous');
#246=COLOUR_RGB('',0.800000011920929,0.800000011920929,0.800000011920929);
#247=CARTESIAN_POINT('',(-5.55988491579237E-016,4.54014051,-84.7344999996591));
#248=VECTOR('',#346,1.0);
#249=DRAUGHTING_PRE_DEFINED_CURVE_FONT('continuous');
#250=COLOUR_RGB('',0.498039215803146,0.498039215803146,0.498039215803146);
#251=CARTESIAN_POINT('',(-5.81688018065629E-016,4.75,-0.25));
#252=VECTOR('',#347,1.0);
#253=SURFACE_SIDE_STYLE('',(#348));
#254=EDGE_LOOP('',(#349,#350,#351,#352));
#255=AXIS2_PLACEMENT_3D('',#353,#354,#355);
#256=SURFACE_SIDE_STYLE('',(#356));
#257=EDGE_LOOP('',(#357,#358,#359,#360));
#258=AXIS2_PLACEMENT_3D('',#361,#362,#363);
#259=PRE_DEFINED_MARKER('');
#260=COLOUR_RGB('',0.498039215803146,0.498039215803146,0.498039215803146);
#261=DRAUGHTING_PRE_DEFINED_CURVE_FONT('continuous');
#262=COLOUR_RGB('',0.498039215803146,0.498039215803146,0.498039215803146);
#263=CARTESIAN_POINT('',(-6.12303176911189E-016,5.0,-22.75));
#264=VECTOR('',#364,1.0);
#265=PRE_DEFINED_MARKER('');
#266=COLOUR_RGB('',0.800000011920929,0.800000011920929,0.800000011920929);
#267=DRAUGHTING_PRE_DEFINED_CURVE_FONT('continuous');
#268=COLOUR_RGB('',0.498039215803146,0.498039215803146,0.498039215803146);
#269=AXIS2_PLACEMENT_3D('',#365,#366,#367);
#270=SURFACE_SIDE_STYLE('',(#368));
#271=EDGE_LOOP('',(#369,#370,#371,#372));
#272=AXIS2_PLACEMENT_3D('',#373,#374,#375);
#273=DRAUGHTING_PRE_DEFINED_CURVE_FONT('continuous');
#274=COLOUR_RGB('',0.498039215803146,0.498039215803146,0.498039215803146);
#275=AXIS2_PLACEMENT_3D('',#376,#377,#378);
#276=DRAUGHTING_PRE_DEFINED_CURVE_FONT('continuous');
#277=COLOUR_RGB('',0.498039215803146,0.498039215803146,0.498039215803146);
#278=CARTESIAN_POINT('',(5.81688018065629E-016,-4.75,-0.25));
#279=VECTOR('',#379,1.0);
#280=DRAUGHTING_PRE_DEFINED_CURVE_FONT('continuous');
#281=COLOUR_RGB('',0.800000011920929,0.800000011920929,0.800000011920929);
#282=AXIS2_PLACEMENT_3D('',#380,#381,#382);
#283=DRAUGHTING_PRE_DEFINED_CURVE_FONT('continuous');
#284=COLOUR_RGB('',0.498039215803146,0.498039215803146,0.498039215803146);
#285=AXIS2_PLACEMENT_3D('',#383,#384,#385);
#286=PRE_DEFINED_MARKER('');
#287=COLOUR_RGB('',0.498039215803146,0.498039215803146,0.498039215803146);
#288=DRAUGHTING_PRE_DEFINED_CURVE_FONT('continuous');
#289=COLOUR_RGB('',0.498039215803146,0.498039215803146,0.498039215803146);
#290=AXIS2_PLACEMENT_3D('',#386,#387,#388);
#291=PRE_DEFINED_MARKER('');
#292=COLOUR_RGB('',0.498039215803146,0.498039215803146,0.498039215803146);
#293=PRE_DEFINED_MARKER('');
#294=COLOUR_RGB('',0.800000011920929,0.800000011920929,0.800000011920929);
#295=PRE_DEFINED_MARKER('');
#296=COLOUR_RGB('',0.498039215803146,0.498039215803146,0.498039215803146);
#298=DIRECTION('',(-0.0,-0.0,1.0));
#299=SURFACE_STYLE_FILL_AREA(#389);
#300=ORIENTED_EDGE('',*,*,#91,.T.);
#301=ORIENTED_EDGE('',*,*,#103,.F.);
#302=ORIENTED_EDGE('',*,*,#55,.T.);
#303=ORIENTED_EDGE('',*,*,#77,.T.);
#304=CARTESIAN_POINT('',(0.0,0.0,-22.75));
#305=DIRECTION('',(-0.0,-0.0,1.0));
#306=DIRECTION('',(0.0,1.0,0.0));
#307=DIRECTION('',(1.06054021204601E-016,-0.866025403784439,0.5));
#308=SURFACE_STYLE_FILL_AREA(#390);
#309=ORIENTED_EDGE('',*,*,#81,.F.);
#310=ORIENTED_EDGE('',*,*,#71,.T.);
#311=ORIENTED_EDGE('',*,*,#59,.F.);
#312=ORIENTED_EDGE('',*,*,#67,.F.);
#313=CARTESIAN_POINT('',(0.0,0.0,-84.7344999996591));
#314=DIRECTION('',(-0.0,-0.0,1.0));
#315=DIRECTION('',(0.0,1.0,0.0));
#316=SURFACE_STYLE_FILL_AREA(#391);
#317=ORIENTED_EDGE('',*,*,#67,.T.);
#318=ORIENTED_EDGE('',*,*,#109,.T.);
#319=CARTESIAN_POINT('',(0.0,2.04014051,-85.0));
#320=DIRECTION('',(0.0,0.0,-1.0));
#321=DIRECTION('',(0.0,1.0,0.0));
#322=CARTESIAN_POINT('',(0.0,0.0,-85.0));
#323=DIRECTION('',(0.0,0.0,-1.0));
#324=DIRECTION('',(0.0,1.0,0.0));
#325=SURFACE_STYLE_FILL_AREA(#392);
#326=ORIENTED_EDGE('',*,*,#99,.F.);
#327=ORIENTED_EDGE('',*,*,#105,.F.);
#328=CARTESIAN_POINT('',(0.0,2.25,0.0));
#329=DIRECTION('',(-0.0,0.0,1.0));
#330=DIRECTION('',(0.0,-1.0,0.0));
#331=CARTESIAN_POINT('',(0.0,0.0,-84.4689999993182));
#332=DIRECTION('',(0.0,0.0,-1.0));
#333=DIRECTION('',(0.0,1.0,0.0));
#334=SURFACE_STYLE_FILL_AREA(#393);
#335=ORIENTED_EDGE('',*,*,#91,.F.);
#336=ORIENTED_EDGE('',*,*,#95,.T.);
#337=ORIENTED_EDGE('',*,*,#55,.F.);
#338=ORIENTED_EDGE('',*,*,#71,.F.);
#339=CARTESIAN_POINT('',(0.0,0.0,-22.75));
#340=DIRECTION('',(-0.0,-0.0,1.0));
#341=DIRECTION('',(0.0,1.0,0.0));
#342=SURFACE_STYLE_FILL_AREA(#394);
#343=CARTESIAN_POINT('',(0.0,0.0,-0.5));
#344=DIRECTION('',(0.0,0.0,-1.0));
#345=DIRECTION('',(0.0,1.0,0.0));
#346=DIRECTION('',(1.06054021204601E-016,-0.866025403784439,-0.5));
#347=DIRECTION('',(-8.65927457071936E-017,0.707106781186548,-0.707106781186548));
#348=SURFACE_STYLE_FILL_AREA(#395);
#349=ORIENTED_EDGE('',*,*,#83,.T.);
#350=ORIENTED_EDGE('',*,*,#77,.F.);
#351=ORIENTED_EDGE('',*,*,#101,.T.);
#352=ORIENTED_EDGE('',*,*,#105,.T.);
#353=CARTESIAN_POINT('',(0.0,0.0,-0.25));
#354=DIRECTION('',(0.0,-0.0,-1.0));
#355=DIRECTION('',(0.0,1.0,0.0));
#356=SURFACE_STYLE_FILL_AREA(#396);
#357=ORIENTED_EDGE('',*,*,#81,.T.);
#358=ORIENTED_EDGE('',*,*,#109,.F.);
#359=ORIENTED_EDGE('',*,*,#59,.T.);
#360=ORIENTED_EDGE('',*,*,#103,.T.);
#361=CARTESIAN_POINT('',(0.0,0.0,-84.7344999996591));
#362=DIRECTION('',(-0.0,-0.0,1.0));
#363=DIRECTION('',(0.0,1.0,0.0));
#364=DIRECTION('',(0.0,0.0,-1.0));
#365=CARTESIAN_POINT('',(0.0,0.0,-0.5));
#366=DIRECTION('',(0.0,0.0,-1.0));
#367=DIRECTION('',(0.0,1.0,0.0));
#368=SURFACE_STYLE_FILL_AREA(#397);
#369=ORIENTED_EDGE('',*,*,#83,.F.);
#370=ORIENTED_EDGE('',*,*,#99,.T.);
#371=ORIENTED_EDGE('',*,*,#101,.F.);
#372=ORIENTED_EDGE('',*,*,#95,.F.);
#373=CARTESIAN_POINT('',(0.0,0.0,-0.25));
#374=DIRECTION('',(0.0,-0.0,-1.0));
#375=DIRECTION('',(0.0,1.0,0.0));
#376=CARTESIAN_POINT('',(0.0,0.0,0.0));
#377=DIRECTION('',(0.0,0.0,-1.0));
#378=DIRECTION('',(0.0,1.0,0.0));
#379=DIRECTION('',(-8.65927457071936E-017,0.707106781186548,0.707106781186548));
#380=CARTESIAN_POINT('',(0.0,0.0,-84.4689999993182));
#381=DIRECTION('',(0.0,0.0,-1.0));
#382=DIRECTION('',(0.0,1.0,0.0));
#383=CARTESIAN_POINT('',(0.0,0.0,0.0));
#384=DIRECTION('',(0.0,0.0,-1.0));
#385=DIRECTION('',(0.0,1.0,0.0));
#386=CARTESIAN_POINT('',(0.0,0.0,-85.0));
#387=DIRECTION('',(0.0,0.0,-1.0));
#388=DIRECTION('',(0.0,1.0,0.0));
#389=FILL_AREA_STYLE('',(#398));
#390=FILL_AREA_STYLE('',(#399));
#391=FILL_AREA_STYLE('',(#400));
#392=FILL_AREA_STYLE('',(#401));
#393=FILL_AREA_STYLE('',(#402));
#394=FILL_AREA_STYLE('',(#403));
#395=FILL_AREA_STYLE('',(#404));
#396=FILL_AREA_STYLE('',(#405));
#397=FILL_AREA_STYLE('',(#406));
#398=FILL_AREA_STYLE_COLOUR('',#407);
#399=FILL_AREA_STYLE_COLOUR('',#408);
#400=FILL_AREA_STYLE_COLOUR('',#409);
#401=FILL_AREA_STYLE_COLOUR('',#410);
#402=FILL_AREA_STYLE_COLOUR('',#411);
#403=FILL_AREA_STYLE_COLOUR('',#412);
#404=FILL_AREA_STYLE_COLOUR('',#413);
#405=FILL_AREA_STYLE_COLOUR('',#414);
#406=FILL_AREA_STYLE_COLOUR('',#415);
#407=COLOUR_RGB('',0.498039215803146,0.498039215803146,0.498039215803146);
#408=COLOUR_RGB('',0.800000011920929,0.800000011920929,0.800000011920929);
#409=COLOUR_RGB('',0.498039215803146,0.498039215803146,0.498039215803146);
#410=COLOUR_RGB('',0.498039215803146,0.498039215803146,0.498039215803146);
#411=COLOUR_RGB('',0.498039215803146,0.498039215803146,0.498039215803146);
#412=COLOUR_RGB('',0.498039215803146,0.498039215803146,0.498039215803146);
#413=COLOUR_RGB('',0.498039215803146,0.498039215803146,0.498039215803146);
#414=COLOUR_RGB('',0.800000011920929,0.800000011920929,0.800000011920929);
#415=COLOUR_RGB('',0.498039215803146,0.498039215803146,0.498039215803146);
#416=AXIS2_PLACEMENT_3D('PCS',#417,#418,#419);
#417=CARTESIAN_POINT('',(0.0,0.0,0.0));
#418=DIRECTION('',(0.0,0.0,1.0));
#419=DIRECTION('',(1.0,0.0,0.0));
#420=AXIS2_PLACEMENT_3D('CIP',#421,#422,#423);
#421=CARTESIAN_POINT('',(0.0,0.0,-85.0));
#422=DIRECTION('',(0.0,0.0,1.0));
#423=DIRECTION('',(1.0,0.0,0.0));
#424=AXIS2_PLACEMENT_3D('CRP',#425,#426,#427);
#425=CARTESIAN_POINT('',(-5.0,0.0,-85.0));
#426=DIRECTION('',(0.0,0.0,1.0));
#427=DIRECTION('',(1.0,0.0,0.0));
#428=AXIS2_PLACEMENT_3D('MCS',#429,#430,#431);
#429=CARTESIAN_POINT('',(0.0,0.0,-45.0));
#430=DIRECTION('',(0.0,0.0,1.0));
#431=DIRECTION('',(1.0,0.0,0.0));
#432=CONSTRUCTIVE_GEOMETRY_REPRESENTATION_RELATIONSHIP('coordinate systems',$,#45,#433);
#433=CONSTRUCTIVE_GEOMETRY_REPRESENTATION('coordinate systems',(#416,#420,#424,#428),#6);
ENDSEC;
END-ISO-10303-21;
