ISO-10303-21;
HEADER;
FILE_DESCRIPTION(('no description'),'unknown implementation level');
FILE_NAME('solidarpcqj2PZuyzWq9T2NLaFjGw1fM_1.STP','  ',('CIMSOURCE GmbH'),('CADClick - KiM GmbH - www.kimweb.de'),'unknown preprocess','ACIS','unknown authorization');
FILE_SCHEMA(('automotive_design'));
ENDSEC;
DATA;
#1=MECHANICAL_DESIGN_GEOMETRIC_PRESENTATION_REPRESENTATION(' ',(#10,#11,#12,#13,#14,#15,#16,#17,#18,#19,#20,#21,#22,#23,#24,#25,#26,#27,#28,#29,#30,#31,#32,#33,#34,#35,#36,#37,#38,#39,#40),#6);
#2=PRODUCT_DEFINITION_CONTEXT('',#41,'design');
#3=APPLICATION_PROTOCOL_DEFINITION('INTERNATIONAL STANDARD','automotive_design',1994,#41);
#4=PRODUCT_CATEGORY_RELATIONSHIP('NONE','NONE',#42,#43);
#5=SHAPE_DEFINITION_REPRESENTATION(#44,#45);
#6= (GEOMETRIC_REPRESENTATION_CONTEXT(3)GLOBAL_UNCERTAINTY_ASSIGNED_CONTEXT((#48))GLOBAL_UNIT_ASSIGNED_CONTEXT((#50,#51,#52))REPRESENTATION_CONTEXT('NONE','WORKSPACE'));
#10=STYLED_ITEM('',(#54),#55);
#11=STYLED_ITEM('',(#56),#57);
#12=STYLED_ITEM('',(#58),#59);
#13=STYLED_ITEM('',(#60),#61);
#14=STYLED_ITEM('',(#62),#63);
#15=STYLED_ITEM('',(#64),#65);
#16=STYLED_ITEM('',(#66),#67);
#17=STYLED_ITEM('',(#68),#69);
#18=STYLED_ITEM('',(#70),#71);
#19=STYLED_ITEM('',(#72),#73);
#20=STYLED_ITEM('',(#74),#75);
#21=STYLED_ITEM('',(#76),#77);
#22=STYLED_ITEM('',(#78),#79);
#23=STYLED_ITEM('',(#80),#81);
#24=STYLED_ITEM('',(#82),#83);
#25=STYLED_ITEM('',(#84),#85);
#26=STYLED_ITEM('',(#86),#87);
#27=STYLED_ITEM('',(#88),#89);
#28=STYLED_ITEM('',(#90),#91);
#29=STYLED_ITEM('',(#92),#93);
#30=STYLED_ITEM('',(#94),#95);
#31=STYLED_ITEM('',(#96),#97);
#32=STYLED_ITEM('',(#98),#99);
#33=STYLED_ITEM('',(#100),#101);
#34=STYLED_ITEM('',(#102),#103);
#35=STYLED_ITEM('',(#104),#105);
#36=STYLED_ITEM('',(#106),#107);
#37=STYLED_ITEM('',(#108),#109);
#38=STYLED_ITEM('',(#110),#111);
#39=STYLED_ITEM('',(#112),#113);
#40=STYLED_ITEM('',(#114),#115);
#41=APPLICATION_CONTEXT(' ');
#42=PRODUCT_CATEGORY('part','NONE');
#43=PRODUCT_RELATED_PRODUCT_CATEGORY('detail',' ',(#116));
#44=PRODUCT_DEFINITION_SHAPE('NONE','NONE',#117);
#45=ADVANCED_BREP_SHAPE_REPRESENTATION('1',(#71,#118),#6);
#48=UNCERTAINTY_MEASURE_WITH_UNIT(LENGTH_MEASURE(1.0E-006),#50,'','');
#50= (CONVERSION_BASED_UNIT('MILLIMETRE',#121)LENGTH_UNIT()NAMED_UNIT(#124));
#51= (NAMED_UNIT(#126)PLANE_ANGLE_UNIT()SI_UNIT($,.RADIAN.));
#52= (NAMED_UNIT(#126)SOLID_ANGLE_UNIT()SI_UNIT($,.STERADIAN.));
#54=PRESENTATION_STYLE_ASSIGNMENT((#132));
#55=EDGE_CURVE('',#105,#103,#133,.T.);
#56=PRESENTATION_STYLE_ASSIGNMENT((#134));
#57=EDGE_CURVE('',#79,#103,#135,.T.);
#58=PRESENTATION_STYLE_ASSIGNMENT((#136));
#59=ADVANCED_FACE('',(#137),#138,.T.);
#60=PRESENTATION_STYLE_ASSIGNMENT((#139));
#61=EDGE_CURVE('',#105,#107,#140,.T.);
#62=PRESENTATION_STYLE_ASSIGNMENT((#141));
#63=ADVANCED_FACE('',(#142),#143,.T.);
#64=PRESENTATION_STYLE_ASSIGNMENT((#144));
#65=ADVANCED_FACE('',(#145),#146,.T.);
#66=PRESENTATION_STYLE_ASSIGNMENT((#147));
#67=EDGE_CURVE('',#77,#97,#148,.T.);
#68=PRESENTATION_STYLE_ASSIGNMENT((#149));
#69=ADVANCED_FACE('',(#150),#151,.T.);
#70=PRESENTATION_STYLE_ASSIGNMENT((#152));
#71=MANIFOLD_SOLID_BREP('1',#153);
#72=PRESENTATION_STYLE_ASSIGNMENT((#154));
#73=ADVANCED_FACE('',(#155),#156,.T.);
#74=PRESENTATION_STYLE_ASSIGNMENT((#157));
#75=EDGE_CURVE('',#97,#93,#158,.T.);
#76=PRESENTATION_STYLE_ASSIGNMENT((#159));
#77=VERTEX_POINT('',#160);
#78=PRESENTATION_STYLE_ASSIGNMENT((#161));
#79=VERTEX_POINT('',#162);
#80=PRESENTATION_STYLE_ASSIGNMENT((#163));
#81=VERTEX_POINT('',#164);
#82=PRESENTATION_STYLE_ASSIGNMENT((#165));
#83=EDGE_CURVE('',#103,#105,#166,.T.);
#84=PRESENTATION_STYLE_ASSIGNMENT((#167));
#85=ADVANCED_FACE('',(#168),#169,.T.);
#86=PRESENTATION_STYLE_ASSIGNMENT((#170));
#87=EDGE_CURVE('',#79,#107,#171,.T.);
#88=PRESENTATION_STYLE_ASSIGNMENT((#172));
#89=ADVANCED_FACE('',(#173),#174,.T.);
#90=PRESENTATION_STYLE_ASSIGNMENT((#175));
#91=EDGE_CURVE('',#107,#79,#176,.T.);
#92=PRESENTATION_STYLE_ASSIGNMENT((#177));
#93=VERTEX_POINT('',#178);
#94=PRESENTATION_STYLE_ASSIGNMENT((#179));
#95=EDGE_CURVE('',#81,#93,#180,.T.);
#96=PRESENTATION_STYLE_ASSIGNMENT((#181));
#97=VERTEX_POINT('',#182);
#98=PRESENTATION_STYLE_ASSIGNMENT((#183));
#99=EDGE_CURVE('',#93,#81,#184,.T.);
#100=PRESENTATION_STYLE_ASSIGNMENT((#185));
#101=EDGE_CURVE('',#93,#105,#186,.T.);
#102=PRESENTATION_STYLE_ASSIGNMENT((#187));
#103=VERTEX_POINT('',#188);
#104=PRESENTATION_STYLE_ASSIGNMENT((#189));
#105=VERTEX_POINT('',#190);
#106=PRESENTATION_STYLE_ASSIGNMENT((#191));
#107=VERTEX_POINT('',#192);
#108=PRESENTATION_STYLE_ASSIGNMENT((#193));
#109=EDGE_CURVE('',#97,#77,#194,.T.);
#110=PRESENTATION_STYLE_ASSIGNMENT((#195));
#111=EDGE_CURVE('',#81,#77,#196,.T.);
#112=PRESENTATION_STYLE_ASSIGNMENT((#197));
#113=ADVANCED_FACE('',(#198),#199,.T.);
#114=PRESENTATION_STYLE_ASSIGNMENT((#200));
#115=EDGE_CURVE('',#103,#81,#201,.T.);
#116=PRODUCT('1','1','PART-1-DESC',(#202));
#117=PRODUCT_DEFINITION('NONE','NONE',#203,#2);
#118=AXIS2_PLACEMENT_3D('',#204,#205,#206);
#121=LENGTH_MEASURE_WITH_UNIT(LENGTH_MEASURE(1.0),#207);
#124=DIMENSIONAL_EXPONENTS(1.0,0.0,0.0,0.0,0.0,0.0,0.0);
#126=DIMENSIONAL_EXPONENTS(0.0,0.0,0.0,0.0,0.0,0.0,0.0);
#132=CURVE_STYLE('',#208,POSITIVE_LENGTH_MEASURE(1.0E-006),#209);
#133=CIRCLE('',#210,8.0);
#134=CURVE_STYLE('',#211,POSITIVE_LENGTH_MEASURE(1.0E-006),#212);
#135=LINE('',#213,#214);
#136=SURFACE_STYLE_USAGE(.BOTH.,#215);
#137=FACE_OUTER_BOUND('',#216,.T.);
#138=CONICAL_SURFACE('',#217,7.23356752,1.0471975511966);
#139=CURVE_STYLE('',#218,POSITIVE_LENGTH_MEASURE(1.0E-006),#219);
#140=LINE('',#220,#221);
#141=SURFACE_STYLE_USAGE(.BOTH.,#222);
#142=FACE_OUTER_BOUND('',#223,.T.);
#143=CONICAL_SURFACE('',#224,7.6,0.78539816339745);
#144=SURFACE_STYLE_USAGE(.BOTH.,#225);
#145=FACE_OUTER_BOUND('',#226,.T.);
#146=PLANE('',#227);
#147=CURVE_STYLE('',#228,POSITIVE_LENGTH_MEASURE(1.0E-006),#229);
#148=CIRCLE('',#230,7.2);
#149=SURFACE_STYLE_USAGE(.BOTH.,#231);
#150=FACE_OUTER_BOUND('',#232,.T.);
#151=CYLINDRICAL_SURFACE('',#233,8.0);
#152=SURFACE_STYLE_USAGE(.BOTH.,#234);
#153=CLOSED_SHELL('',(#69,#63,#73,#59,#113,#89,#85,#65));
#154=SURFACE_STYLE_USAGE(.BOTH.,#235);
#155=FACE_OUTER_BOUND('',#236,.T.);
#156=CONICAL_SURFACE('',#237,7.23356752,1.0471975511966);
#157=CURVE_STYLE('',#238,POSITIVE_LENGTH_MEASURE(1.0E-006),#239);
#158=LINE('',#240,#241);
#159=POINT_STYLE(' ',#242,POSITIVE_LENGTH_MEASURE(1.0E-006),#243);
#160=CARTESIAN_POINT('',(8.81716574752112E-016,-7.2,0.0));
#161=POINT_STYLE(' ',#244,POSITIVE_LENGTH_MEASURE(1.0E-006),#245);
#162=CARTESIAN_POINT('',(7.91969466101133E-016,-6.46713504,-105.0));
#163=POINT_STYLE(' ',#246,POSITIVE_LENGTH_MEASURE(1.0E-006),#247);
#164=CARTESIAN_POINT('',(9.79685083057902E-016,-8.0,-0.799999999999997));
#165=CURVE_STYLE('',#248,POSITIVE_LENGTH_MEASURE(1.0E-006),#249);
#166=CIRCLE('',#250,8.0);
#167=SURFACE_STYLE_USAGE(.BOTH.,#251);
#168=FACE_OUTER_BOUND('',#252,.T.);
#169=CYLINDRICAL_SURFACE('',#253,8.0);
#170=CURVE_STYLE('',#254,POSITIVE_LENGTH_MEASURE(1.0E-006),#255);
#171=CIRCLE('',#256,6.46713504);
#172=SURFACE_STYLE_USAGE(.BOTH.,#257);
#173=FACE_OUTER_BOUND('',#258,.T.);
#174=CONICAL_SURFACE('',#259,7.6,0.78539816339745);
#175=CURVE_STYLE('',#260,POSITIVE_LENGTH_MEASURE(1.0E-006),#261);
#176=CIRCLE('',#262,6.46713504);
#177=POINT_STYLE(' ',#263,POSITIVE_LENGTH_MEASURE(1.0E-006),#264);
#178=CARTESIAN_POINT('',(0.0,8.0,-0.799999999999997));
#179=CURVE_STYLE('',#265,POSITIVE_LENGTH_MEASURE(1.0E-006),#266);
#180=CIRCLE('',#267,8.0);
#181=POINT_STYLE(' ',#268,POSITIVE_LENGTH_MEASURE(1.0E-006),#269);
#182=CARTESIAN_POINT('',(0.0,7.2,0.0));
#183=CURVE_STYLE('',#270,POSITIVE_LENGTH_MEASURE(1.0E-006),#271);
#184=CIRCLE('',#272,8.0);
#185=CURVE_STYLE('',#273,POSITIVE_LENGTH_MEASURE(1.0E-006),#274);
#186=LINE('',#275,#276);
#187=POINT_STYLE(' ',#277,POSITIVE_LENGTH_MEASURE(1.0E-006),#278);
#188=CARTESIAN_POINT('',(9.79685083057902E-016,-8.0,-104.115000002713));
#189=POINT_STYLE(' ',#279,POSITIVE_LENGTH_MEASURE(1.0E-006),#280);
#190=CARTESIAN_POINT('',(0.0,8.0,-104.115000002713));
#191=POINT_STYLE(' ',#281,POSITIVE_LENGTH_MEASURE(1.0E-006),#282);
#192=CARTESIAN_POINT('',(0.0,6.46713504,-105.0));
#193=CURVE_STYLE('',#283,POSITIVE_LENGTH_MEASURE(1.0E-006),#284);
#194=CIRCLE('',#285,7.2);
#195=CURVE_STYLE('',#286,POSITIVE_LENGTH_MEASURE(1.0E-006),#287);
#196=LINE('',#288,#289);
#197=SURFACE_STYLE_USAGE(.BOTH.,#290);
#198=FACE_OUTER_BOUND('',#291,.T.);
#199=PLANE('',#292);
#200=CURVE_STYLE('',#293,POSITIVE_LENGTH_MEASURE(1.0E-006),#294);
#201=LINE('',#295,#296);
#202=PRODUCT_CONTEXT('',#41,'mechanical');
#203=PRODUCT_DEFINITION_FORMATION_WITH_SPECIFIED_SOURCE(' ','NONE',#116,.NOT_KNOWN.);
#204=CARTESIAN_POINT('',(0.0,0.0,0.0));
#205=DIRECTION('',(0.0,0.0,1.0));
#206=DIRECTION('',(1.0,0.0,0.0));
#207= (NAMED_UNIT(#124)LENGTH_UNIT()SI_UNIT(.MILLI.,.METRE.));
#208=DRAUGHTING_PRE_DEFINED_CURVE_FONT('continuous');
#209=COLOUR_RGB('',0.800000011920929,0.800000011920929,0.800000011920929);
#210=AXIS2_PLACEMENT_3D('',#298,#299,#300);
#211=DRAUGHTING_PRE_DEFINED_CURVE_FONT('continuous');
#212=COLOUR_RGB('',0.800000011920929,0.800000011920929,0.800000011920929);
#213=CARTESIAN_POINT('',(8.85827274579518E-016,-7.23356752,-104.557500001356));
#214=VECTOR('',#301,1.0);
#215=SURFACE_SIDE_STYLE('',(#302));
#216=EDGE_LOOP('',(#303,#304,#305,#306));
#217=AXIS2_PLACEMENT_3D('',#307,#308,#309);
#218=DRAUGHTING_PRE_DEFINED_CURVE_FONT('continuous');
#219=COLOUR_RGB('',0.800000011920929,0.800000011920929,0.800000011920929);
#220=CARTESIAN_POINT('',(-8.85827274579518E-016,7.23356752,-104.557500001356));
#221=VECTOR('',#310,1.0);
#222=SURFACE_SIDE_STYLE('',(#311));
#223=EDGE_LOOP('',(#312,#313,#314,#315));
#224=AXIS2_PLACEMENT_3D('',#316,#317,#318);
#225=SURFACE_SIDE_STYLE('',(#319));
#226=EDGE_LOOP('',(#320,#321));
#227=AXIS2_PLACEMENT_3D('',#322,#323,#324);
#228=DRAUGHTING_PRE_DEFINED_CURVE_FONT('continuous');
#229=COLOUR_RGB('',0.498039215803146,0.498039215803146,0.498039215803146);
#230=AXIS2_PLACEMENT_3D('',#325,#326,#327);
#231=SURFACE_SIDE_STYLE('',(#328));
#232=EDGE_LOOP('',(#329,#330,#331,#332));
#233=AXIS2_PLACEMENT_3D('',#333,#334,#335);
#234=SURFACE_SIDE_STYLE('',(#336));
#235=SURFACE_SIDE_STYLE('',(#337));
#236=EDGE_LOOP('',(#338,#339,#340,#341));
#237=AXIS2_PLACEMENT_3D('',#342,#343,#344);
#238=DRAUGHTING_PRE_DEFINED_CURVE_FONT('continuous');
#239=COLOUR_RGB('',0.498039215803146,0.498039215803146,0.498039215803146);
#240=CARTESIAN_POINT('',(-9.30700828905007E-016,7.6,-0.399999999999999));
#241=VECTOR('',#345,1.0);
#242=PRE_DEFINED_MARKER('');
#243=COLOUR_RGB('',0.498039215803146,0.498039215803146,0.498039215803146);
#244=PRE_DEFINED_MARKER('');
#245=COLOUR_RGB('',0.498039215803146,0.498039215803146,0.498039215803146);
#246=PRE_DEFINED_MARKER('');
#247=COLOUR_RGB('',0.498039215803146,0.498039215803146,0.498039215803146);
#248=DRAUGHTING_PRE_DEFINED_CURVE_FONT('continuous');
#249=COLOUR_RGB('',0.800000011920929,0.800000011920929,0.800000011920929);
#250=AXIS2_PLACEMENT_3D('',#346,#347,#348);
#251=SURFACE_SIDE_STYLE('',(#349));
#252=EDGE_LOOP('',(#350,#351,#352,#353));
#253=AXIS2_PLACEMENT_3D('',#354,#355,#356);
#254=DRAUGHTING_PRE_DEFINED_CURVE_FONT('continuous');
#255=COLOUR_RGB('',0.498039215803146,0.498039215803146,0.498039215803146);
#256=AXIS2_PLACEMENT_3D('',#357,#358,#359);
#257=SURFACE_SIDE_STYLE('',(#360));
#258=EDGE_LOOP('',(#361,#362,#363,#364));
#259=AXIS2_PLACEMENT_3D('',#365,#366,#367);
#260=DRAUGHTING_PRE_DEFINED_CURVE_FONT('continuous');
#261=COLOUR_RGB('',0.498039215803146,0.498039215803146,0.498039215803146);
#262=AXIS2_PLACEMENT_3D('',#368,#369,#370);
#263=PRE_DEFINED_MARKER('');
#264=COLOUR_RGB('',0.498039215803146,0.498039215803146,0.498039215803146);
#265=DRAUGHTING_PRE_DEFINED_CURVE_FONT('continuous');
#266=COLOUR_RGB('',0.498039215803146,0.498039215803146,0.498039215803146);
#267=AXIS2_PLACEMENT_3D('',#371,#372,#373);
#268=PRE_DEFINED_MARKER('');
#269=COLOUR_RGB('',0.498039215803146,0.498039215803146,0.498039215803146);
#270=DRAUGHTING_PRE_DEFINED_CURVE_FONT('continuous');
#271=COLOUR_RGB('',0.498039215803146,0.498039215803146,0.498039215803146);
#272=AXIS2_PLACEMENT_3D('',#374,#375,#376);
#273=DRAUGHTING_PRE_DEFINED_CURVE_FONT('continuous');
#274=COLOUR_RGB('',0.498039215803146,0.498039215803146,0.498039215803146);
#275=CARTESIAN_POINT('',(-9.79685083057902E-016,8.0,-25.4));
#276=VECTOR('',#377,1.0);
#277=PRE_DEFINED_MARKER('');
#278=COLOUR_RGB('',0.800000011920929,0.800000011920929,0.800000011920929);
#279=PRE_DEFINED_MARKER('');
#280=COLOUR_RGB('',0.800000011920929,0.800000011920929,0.800000011920929);
#281=PRE_DEFINED_MARKER('');
#282=COLOUR_RGB('',0.498039215803146,0.498039215803146,0.498039215803146);
#283=DRAUGHTING_PRE_DEFINED_CURVE_FONT('continuous');
#284=COLOUR_RGB('',0.498039215803146,0.498039215803146,0.498039215803146);
#285=AXIS2_PLACEMENT_3D('',#378,#379,#380);
#286=DRAUGHTING_PRE_DEFINED_CURVE_FONT('continuous');
#287=COLOUR_RGB('',0.498039215803146,0.498039215803146,0.498039215803146);
#288=CARTESIAN_POINT('',(9.30700828905007E-016,-7.6,-0.399999999999999));
#289=VECTOR('',#381,1.0);
#290=SURFACE_SIDE_STYLE('',(#382));
#291=EDGE_LOOP('',(#383,#384));
#292=AXIS2_PLACEMENT_3D('',#385,#386,#387);
#293=DRAUGHTING_PRE_DEFINED_CURVE_FONT('continuous');
#294=COLOUR_RGB('',0.498039215803146,0.498039215803146,0.498039215803146);
#295=CARTESIAN_POINT('',(9.79685083057902E-016,-8.0,-25.4));
#296=VECTOR('',#388,1.0);
#298=CARTESIAN_POINT('',(0.0,0.0,-104.115000002713));
#299=DIRECTION('',(0.0,0.0,-1.0));
#300=DIRECTION('',(0.0,1.0,0.0));
#301=DIRECTION('',(1.06054021204601E-016,-0.866025403784439,0.5));
#302=SURFACE_STYLE_FILL_AREA(#389);
#303=ORIENTED_EDGE('',*,*,#61,.T.);
#304=ORIENTED_EDGE('',*,*,#87,.F.);
#305=ORIENTED_EDGE('',*,*,#57,.T.);
#306=ORIENTED_EDGE('',*,*,#83,.T.);
#307=CARTESIAN_POINT('',(0.0,0.0,-104.557500001356));
#308=DIRECTION('',(-0.0,-0.0,1.0));
#309=DIRECTION('',(0.0,1.0,0.0));
#310=DIRECTION('',(1.06054021204601E-016,-0.866025403784439,-0.5));
#311=SURFACE_STYLE_FILL_AREA(#390);
#312=ORIENTED_EDGE('',*,*,#75,.F.);
#313=ORIENTED_EDGE('',*,*,#109,.T.);
#314=ORIENTED_EDGE('',*,*,#111,.F.);
#315=ORIENTED_EDGE('',*,*,#99,.F.);
#316=CARTESIAN_POINT('',(0.0,0.0,-0.399999999999999));
#317=DIRECTION('',(0.0,-0.0,-1.0));
#318=DIRECTION('',(0.0,1.0,0.0));
#319=SURFACE_STYLE_FILL_AREA(#391);
#320=ORIENTED_EDGE('',*,*,#91,.T.);
#321=ORIENTED_EDGE('',*,*,#87,.T.);
#322=CARTESIAN_POINT('',(0.0,3.23356752,-105.0));
#323=DIRECTION('',(0.0,0.0,-1.0));
#324=DIRECTION('',(0.0,1.0,0.0));
#325=CARTESIAN_POINT('',(0.0,0.0,0.0));
#326=DIRECTION('',(0.0,0.0,-1.0));
#327=DIRECTION('',(0.0,1.0,0.0));
#328=SURFACE_STYLE_FILL_AREA(#392);
#329=ORIENTED_EDGE('',*,*,#101,.F.);
#330=ORIENTED_EDGE('',*,*,#99,.T.);
#331=ORIENTED_EDGE('',*,*,#115,.F.);
#332=ORIENTED_EDGE('',*,*,#55,.F.);
#333=CARTESIAN_POINT('',(0.0,0.0,-25.4));
#334=DIRECTION('',(-0.0,-0.0,1.0));
#335=DIRECTION('',(0.0,1.0,0.0));
#336=SURFACE_STYLE_FILL_AREA(#393);
#337=SURFACE_STYLE_FILL_AREA(#394);
#338=ORIENTED_EDGE('',*,*,#61,.F.);
#339=ORIENTED_EDGE('',*,*,#55,.T.);
#340=ORIENTED_EDGE('',*,*,#57,.F.);
#341=ORIENTED_EDGE('',*,*,#91,.F.);
#342=CARTESIAN_POINT('',(0.0,0.0,-104.557500001356));
#343=DIRECTION('',(-0.0,-0.0,1.0));
#344=DIRECTION('',(0.0,1.0,0.0));
#345=DIRECTION('',(-8.65927457071937E-017,0.707106781186549,-0.707106781186546));
#346=CARTESIAN_POINT('',(0.0,0.0,-104.115000002713));
#347=DIRECTION('',(0.0,0.0,-1.0));
#348=DIRECTION('',(0.0,1.0,0.0));
#349=SURFACE_STYLE_FILL_AREA(#395);
#350=ORIENTED_EDGE('',*,*,#101,.T.);
#351=ORIENTED_EDGE('',*,*,#83,.F.);
#352=ORIENTED_EDGE('',*,*,#115,.T.);
#353=ORIENTED_EDGE('',*,*,#95,.T.);
#354=CARTESIAN_POINT('',(0.0,0.0,-25.4));
#355=DIRECTION('',(-0.0,-0.0,1.0));
#356=DIRECTION('',(0.0,1.0,0.0));
#357=CARTESIAN_POINT('',(0.0,0.0,-105.0));
#358=DIRECTION('',(0.0,0.0,-1.0));
#359=DIRECTION('',(0.0,1.0,0.0));
#360=SURFACE_STYLE_FILL_AREA(#396);
#361=ORIENTED_EDGE('',*,*,#75,.T.);
#362=ORIENTED_EDGE('',*,*,#95,.F.);
#363=ORIENTED_EDGE('',*,*,#111,.T.);
#364=ORIENTED_EDGE('',*,*,#67,.T.);
#365=CARTESIAN_POINT('',(0.0,0.0,-0.399999999999999));
#366=DIRECTION('',(0.0,-0.0,-1.0));
#367=DIRECTION('',(0.0,1.0,0.0));
#368=CARTESIAN_POINT('',(0.0,0.0,-105.0));
#369=DIRECTION('',(0.0,0.0,-1.0));
#370=DIRECTION('',(0.0,1.0,0.0));
#371=CARTESIAN_POINT('',(0.0,0.0,-0.799999999999997));
#372=DIRECTION('',(0.0,0.0,-1.0));
#373=DIRECTION('',(0.0,1.0,0.0));
#374=CARTESIAN_POINT('',(0.0,0.0,-0.799999999999997));
#375=DIRECTION('',(0.0,0.0,-1.0));
#376=DIRECTION('',(0.0,1.0,0.0));
#377=DIRECTION('',(0.0,0.0,-1.0));
#378=CARTESIAN_POINT('',(0.0,0.0,0.0));
#379=DIRECTION('',(0.0,0.0,-1.0));
#380=DIRECTION('',(0.0,1.0,0.0));
#381=DIRECTION('',(-8.65927457071937E-017,0.707106781186549,0.707106781186546));
#382=SURFACE_STYLE_FILL_AREA(#397);
#383=ORIENTED_EDGE('',*,*,#109,.F.);
#384=ORIENTED_EDGE('',*,*,#67,.F.);
#385=CARTESIAN_POINT('',(0.0,3.6,0.0));
#386=DIRECTION('',(-0.0,0.0,1.0));
#387=DIRECTION('',(0.0,-1.0,0.0));
#388=DIRECTION('',(-0.0,-0.0,1.0));
#389=FILL_AREA_STYLE('',(#398));
#390=FILL_AREA_STYLE('',(#399));
#391=FILL_AREA_STYLE('',(#400));
#392=FILL_AREA_STYLE('',(#401));
#393=FILL_AREA_STYLE('',(#402));
#394=FILL_AREA_STYLE('',(#403));
#395=FILL_AREA_STYLE('',(#404));
#396=FILL_AREA_STYLE('',(#405));
#397=FILL_AREA_STYLE('',(#406));
#398=FILL_AREA_STYLE_COLOUR('',#407);
#399=FILL_AREA_STYLE_COLOUR('',#408);
#400=FILL_AREA_STYLE_COLOUR('',#409);
#401=FILL_AREA_STYLE_COLOUR('',#410);
#402=FILL_AREA_STYLE_COLOUR('',#411);
#403=FILL_AREA_STYLE_COLOUR('',#412);
#404=FILL_AREA_STYLE_COLOUR('',#413);
#405=FILL_AREA_STYLE_COLOUR('',#414);
#406=FILL_AREA_STYLE_COLOUR('',#415);
#407=COLOUR_RGB('',0.800000011920929,0.800000011920929,0.800000011920929);
#408=COLOUR_RGB('',0.498039215803146,0.498039215803146,0.498039215803146);
#409=COLOUR_RGB('',0.498039215803146,0.498039215803146,0.498039215803146);
#410=COLOUR_RGB('',0.498039215803146,0.498039215803146,0.498039215803146);
#411=COLOUR_RGB('',0.498039215803146,0.498039215803146,0.498039215803146);
#412=COLOUR_RGB('',0.800000011920929,0.800000011920929,0.800000011920929);
#413=COLOUR_RGB('',0.498039215803146,0.498039215803146,0.498039215803146);
#414=COLOUR_RGB('',0.498039215803146,0.498039215803146,0.498039215803146);
#415=COLOUR_RGB('',0.498039215803146,0.498039215803146,0.498039215803146);
#416=AXIS2_PLACEMENT_3D('PCS',#417,#418,#419);
#417=CARTESIAN_POINT('',(0.0,0.0,0.0));
#418=DIRECTION('',(0.0,0.0,1.0));
#419=DIRECTION('',(1.0,0.0,0.0));
#420=AXIS2_PLACEMENT_3D('CIP',#421,#422,#423);
#421=CARTESIAN_POINT('',(0.0,0.0,-105.0));
#422=DIRECTION('',(0.0,0.0,1.0));
#423=DIRECTION('',(1.0,0.0,0.0));
#424=AXIS2_PLACEMENT_3D('CRP',#425,#426,#427);
#425=CARTESIAN_POINT('',(-8.0,0.0,-105.0));
#426=DIRECTION('',(0.0,0.0,1.0));
#427=DIRECTION('',(1.0,0.0,0.0));
#428=AXIS2_PLACEMENT_3D('MCS',#429,#430,#431);
#429=CARTESIAN_POINT('',(0.0,0.0,-50.0));
#430=DIRECTION('',(0.0,0.0,1.0));
#431=DIRECTION('',(1.0,0.0,0.0));
#432=CONSTRUCTIVE_GEOMETRY_REPRESENTATION_RELATIONSHIP('coordinate systems',$,#45,#433);
#433=CONSTRUCTIVE_GEOMETRY_REPRESENTATION('coordinate systems',(#416,#420,#424,#428),#6);
ENDSEC;
END-ISO-10303-21;
