ISO-10303-21;
HEADER;
FILE_DESCRIPTION(('no description'),'unknown implementation level');
FILE_NAME('solidPi9YxCPiUE8icldU4aFbNHqiFck_1.STP','  ',('CIMSOURCE GmbH'),('CADClick - KiM GmbH - www.kimweb.de'),'unknown preprocess','ACIS','unknown authorization');
FILE_SCHEMA(('automotive_design'));
ENDSEC;
DATA;
#1=MECHANICAL_DESIGN_GEOMETRIC_PRESENTATION_REPRESENTATION(' ',(#10,#11,#12,#13,#14,#15,#16,#17,#18,#19,#20,#21,#22,#23,#24,#25,#26,#27,#28,#29,#30,#31,#32,#33,#34,#35,#36,#37,#38,#39,#40),#6);
#2=PRODUCT_DEFINITION_CONTEXT('',#41,'design');
#3=APPLICATION_PROTOCOL_DEFINITION('INTERNATIONAL STANDARD','automotive_design',1994,#41);
#4=PRODUCT_CATEGORY_RELATIONSHIP('NONE','NONE',#42,#43);
#5=SHAPE_DEFINITION_REPRESENTATION(#44,#45);
#6= (GEOMETRIC_REPRESENTATION_CONTEXT(3)GLOBAL_UNCERTAINTY_ASSIGNED_CONTEXT((#48))GLOBAL_UNIT_ASSIGNED_CONTEXT((#50,#51,#52))REPRESENTATION_CONTEXT('NONE','WORKSPACE'));
#10=STYLED_ITEM('',(#54),#55);
#11=STYLED_ITEM('',(#56),#57);
#12=STYLED_ITEM('',(#58),#59);
#13=STYLED_ITEM('',(#60),#61);
#14=STYLED_ITEM('',(#62),#63);
#15=STYLED_ITEM('',(#64),#65);
#16=STYLED_ITEM('',(#66),#67);
#17=STYLED_ITEM('',(#68),#69);
#18=STYLED_ITEM('',(#70),#71);
#19=STYLED_ITEM('',(#72),#73);
#20=STYLED_ITEM('',(#74),#75);
#21=STYLED_ITEM('',(#76),#77);
#22=STYLED_ITEM('',(#78),#79);
#23=STYLED_ITEM('',(#80),#81);
#24=STYLED_ITEM('',(#82),#83);
#25=STYLED_ITEM('',(#84),#85);
#26=STYLED_ITEM('',(#86),#87);
#27=STYLED_ITEM('',(#88),#89);
#28=STYLED_ITEM('',(#90),#91);
#29=STYLED_ITEM('',(#92),#93);
#30=STYLED_ITEM('',(#94),#95);
#31=STYLED_ITEM('',(#96),#97);
#32=STYLED_ITEM('',(#98),#99);
#33=STYLED_ITEM('',(#100),#101);
#34=STYLED_ITEM('',(#102),#103);
#35=STYLED_ITEM('',(#104),#105);
#36=STYLED_ITEM('',(#106),#107);
#37=STYLED_ITEM('',(#108),#109);
#38=STYLED_ITEM('',(#110),#111);
#39=STYLED_ITEM('',(#112),#113);
#40=STYLED_ITEM('',(#114),#115);
#41=APPLICATION_CONTEXT(' ');
#42=PRODUCT_CATEGORY('part','NONE');
#43=PRODUCT_RELATED_PRODUCT_CATEGORY('detail',' ',(#116));
#44=PRODUCT_DEFINITION_SHAPE('NONE','NONE',#117);
#45=ADVANCED_BREP_SHAPE_REPRESENTATION('1',(#79,#118),#6);
#48=UNCERTAINTY_MEASURE_WITH_UNIT(LENGTH_MEASURE(1.0E-006),#50,'','');
#50= (CONVERSION_BASED_UNIT('MILLIMETRE',#121)LENGTH_UNIT()NAMED_UNIT(#124));
#51= (NAMED_UNIT(#126)PLANE_ANGLE_UNIT()SI_UNIT($,.RADIAN.));
#52= (NAMED_UNIT(#126)SOLID_ANGLE_UNIT()SI_UNIT($,.STERADIAN.));
#54=PRESENTATION_STYLE_ASSIGNMENT((#132));
#55=VERTEX_POINT('',#133);
#56=PRESENTATION_STYLE_ASSIGNMENT((#134));
#57=EDGE_CURVE('',#69,#113,#135,.T.);
#58=PRESENTATION_STYLE_ASSIGNMENT((#136));
#59=ADVANCED_FACE('',(#137),#138,.T.);
#60=PRESENTATION_STYLE_ASSIGNMENT((#139));
#61=EDGE_CURVE('',#97,#55,#140,.T.);
#62=PRESENTATION_STYLE_ASSIGNMENT((#141));
#63=ADVANCED_FACE('',(#142),#143,.T.);
#64=PRESENTATION_STYLE_ASSIGNMENT((#144));
#65=VERTEX_POINT('',#145);
#66=PRESENTATION_STYLE_ASSIGNMENT((#146));
#67=EDGE_CURVE('',#105,#65,#147,.T.);
#68=PRESENTATION_STYLE_ASSIGNMENT((#148));
#69=VERTEX_POINT('',#149);
#70=PRESENTATION_STYLE_ASSIGNMENT((#150));
#71=EDGE_CURVE('',#113,#55,#151,.T.);
#72=PRESENTATION_STYLE_ASSIGNMENT((#152));
#73=EDGE_CURVE('',#55,#87,#153,.T.);
#74=PRESENTATION_STYLE_ASSIGNMENT((#154));
#75=EDGE_CURVE('',#55,#97,#155,.T.);
#76=PRESENTATION_STYLE_ASSIGNMENT((#156));
#77=ADVANCED_FACE('',(#157),#158,.T.);
#78=PRESENTATION_STYLE_ASSIGNMENT((#159));
#79=MANIFOLD_SOLID_BREP('1',#160);
#80=PRESENTATION_STYLE_ASSIGNMENT((#161));
#81=EDGE_CURVE('',#105,#113,#162,.T.);
#82=PRESENTATION_STYLE_ASSIGNMENT((#163));
#83=ADVANCED_FACE('',(#164),#165,.T.);
#84=PRESENTATION_STYLE_ASSIGNMENT((#166));
#85=EDGE_CURVE('',#69,#65,#167,.T.);
#86=PRESENTATION_STYLE_ASSIGNMENT((#168));
#87=VERTEX_POINT('',#169);
#88=PRESENTATION_STYLE_ASSIGNMENT((#170));
#89=ADVANCED_FACE('',(#171),#172,.T.);
#90=PRESENTATION_STYLE_ASSIGNMENT((#173));
#91=ADVANCED_FACE('',(#174),#175,.T.);
#92=PRESENTATION_STYLE_ASSIGNMENT((#176));
#93=EDGE_CURVE('',#97,#105,#177,.T.);
#94=PRESENTATION_STYLE_ASSIGNMENT((#178));
#95=EDGE_CURVE('',#99,#97,#179,.T.);
#96=PRESENTATION_STYLE_ASSIGNMENT((#180));
#97=VERTEX_POINT('',#181);
#98=PRESENTATION_STYLE_ASSIGNMENT((#182));
#99=VERTEX_POINT('',#183);
#100=PRESENTATION_STYLE_ASSIGNMENT((#184));
#101=EDGE_CURVE('',#65,#69,#185,.T.);
#102=PRESENTATION_STYLE_ASSIGNMENT((#186));
#103=ADVANCED_FACE('',(#187),#188,.T.);
#104=PRESENTATION_STYLE_ASSIGNMENT((#189));
#105=VERTEX_POINT('',#190);
#106=PRESENTATION_STYLE_ASSIGNMENT((#191));
#107=EDGE_CURVE('',#113,#105,#192,.T.);
#108=PRESENTATION_STYLE_ASSIGNMENT((#193));
#109=EDGE_CURVE('',#87,#99,#194,.T.);
#110=PRESENTATION_STYLE_ASSIGNMENT((#195));
#111=ADVANCED_FACE('',(#196),#197,.T.);
#112=PRESENTATION_STYLE_ASSIGNMENT((#198));
#113=VERTEX_POINT('',#199);
#114=PRESENTATION_STYLE_ASSIGNMENT((#200));
#115=EDGE_CURVE('',#99,#87,#201,.T.);
#116=PRODUCT('1','1','PART-1-DESC',(#202));
#117=PRODUCT_DEFINITION('NONE','NONE',#203,#2);
#118=AXIS2_PLACEMENT_3D('',#204,#205,#206);
#121=LENGTH_MEASURE_WITH_UNIT(LENGTH_MEASURE(1.0),#207);
#124=DIMENSIONAL_EXPONENTS(1.0,0.0,0.0,0.0,0.0,0.0,0.0);
#126=DIMENSIONAL_EXPONENTS(0.0,0.0,0.0,0.0,0.0,0.0,0.0);
#132=POINT_STYLE(' ',#208,POSITIVE_LENGTH_MEASURE(1.0E-006),#209);
#133=CARTESIAN_POINT('',(1.22460635382238E-015,-10.0,-1.0));
#134=CURVE_STYLE('',#210,POSITIVE_LENGTH_MEASURE(1.0E-006),#211);
#135=LINE('',#212,#213);
#136=SURFACE_STYLE_USAGE(.BOTH.,#214);
#137=FACE_OUTER_BOUND('',#215,.T.);
#138=CYLINDRICAL_SURFACE('',#216,10.0);
#139=CURVE_STYLE('',#217,POSITIVE_LENGTH_MEASURE(1.0E-006),#218);
#140=CIRCLE('',#219,10.0);
#141=SURFACE_STYLE_USAGE(.BOTH.,#220);
#142=FACE_OUTER_BOUND('',#221,.T.);
#143=CONICAL_SURFACE('',#222,9.5,0.785398163397448);
#144=POINT_STYLE(' ',#223,POSITIVE_LENGTH_MEASURE(1.0E-006),#224);
#145=CARTESIAN_POINT('',(0.0,8.77370803,-120.0));
#146=CURVE_STYLE('',#225,POSITIVE_LENGTH_MEASURE(1.0E-006),#226);
#147=LINE('',#227,#228);
#148=POINT_STYLE(' ',#229,POSITIVE_LENGTH_MEASURE(1.0E-006),#230);
#149=CARTESIAN_POINT('',(1.07443386001204E-015,-8.77370803,-120.0));
#150=CURVE_STYLE('',#231,POSITIVE_LENGTH_MEASURE(1.0E-006),#232);
#151=LINE('',#233,#234);
#152=CURVE_STYLE('',#235,POSITIVE_LENGTH_MEASURE(1.0E-006),#236);
#153=LINE('',#237,#238);
#154=CURVE_STYLE('',#239,POSITIVE_LENGTH_MEASURE(1.0E-006),#240);
#155=CIRCLE('',#241,10.0);
#156=SURFACE_STYLE_USAGE(.BOTH.,#242);
#157=FACE_OUTER_BOUND('',#243,.T.);
#158=CONICAL_SURFACE('',#244,9.386854015,1.0471975511966);
#159=SURFACE_STYLE_USAGE(.BOTH.,#245);
#160=CLOSED_SHELL('',(#89,#63,#77,#103,#111,#91,#59,#83));
#161=CURVE_STYLE('',#246,POSITIVE_LENGTH_MEASURE(1.0E-006),#247);
#162=CIRCLE('',#248,10.0);
#163=SURFACE_STYLE_USAGE(.BOTH.,#249);
#164=FACE_OUTER_BOUND('',#250,.T.);
#165=PLANE('',#251);
#166=CURVE_STYLE('',#252,POSITIVE_LENGTH_MEASURE(1.0E-006),#253);
#167=CIRCLE('',#254,8.77370803);
#168=POINT_STYLE(' ',#255,POSITIVE_LENGTH_MEASURE(1.0E-006),#256);
#169=CARTESIAN_POINT('',(1.10214571844014E-015,-9.0,0.0));
#170=SURFACE_STYLE_USAGE(.BOTH.,#257);
#171=FACE_OUTER_BOUND('',#258,.T.);
#172=CYLINDRICAL_SURFACE('',#259,10.0);
#173=SURFACE_STYLE_USAGE(.BOTH.,#260);
#174=FACE_OUTER_BOUND('',#261,.T.);
#175=CONICAL_SURFACE('',#262,9.5,0.785398163397448);
#176=CURVE_STYLE('',#263,POSITIVE_LENGTH_MEASURE(1.0E-006),#264);
#177=LINE('',#265,#266);
#178=CURVE_STYLE('',#267,POSITIVE_LENGTH_MEASURE(1.0E-006),#268);
#179=LINE('',#269,#270);
#180=POINT_STYLE(' ',#271,POSITIVE_LENGTH_MEASURE(1.0E-006),#272);
#181=CARTESIAN_POINT('',(0.0,10.0,-1.0));
#182=POINT_STYLE(' ',#273,POSITIVE_LENGTH_MEASURE(1.0E-006),#274);
#183=CARTESIAN_POINT('',(0.0,9.0,0.0));
#184=CURVE_STYLE('',#275,POSITIVE_LENGTH_MEASURE(1.0E-006),#276);
#185=CIRCLE('',#277,8.77370803);
#186=SURFACE_STYLE_USAGE(.BOTH.,#278);
#187=FACE_OUTER_BOUND('',#279,.T.);
#188=CONICAL_SURFACE('',#280,9.386854015,1.0471975511966);
#189=POINT_STYLE(' ',#281,POSITIVE_LENGTH_MEASURE(1.0E-006),#282);
#190=CARTESIAN_POINT('',(0.0,10.0,-119.292000001015));
#191=CURVE_STYLE('',#283,POSITIVE_LENGTH_MEASURE(1.0E-006),#284);
#192=CIRCLE('',#285,10.0);
#193=CURVE_STYLE('',#286,POSITIVE_LENGTH_MEASURE(1.0E-006),#287);
#194=CIRCLE('',#288,9.0);
#195=SURFACE_STYLE_USAGE(.BOTH.,#289);
#196=FACE_OUTER_BOUND('',#290,.T.);
#197=PLANE('',#291);
#198=POINT_STYLE(' ',#292,POSITIVE_LENGTH_MEASURE(1.0E-006),#293);
#199=CARTESIAN_POINT('',(1.22460635382238E-015,-10.0,-119.292000001015));
#200=CURVE_STYLE('',#294,POSITIVE_LENGTH_MEASURE(1.0E-006),#295);
#201=CIRCLE('',#296,9.0);
#202=PRODUCT_CONTEXT('',#41,'mechanical');
#203=PRODUCT_DEFINITION_FORMATION_WITH_SPECIFIED_SOURCE(' ','NONE',#116,.NOT_KNOWN.);
#204=CARTESIAN_POINT('',(0.0,0.0,0.0));
#205=DIRECTION('',(0.0,0.0,1.0));
#206=DIRECTION('',(1.0,0.0,0.0));
#207= (NAMED_UNIT(#124)LENGTH_UNIT()SI_UNIT(.MILLI.,.METRE.));
#208=PRE_DEFINED_MARKER('');
#209=COLOUR_RGB('',0.498039215803146,0.498039215803146,0.498039215803146);
#210=DRAUGHTING_PRE_DEFINED_CURVE_FONT('continuous');
#211=COLOUR_RGB('',0.800000011920929,0.800000011920929,0.800000011920929);
#212=CARTESIAN_POINT('',(1.14952010691721E-015,-9.386854015,-119.646000000508));
#213=VECTOR('',#298,1.0);
#214=SURFACE_SIDE_STYLE('',(#299));
#215=EDGE_LOOP('',(#300,#301,#302,#303));
#216=AXIS2_PLACEMENT_3D('',#304,#305,#306);
#217=DRAUGHTING_PRE_DEFINED_CURVE_FONT('continuous');
#218=COLOUR_RGB('',0.498039215803146,0.498039215803146,0.498039215803146);
#219=AXIS2_PLACEMENT_3D('',#307,#308,#309);
#220=SURFACE_SIDE_STYLE('',(#310));
#221=EDGE_LOOP('',(#311,#312,#313,#314));
#222=AXIS2_PLACEMENT_3D('',#315,#316,#317);
#223=PRE_DEFINED_MARKER('');
#224=COLOUR_RGB('',0.498039215803146,0.498039215803146,0.498039215803146);
#225=DRAUGHTING_PRE_DEFINED_CURVE_FONT('continuous');
#226=COLOUR_RGB('',0.800000011920929,0.800000011920929,0.800000011920929);
#227=CARTESIAN_POINT('',(-1.14952010691721E-015,9.386854015,-119.646000000508));
#228=VECTOR('',#318,1.0);
#229=PRE_DEFINED_MARKER('');
#230=COLOUR_RGB('',0.498039215803146,0.498039215803146,0.498039215803146);
#231=DRAUGHTING_PRE_DEFINED_CURVE_FONT('continuous');
#232=COLOUR_RGB('',0.498039215803146,0.498039215803146,0.498039215803146);
#233=CARTESIAN_POINT('',(1.22460635382238E-015,-10.0,-27.5));
#234=VECTOR('',#319,1.0);
#235=DRAUGHTING_PRE_DEFINED_CURVE_FONT('continuous');
#236=COLOUR_RGB('',0.498039215803146,0.498039215803146,0.498039215803146);
#237=CARTESIAN_POINT('',(1.16337603613126E-015,-9.5,-0.5));
#238=VECTOR('',#320,1.0);
#239=DRAUGHTING_PRE_DEFINED_CURVE_FONT('continuous');
#240=COLOUR_RGB('',0.498039215803146,0.498039215803146,0.498039215803146);
#241=AXIS2_PLACEMENT_3D('',#321,#322,#323);
#242=SURFACE_SIDE_STYLE('',(#324));
#243=EDGE_LOOP('',(#325,#326,#327,#328));
#244=AXIS2_PLACEMENT_3D('',#329,#330,#331);
#245=SURFACE_SIDE_STYLE('',(#332));
#246=DRAUGHTING_PRE_DEFINED_CURVE_FONT('continuous');
#247=COLOUR_RGB('',0.800000011920929,0.800000011920929,0.800000011920929);
#248=AXIS2_PLACEMENT_3D('',#333,#334,#335);
#249=SURFACE_SIDE_STYLE('',(#336));
#250=EDGE_LOOP('',(#337,#338));
#251=AXIS2_PLACEMENT_3D('',#339,#340,#341);
#252=DRAUGHTING_PRE_DEFINED_CURVE_FONT('continuous');
#253=COLOUR_RGB('',0.498039215803146,0.498039215803146,0.498039215803146);
#254=AXIS2_PLACEMENT_3D('',#342,#343,#344);
#255=PRE_DEFINED_MARKER('');
#256=COLOUR_RGB('',0.498039215803146,0.498039215803146,0.498039215803146);
#257=SURFACE_SIDE_STYLE('',(#345));
#258=EDGE_LOOP('',(#346,#347,#348,#349));
#259=AXIS2_PLACEMENT_3D('',#350,#351,#352);
#260=SURFACE_SIDE_STYLE('',(#353));
#261=EDGE_LOOP('',(#354,#355,#356,#357));
#262=AXIS2_PLACEMENT_3D('',#358,#359,#360);
#263=DRAUGHTING_PRE_DEFINED_CURVE_FONT('continuous');
#264=COLOUR_RGB('',0.498039215803146,0.498039215803146,0.498039215803146);
#265=CARTESIAN_POINT('',(-1.22460635382238E-015,10.0,-27.5));
#266=VECTOR('',#361,1.0);
#267=DRAUGHTING_PRE_DEFINED_CURVE_FONT('continuous');
#268=COLOUR_RGB('',0.498039215803146,0.498039215803146,0.498039215803146);
#269=CARTESIAN_POINT('',(-1.16337603613126E-015,9.5,-0.5));
#270=VECTOR('',#362,1.0);
#271=PRE_DEFINED_MARKER('');
#272=COLOUR_RGB('',0.498039215803146,0.498039215803146,0.498039215803146);
#273=PRE_DEFINED_MARKER('');
#274=COLOUR_RGB('',0.498039215803146,0.498039215803146,0.498039215803146);
#275=DRAUGHTING_PRE_DEFINED_CURVE_FONT('continuous');
#276=COLOUR_RGB('',0.498039215803146,0.498039215803146,0.498039215803146);
#277=AXIS2_PLACEMENT_3D('',#363,#364,#365);
#278=SURFACE_SIDE_STYLE('',(#366));
#279=EDGE_LOOP('',(#367,#368,#369,#370));
#280=AXIS2_PLACEMENT_3D('',#371,#372,#373);
#281=PRE_DEFINED_MARKER('');
#282=COLOUR_RGB('',0.800000011920929,0.800000011920929,0.800000011920929);
#283=DRAUGHTING_PRE_DEFINED_CURVE_FONT('continuous');
#284=COLOUR_RGB('',0.800000011920929,0.800000011920929,0.800000011920929);
#285=AXIS2_PLACEMENT_3D('',#374,#375,#376);
#286=DRAUGHTING_PRE_DEFINED_CURVE_FONT('continuous');
#287=COLOUR_RGB('',0.498039215803146,0.498039215803146,0.498039215803146);
#288=AXIS2_PLACEMENT_3D('',#377,#378,#379);
#289=SURFACE_SIDE_STYLE('',(#380));
#290=EDGE_LOOP('',(#381,#382));
#291=AXIS2_PLACEMENT_3D('',#383,#384,#385);
#292=PRE_DEFINED_MARKER('');
#293=COLOUR_RGB('',0.800000011920929,0.800000011920929,0.800000011920929);
#294=DRAUGHTING_PRE_DEFINED_CURVE_FONT('continuous');
#295=COLOUR_RGB('',0.498039215803146,0.498039215803146,0.498039215803146);
#296=AXIS2_PLACEMENT_3D('',#386,#387,#388);
#298=DIRECTION('',(1.06054021204601E-016,-0.866025403784439,0.5));
#299=SURFACE_STYLE_FILL_AREA(#389);
#300=ORIENTED_EDGE('',*,*,#93,.T.);
#301=ORIENTED_EDGE('',*,*,#107,.F.);
#302=ORIENTED_EDGE('',*,*,#71,.T.);
#303=ORIENTED_EDGE('',*,*,#75,.T.);
#304=CARTESIAN_POINT('',(0.0,0.0,-27.5));
#305=DIRECTION('',(-0.0,-0.0,1.0));
#306=DIRECTION('',(0.0,1.0,0.0));
#307=CARTESIAN_POINT('',(0.0,0.0,-1.0));
#308=DIRECTION('',(0.0,0.0,-1.0));
#309=DIRECTION('',(0.0,1.0,0.0));
#310=SURFACE_STYLE_FILL_AREA(#390);
#311=ORIENTED_EDGE('',*,*,#95,.F.);
#312=ORIENTED_EDGE('',*,*,#115,.T.);
#313=ORIENTED_EDGE('',*,*,#73,.F.);
#314=ORIENTED_EDGE('',*,*,#61,.F.);
#315=CARTESIAN_POINT('',(0.0,0.0,-0.5));
#316=DIRECTION('',(0.0,-0.0,-1.0));
#317=DIRECTION('',(0.0,1.0,0.0));
#318=DIRECTION('',(1.06054021204601E-016,-0.866025403784439,-0.5));
#319=DIRECTION('',(-0.0,-0.0,1.0));
#320=DIRECTION('',(-8.65927457071936E-017,0.707106781186548,0.707106781186548));
#321=CARTESIAN_POINT('',(0.0,0.0,-1.0));
#322=DIRECTION('',(0.0,0.0,-1.0));
#323=DIRECTION('',(0.0,1.0,0.0));
#324=SURFACE_STYLE_FILL_AREA(#391);
#325=ORIENTED_EDGE('',*,*,#67,.F.);
#326=ORIENTED_EDGE('',*,*,#81,.T.);
#327=ORIENTED_EDGE('',*,*,#57,.F.);
#328=ORIENTED_EDGE('',*,*,#101,.F.);
#329=CARTESIAN_POINT('',(0.0,0.0,-119.646000000508));
#330=DIRECTION('',(-0.0,-0.0,1.0));
#331=DIRECTION('',(0.0,1.0,0.0));
#332=SURFACE_STYLE_FILL_AREA(#392);
#333=CARTESIAN_POINT('',(0.0,0.0,-119.292000001015));
#334=DIRECTION('',(0.0,0.0,-1.0));
#335=DIRECTION('',(0.0,1.0,0.0));
#336=SURFACE_STYLE_FILL_AREA(#393);
#337=ORIENTED_EDGE('',*,*,#101,.T.);
#338=ORIENTED_EDGE('',*,*,#85,.T.);
#339=CARTESIAN_POINT('',(0.0,4.386854015,-120.0));
#340=DIRECTION('',(0.0,0.0,-1.0));
#341=DIRECTION('',(0.0,1.0,0.0));
#342=CARTESIAN_POINT('',(0.0,0.0,-120.0));
#343=DIRECTION('',(0.0,0.0,-1.0));
#344=DIRECTION('',(0.0,1.0,0.0));
#345=SURFACE_STYLE_FILL_AREA(#394);
#346=ORIENTED_EDGE('',*,*,#93,.F.);
#347=ORIENTED_EDGE('',*,*,#61,.T.);
#348=ORIENTED_EDGE('',*,*,#71,.F.);
#349=ORIENTED_EDGE('',*,*,#81,.F.);
#350=CARTESIAN_POINT('',(0.0,0.0,-27.5));
#351=DIRECTION('',(-0.0,-0.0,1.0));
#352=DIRECTION('',(0.0,1.0,0.0));
#353=SURFACE_STYLE_FILL_AREA(#395);
#354=ORIENTED_EDGE('',*,*,#95,.T.);
#355=ORIENTED_EDGE('',*,*,#75,.F.);
#356=ORIENTED_EDGE('',*,*,#73,.T.);
#357=ORIENTED_EDGE('',*,*,#109,.T.);
#358=CARTESIAN_POINT('',(0.0,0.0,-0.5));
#359=DIRECTION('',(0.0,-0.0,-1.0));
#360=DIRECTION('',(0.0,1.0,0.0));
#361=DIRECTION('',(0.0,0.0,-1.0));
#362=DIRECTION('',(-8.65927457071936E-017,0.707106781186548,-0.707106781186548));
#363=CARTESIAN_POINT('',(0.0,0.0,-120.0));
#364=DIRECTION('',(0.0,0.0,-1.0));
#365=DIRECTION('',(0.0,1.0,0.0));
#366=SURFACE_STYLE_FILL_AREA(#396);
#367=ORIENTED_EDGE('',*,*,#67,.T.);
#368=ORIENTED_EDGE('',*,*,#85,.F.);
#369=ORIENTED_EDGE('',*,*,#57,.T.);
#370=ORIENTED_EDGE('',*,*,#107,.T.);
#371=CARTESIAN_POINT('',(0.0,0.0,-119.646000000508));
#372=DIRECTION('',(-0.0,-0.0,1.0));
#373=DIRECTION('',(0.0,1.0,0.0));
#374=CARTESIAN_POINT('',(0.0,0.0,-119.292000001015));
#375=DIRECTION('',(0.0,0.0,-1.0));
#376=DIRECTION('',(0.0,1.0,0.0));
#377=CARTESIAN_POINT('',(0.0,0.0,0.0));
#378=DIRECTION('',(0.0,0.0,-1.0));
#379=DIRECTION('',(0.0,1.0,0.0));
#380=SURFACE_STYLE_FILL_AREA(#397);
#381=ORIENTED_EDGE('',*,*,#115,.F.);
#382=ORIENTED_EDGE('',*,*,#109,.F.);
#383=CARTESIAN_POINT('',(0.0,4.5,0.0));
#384=DIRECTION('',(-0.0,0.0,1.0));
#385=DIRECTION('',(0.0,-1.0,0.0));
#386=CARTESIAN_POINT('',(0.0,0.0,0.0));
#387=DIRECTION('',(0.0,0.0,-1.0));
#388=DIRECTION('',(0.0,1.0,0.0));
#389=FILL_AREA_STYLE('',(#398));
#390=FILL_AREA_STYLE('',(#399));
#391=FILL_AREA_STYLE('',(#400));
#392=FILL_AREA_STYLE('',(#401));
#393=FILL_AREA_STYLE('',(#402));
#394=FILL_AREA_STYLE('',(#403));
#395=FILL_AREA_STYLE('',(#404));
#396=FILL_AREA_STYLE('',(#405));
#397=FILL_AREA_STYLE('',(#406));
#398=FILL_AREA_STYLE_COLOUR('',#407);
#399=FILL_AREA_STYLE_COLOUR('',#408);
#400=FILL_AREA_STYLE_COLOUR('',#409);
#401=FILL_AREA_STYLE_COLOUR('',#410);
#402=FILL_AREA_STYLE_COLOUR('',#411);
#403=FILL_AREA_STYLE_COLOUR('',#412);
#404=FILL_AREA_STYLE_COLOUR('',#413);
#405=FILL_AREA_STYLE_COLOUR('',#414);
#406=FILL_AREA_STYLE_COLOUR('',#415);
#407=COLOUR_RGB('',0.498039215803146,0.498039215803146,0.498039215803146);
#408=COLOUR_RGB('',0.498039215803146,0.498039215803146,0.498039215803146);
#409=COLOUR_RGB('',0.800000011920929,0.800000011920929,0.800000011920929);
#410=COLOUR_RGB('',0.498039215803146,0.498039215803146,0.498039215803146);
#411=COLOUR_RGB('',0.498039215803146,0.498039215803146,0.498039215803146);
#412=COLOUR_RGB('',0.498039215803146,0.498039215803146,0.498039215803146);
#413=COLOUR_RGB('',0.498039215803146,0.498039215803146,0.498039215803146);
#414=COLOUR_RGB('',0.800000011920929,0.800000011920929,0.800000011920929);
#415=COLOUR_RGB('',0.498039215803146,0.498039215803146,0.498039215803146);
#416=AXIS2_PLACEMENT_3D('PCS',#417,#418,#419);
#417=CARTESIAN_POINT('',(0.0,0.0,0.0));
#418=DIRECTION('',(0.0,0.0,1.0));
#419=DIRECTION('',(1.0,0.0,0.0));
#420=AXIS2_PLACEMENT_3D('CIP',#421,#422,#423);
#421=CARTESIAN_POINT('',(0.0,0.0,-120.0));
#422=DIRECTION('',(0.0,0.0,1.0));
#423=DIRECTION('',(1.0,0.0,0.0));
#424=AXIS2_PLACEMENT_3D('CRP',#425,#426,#427);
#425=CARTESIAN_POINT('',(-10.0,0.0,-120.0));
#426=DIRECTION('',(0.0,0.0,1.0));
#427=DIRECTION('',(1.0,0.0,0.0));
#428=AXIS2_PLACEMENT_3D('MCS',#429,#430,#431);
#429=CARTESIAN_POINT('',(0.0,0.0,-54.0));
#430=DIRECTION('',(0.0,0.0,1.0));
#431=DIRECTION('',(1.0,0.0,0.0));
#432=CONSTRUCTIVE_GEOMETRY_REPRESENTATION_RELATIONSHIP('coordinate systems',$,#45,#433);
#433=CONSTRUCTIVE_GEOMETRY_REPRESENTATION('coordinate systems',(#416,#420,#424,#428),#6);
ENDSEC;
END-ISO-10303-21;
