ISO-10303-21;
HEADER;
FILE_DESCRIPTION(('no description'),'unknown implementation level');
FILE_NAME('solidESrFzsUzR5VXtyj3Rx0lZNPiiaE_1.STP','  ',('CIMSOURCE GmbH'),('CADClick - KiM GmbH - www.kimweb.de'),'unknown preprocess','ACIS','unknown authorization');
FILE_SCHEMA(('automotive_design'));
ENDSEC;
DATA;
#1=MECHANICAL_DESIGN_GEOMETRIC_PRESENTATION_REPRESENTATION(' ',(#10,#11,#12,#13,#14,#15,#16,#17,#18,#19,#20,#21,#22,#23,#24,#25,#26,#27,#28,#29,#30,#31,#32,#33,#34,#35,#36,#37,#38,#39,#40,#41,#42,#43,#44,#45,#46,#47,#48,#49,#50,#51,#52,#53),#6);
#2=PRODUCT_DEFINITION_CONTEXT('',#54,'design');
#3=APPLICATION_PROTOCOL_DEFINITION('INTERNATIONAL STANDARD','automotive_design',1994,#54);
#4=PRODUCT_CATEGORY_RELATIONSHIP('NONE','NONE',#55,#56);
#5=SHAPE_DEFINITION_REPRESENTATION(#57,#58);
#6= (GEOMETRIC_REPRESENTATION_CONTEXT(3)GLOBAL_UNCERTAINTY_ASSIGNED_CONTEXT((#61))GLOBAL_UNIT_ASSIGNED_CONTEXT((#63,#64,#65))REPRESENTATION_CONTEXT('NONE','WORKSPACE'));
#10=STYLED_ITEM('',(#67),#68);
#11=STYLED_ITEM('',(#69),#70);
#12=STYLED_ITEM('',(#71),#72);
#13=STYLED_ITEM('',(#73),#74);
#14=STYLED_ITEM('',(#75),#76);
#15=STYLED_ITEM('',(#77),#78);
#16=STYLED_ITEM('',(#79),#80);
#17=STYLED_ITEM('',(#81),#82);
#18=STYLED_ITEM('',(#83),#84);
#19=STYLED_ITEM('',(#85),#86);
#20=STYLED_ITEM('',(#87),#88);
#21=STYLED_ITEM('',(#89),#90);
#22=STYLED_ITEM('',(#91),#92);
#23=STYLED_ITEM('',(#93),#94);
#24=STYLED_ITEM('',(#95),#96);
#25=STYLED_ITEM('',(#97),#98);
#26=STYLED_ITEM('',(#99),#100);
#27=STYLED_ITEM('',(#101),#102);
#28=STYLED_ITEM('',(#103),#104);
#29=STYLED_ITEM('',(#105),#106);
#30=STYLED_ITEM('',(#107),#108);
#31=STYLED_ITEM('',(#109),#110);
#32=STYLED_ITEM('',(#111),#112);
#33=STYLED_ITEM('',(#113),#114);
#34=STYLED_ITEM('',(#115),#116);
#35=STYLED_ITEM('',(#117),#118);
#36=STYLED_ITEM('',(#119),#120);
#37=STYLED_ITEM('',(#121),#122);
#38=STYLED_ITEM('',(#123),#124);
#39=STYLED_ITEM('',(#125),#126);
#40=STYLED_ITEM('',(#127),#128);
#41=STYLED_ITEM('',(#129),#130);
#42=STYLED_ITEM('',(#131),#132);
#43=STYLED_ITEM('',(#133),#134);
#44=STYLED_ITEM('',(#135),#136);
#45=STYLED_ITEM('',(#137),#138);
#46=STYLED_ITEM('',(#139),#140);
#47=STYLED_ITEM('',(#141),#142);
#48=STYLED_ITEM('',(#143),#144);
#49=STYLED_ITEM('',(#145),#146);
#50=STYLED_ITEM('',(#147),#148);
#51=STYLED_ITEM('',(#149),#150);
#52=STYLED_ITEM('',(#151),#152);
#53=STYLED_ITEM('',(#153),#154);
#54=APPLICATION_CONTEXT(' ');
#55=PRODUCT_CATEGORY('part','NONE');
#56=PRODUCT_RELATED_PRODUCT_CATEGORY('detail',' ',(#155));
#57=PRODUCT_DEFINITION_SHAPE('NONE','NONE',#156);
#58=ADVANCED_BREP_SHAPE_REPRESENTATION('1',(#80,#157),#6);
#61=UNCERTAINTY_MEASURE_WITH_UNIT(LENGTH_MEASURE(1.0E-006),#63,'','');
#63= (CONVERSION_BASED_UNIT('MILLIMETRE',#160)LENGTH_UNIT()NAMED_UNIT(#163));
#64= (NAMED_UNIT(#165)PLANE_ANGLE_UNIT()SI_UNIT($,.RADIAN.));
#65= (NAMED_UNIT(#165)SOLID_ANGLE_UNIT()SI_UNIT($,.STERADIAN.));
#67=PRESENTATION_STYLE_ASSIGNMENT((#171));
#68=EDGE_CURVE('',#76,#106,#172,.T.);
#69=PRESENTATION_STYLE_ASSIGNMENT((#173));
#70=VERTEX_POINT('',#174);
#71=PRESENTATION_STYLE_ASSIGNMENT((#175));
#72=EDGE_CURVE('',#124,#134,#176,.T.);
#73=PRESENTATION_STYLE_ASSIGNMENT((#177));
#74=ADVANCED_FACE('',(#178),#179,.T.);
#75=PRESENTATION_STYLE_ASSIGNMENT((#180));
#76=VERTEX_POINT('',#181);
#77=PRESENTATION_STYLE_ASSIGNMENT((#182));
#78=ADVANCED_FACE('',(#183),#184,.T.);
#79=PRESENTATION_STYLE_ASSIGNMENT((#185));
#80=MANIFOLD_SOLID_BREP('1',#186);
#81=PRESENTATION_STYLE_ASSIGNMENT((#187));
#82=EDGE_CURVE('',#134,#124,#188,.T.);
#83=PRESENTATION_STYLE_ASSIGNMENT((#189));
#84=ADVANCED_FACE('',(#190),#191,.T.);
#85=PRESENTATION_STYLE_ASSIGNMENT((#192));
#86=ADVANCED_FACE('',(#193),#194,.T.);
#87=PRESENTATION_STYLE_ASSIGNMENT((#195));
#88=EDGE_CURVE('',#70,#124,#196,.T.);
#89=PRESENTATION_STYLE_ASSIGNMENT((#197));
#90=ADVANCED_FACE('',(#198),#199,.T.);
#91=PRESENTATION_STYLE_ASSIGNMENT((#200));
#92=VERTEX_POINT('',#201);
#93=PRESENTATION_STYLE_ASSIGNMENT((#202));
#94=VERTEX_POINT('',#203);
#95=PRESENTATION_STYLE_ASSIGNMENT((#204));
#96=VERTEX_POINT('',#205);
#97=PRESENTATION_STYLE_ASSIGNMENT((#206));
#98=ADVANCED_FACE('',(#207),#208,.T.);
#99=PRESENTATION_STYLE_ASSIGNMENT((#209));
#100=EDGE_CURVE('',#144,#122,#210,.T.);
#101=PRESENTATION_STYLE_ASSIGNMENT((#211));
#102=EDGE_CURVE('',#116,#96,#212,.T.);
#103=PRESENTATION_STYLE_ASSIGNMENT((#213));
#104=EDGE_CURVE('',#70,#92,#214,.T.);
#105=PRESENTATION_STYLE_ASSIGNMENT((#215));
#106=VERTEX_POINT('',#216);
#107=PRESENTATION_STYLE_ASSIGNMENT((#217));
#108=EDGE_CURVE('',#122,#144,#218,.T.);
#109=PRESENTATION_STYLE_ASSIGNMENT((#219));
#110=EDGE_CURVE('',#106,#76,#220,.T.);
#111=PRESENTATION_STYLE_ASSIGNMENT((#221));
#112=ADVANCED_FACE('',(#222),#223,.T.);
#113=PRESENTATION_STYLE_ASSIGNMENT((#224));
#114=EDGE_CURVE('',#96,#116,#225,.T.);
#115=PRESENTATION_STYLE_ASSIGNMENT((#226));
#116=VERTEX_POINT('',#227);
#117=PRESENTATION_STYLE_ASSIGNMENT((#228));
#118=ADVANCED_FACE('',(#229),#230,.T.);
#119=PRESENTATION_STYLE_ASSIGNMENT((#231));
#120=EDGE_CURVE('',#76,#70,#232,.T.);
#121=PRESENTATION_STYLE_ASSIGNMENT((#233));
#122=VERTEX_POINT('',#234);
#123=PRESENTATION_STYLE_ASSIGNMENT((#235));
#124=VERTEX_POINT('',#236);
#125=PRESENTATION_STYLE_ASSIGNMENT((#237));
#126=EDGE_CURVE('',#94,#146,#238,.T.);
#127=PRESENTATION_STYLE_ASSIGNMENT((#239));
#128=ADVANCED_FACE('',(#240),#241,.T.);
#129=PRESENTATION_STYLE_ASSIGNMENT((#242));
#130=ADVANCED_FACE('',(#243,#244),#245,.T.);
#131=PRESENTATION_STYLE_ASSIGNMENT((#246));
#132=ADVANCED_FACE('',(#247),#248,.T.);
#133=PRESENTATION_STYLE_ASSIGNMENT((#249));
#134=VERTEX_POINT('',#250);
#135=PRESENTATION_STYLE_ASSIGNMENT((#251));
#136=EDGE_CURVE('',#96,#144,#252,.T.);
#137=PRESENTATION_STYLE_ASSIGNMENT((#253));
#138=EDGE_CURVE('',#146,#94,#254,.T.);
#139=PRESENTATION_STYLE_ASSIGNMENT((#255));
#140=EDGE_CURVE('',#134,#92,#256,.T.);
#141=PRESENTATION_STYLE_ASSIGNMENT((#257));
#142=EDGE_CURVE('',#92,#106,#258,.T.);
#143=PRESENTATION_STYLE_ASSIGNMENT((#259));
#144=VERTEX_POINT('',#260);
#145=PRESENTATION_STYLE_ASSIGNMENT((#261));
#146=VERTEX_POINT('',#262);
#147=PRESENTATION_STYLE_ASSIGNMENT((#263));
#148=EDGE_CURVE('',#144,#146,#264,.T.);
#149=PRESENTATION_STYLE_ASSIGNMENT((#265));
#150=EDGE_CURVE('',#92,#70,#266,.T.);
#151=PRESENTATION_STYLE_ASSIGNMENT((#267));
#152=EDGE_CURVE('',#94,#122,#268,.T.);
#153=PRESENTATION_STYLE_ASSIGNMENT((#269));
#154=EDGE_CURVE('',#122,#116,#270,.T.);
#155=PRODUCT('1','1','PART-1-DESC',(#271));
#156=PRODUCT_DEFINITION('NONE','NONE',#272,#2);
#157=AXIS2_PLACEMENT_3D('',#273,#274,#275);
#160=LENGTH_MEASURE_WITH_UNIT(LENGTH_MEASURE(1.0),#276);
#163=DIMENSIONAL_EXPONENTS(1.0,0.0,0.0,0.0,0.0,0.0,0.0);
#165=DIMENSIONAL_EXPONENTS(0.0,0.0,0.0,0.0,0.0,0.0,0.0);
#171=CURVE_STYLE('',#277,POSITIVE_LENGTH_MEASURE(1.0E-006),#278);
#172=CIRCLE('',#279,3.175);
#173=POINT_STYLE(' ',#280,POSITIVE_LENGTH_MEASURE(1.0E-006),#281);
#174=CARTESIAN_POINT('',(3.88812517338605E-016,-3.175,-0.396999999999998));
#175=CURVE_STYLE('',#282,POSITIVE_LENGTH_MEASURE(1.0E-006),#283);
#176=CIRCLE('',#284,2.94579194313172);
#177=SURFACE_STYLE_USAGE(.BOTH.,#285);
#178=FACE_OUTER_BOUND('',#286,.T.);
#179=CYLINDRICAL_SURFACE('',#287,3.1115);
#180=POINT_STYLE(' ',#288,POSITIVE_LENGTH_MEASURE(1.0E-006),#289);
#181=CARTESIAN_POINT('',(0.0,-3.175,-63.5));
#182=SURFACE_STYLE_USAGE(.BOTH.,#290);
#183=FACE_OUTER_BOUND('',#291,.T.);
#184=CONICAL_SURFACE('',#292,2.78704358,1.0471975511966);
#185=SURFACE_STYLE_USAGE(.BOTH.,#293);
#186=CLOSED_SHELL('',(#86,#112,#128,#74,#84,#78,#130,#98,#90,#118,#132));
#187=CURVE_STYLE('',#294,POSITIVE_LENGTH_MEASURE(1.0E-006),#295);
#188=CIRCLE('',#296,2.94579194313172);
#189=SURFACE_STYLE_USAGE(.BOTH.,#297);
#190=FACE_OUTER_BOUND('',#298,.T.);
#191=CYLINDRICAL_SURFACE('',#299,3.1115);
#192=SURFACE_STYLE_USAGE(.BOTH.,#300);
#193=FACE_OUTER_BOUND('',#301,.T.);
#194=CYLINDRICAL_SURFACE('',#302,3.175);
#195=CURVE_STYLE('',#303,POSITIVE_LENGTH_MEASURE(1.0E-006),#304);
#196=LINE('',#305,#306);
#197=SURFACE_STYLE_USAGE(.BOTH.,#307);
#198=FACE_OUTER_BOUND('',#308,.T.);
#199=CONICAL_SURFACE('',#309,3.06039597156586,0.523598775598301);
#200=POINT_STYLE(' ',#310,POSITIVE_LENGTH_MEASURE(1.0E-006),#311);
#201=CARTESIAN_POINT('',(0.0,3.175,-0.396999999999998));
#202=POINT_STYLE(' ',#312,POSITIVE_LENGTH_MEASURE(1.0E-006),#313);
#203=CARTESIAN_POINT('',(3.0156998829774E-016,-2.46258716,-76.2));
#204=POINT_STYLE(' ',#314,POSITIVE_LENGTH_MEASURE(1.0E-006),#315);
#205=CARTESIAN_POINT('',(0.0,3.1115,-63.5));
#206=SURFACE_STYLE_USAGE(.BOTH.,#316);
#207=FACE_OUTER_BOUND('',#317,.T.);
#208=PLANE('',#318);
#209=CURVE_STYLE('',#319,POSITIVE_LENGTH_MEASURE(1.0E-006),#320);
#210=CIRCLE('',#321,3.1115);
#211=CURVE_STYLE('',#322,POSITIVE_LENGTH_MEASURE(1.0E-006),#323);
#212=CIRCLE('',#324,3.1115);
#213=CURVE_STYLE('',#325,POSITIVE_LENGTH_MEASURE(1.0E-006),#326);
#214=CIRCLE('',#327,3.175);
#215=POINT_STYLE(' ',#328,POSITIVE_LENGTH_MEASURE(1.0E-006),#329);
#216=CARTESIAN_POINT('',(-3.88812517338605E-016,3.175,-63.5));
#217=CURVE_STYLE('',#330,POSITIVE_LENGTH_MEASURE(1.0E-006),#331);
#218=CIRCLE('',#332,3.1115);
#219=CURVE_STYLE('',#333,POSITIVE_LENGTH_MEASURE(1.0E-006),#334);
#220=CIRCLE('',#335,3.175);
#221=SURFACE_STYLE_USAGE(.BOTH.,#336);
#222=FACE_OUTER_BOUND('',#337,.T.);
#223=CONICAL_SURFACE('',#338,3.06039597156586,0.523598775598301);
#224=CURVE_STYLE('',#339,POSITIVE_LENGTH_MEASURE(1.0E-006),#340);
#225=CIRCLE('',#341,3.1115);
#226=POINT_STYLE(' ',#342,POSITIVE_LENGTH_MEASURE(1.0E-006),#343);
#227=CARTESIAN_POINT('',(3.81036266991833E-016,-3.1115,-63.5));
#228=SURFACE_STYLE_USAGE(.BOTH.,#344);
#229=FACE_OUTER_BOUND('',#345,.T.);
#230=CYLINDRICAL_SURFACE('',#346,3.175);
#231=CURVE_STYLE('',#347,POSITIVE_LENGTH_MEASURE(1.0E-006),#348);
#232=LINE('',#349,#350);
#233=POINT_STYLE(' ',#351,POSITIVE_LENGTH_MEASURE(1.0E-006),#352);
#234=CARTESIAN_POINT('',(3.81036266991833E-016,-3.1115,-75.8253499971454));
#235=POINT_STYLE(' ',#353,POSITIVE_LENGTH_MEASURE(1.0E-006),#354);
#236=CARTESIAN_POINT('',(3.60743553059787E-016,-2.94579194313172,0.0));
#237=CURVE_STYLE('',#355,POSITIVE_LENGTH_MEASURE(1.0E-006),#356);
#238=CIRCLE('',#357,2.46258716);
#239=SURFACE_STYLE_USAGE(.BOTH.,#358);
#240=FACE_OUTER_BOUND('',#359,.T.);
#241=CONICAL_SURFACE('',#360,2.78704358,1.0471975511966);
#242=SURFACE_STYLE_USAGE(.BOTH.,#361);
#243=FACE_BOUND('',#362,.T.);
#244=FACE_OUTER_BOUND('',#363,.T.);
#245=PLANE('',#364);
#246=SURFACE_STYLE_USAGE(.BOTH.,#365);
#247=FACE_OUTER_BOUND('',#366,.T.);
#248=PLANE('',#367);
#249=POINT_STYLE(' ',#368,POSITIVE_LENGTH_MEASURE(1.0E-006),#369);
#250=CARTESIAN_POINT('',(0.0,2.94579194313172,0.0));
#251=CURVE_STYLE('',#370,POSITIVE_LENGTH_MEASURE(1.0E-006),#371);
#252=LINE('',#372,#373);
#253=CURVE_STYLE('',#374,POSITIVE_LENGTH_MEASURE(1.0E-006),#375);
#254=CIRCLE('',#376,2.46258716);
#255=CURVE_STYLE('',#377,POSITIVE_LENGTH_MEASURE(1.0E-006),#378);
#256=LINE('',#379,#380);
#257=CURVE_STYLE('',#381,POSITIVE_LENGTH_MEASURE(1.0E-006),#382);
#258=LINE('',#383,#384);
#259=POINT_STYLE(' ',#385,POSITIVE_LENGTH_MEASURE(1.0E-006),#386);
#260=CARTESIAN_POINT('',(0.0,3.1115,-75.8253499971454));
#261=POINT_STYLE(' ',#387,POSITIVE_LENGTH_MEASURE(1.0E-006),#388);
#262=CARTESIAN_POINT('',(0.0,2.46258716,-76.2));
#263=CURVE_STYLE('',#389,POSITIVE_LENGTH_MEASURE(1.0E-006),#390);
#264=LINE('',#391,#392);
#265=CURVE_STYLE('',#393,POSITIVE_LENGTH_MEASURE(1.0E-006),#394);
#266=CIRCLE('',#395,3.175);
#267=CURVE_STYLE('',#396,POSITIVE_LENGTH_MEASURE(1.0E-006),#397);
#268=LINE('',#398,#399);
#269=CURVE_STYLE('',#400,POSITIVE_LENGTH_MEASURE(1.0E-006),#401);
#270=LINE('',#402,#403);
#271=PRODUCT_CONTEXT('',#54,'mechanical');
#272=PRODUCT_DEFINITION_FORMATION_WITH_SPECIFIED_SOURCE(' ','NONE',#155,.NOT_KNOWN.);
#273=CARTESIAN_POINT('',(0.0,0.0,0.0));
#274=DIRECTION('',(0.0,0.0,1.0));
#275=DIRECTION('',(1.0,0.0,0.0));
#276= (NAMED_UNIT(#163)LENGTH_UNIT()SI_UNIT(.MILLI.,.METRE.));
#277=DRAUGHTING_PRE_DEFINED_CURVE_FONT('continuous');
#278=COLOUR_RGB('',0.498039215803146,0.498039215803146,0.498039215803146);
#279=AXIS2_PLACEMENT_3D('',#405,#406,#407);
#280=PRE_DEFINED_MARKER('');
#281=COLOUR_RGB('',0.498039215803146,0.498039215803146,0.498039215803146);
#282=DRAUGHTING_PRE_DEFINED_CURVE_FONT('continuous');
#283=COLOUR_RGB('',0.498039215803146,0.498039215803146,0.498039215803146);
#284=AXIS2_PLACEMENT_3D('',#408,#409,#410);
#285=SURFACE_SIDE_STYLE('',(#411));
#286=EDGE_LOOP('',(#412,#413,#414,#415));
#287=AXIS2_PLACEMENT_3D('',#416,#417,#418);
#288=PRE_DEFINED_MARKER('');
#289=COLOUR_RGB('',0.498039215803146,0.498039215803146,0.498039215803146);
#290=SURFACE_SIDE_STYLE('',(#419));
#291=EDGE_LOOP('',(#420,#421,#422,#423));
#292=AXIS2_PLACEMENT_3D('',#424,#425,#426);
#293=SURFACE_SIDE_STYLE('',(#427));
#294=DRAUGHTING_PRE_DEFINED_CURVE_FONT('continuous');
#295=COLOUR_RGB('',0.498039215803146,0.498039215803146,0.498039215803146);
#296=AXIS2_PLACEMENT_3D('',#428,#429,#430);
#297=SURFACE_SIDE_STYLE('',(#431));
#298=EDGE_LOOP('',(#432,#433,#434,#435));
#299=AXIS2_PLACEMENT_3D('',#436,#437,#438);
#300=SURFACE_SIDE_STYLE('',(#439));
#301=EDGE_LOOP('',(#440,#441,#442,#443));
#302=AXIS2_PLACEMENT_3D('',#444,#445,#446);
#303=DRAUGHTING_PRE_DEFINED_CURVE_FONT('continuous');
#304=COLOUR_RGB('',0.498039215803146,0.498039215803146,0.498039215803146);
#305=CARTESIAN_POINT('',(3.74778035199196E-016,-3.06039597156586,-0.198499999999996));
#306=VECTOR('',#447,1.0);
#307=SURFACE_SIDE_STYLE('',(#448));
#308=EDGE_LOOP('',(#449,#450,#451,#452));
#309=AXIS2_PLACEMENT_3D('',#453,#454,#455);
#310=PRE_DEFINED_MARKER('');
#311=COLOUR_RGB('',0.498039215803146,0.498039215803146,0.498039215803146);
#312=PRE_DEFINED_MARKER('');
#313=COLOUR_RGB('',0.498039215803146,0.498039215803146,0.498039215803146);
#314=PRE_DEFINED_MARKER('');
#315=COLOUR_RGB('',0.498039215803146,0.498039215803146,0.498039215803146);
#316=SURFACE_SIDE_STYLE('',(#456));
#317=EDGE_LOOP('',(#457,#458));
#318=AXIS2_PLACEMENT_3D('',#459,#460,#461);
#319=DRAUGHTING_PRE_DEFINED_CURVE_FONT('continuous');
#320=COLOUR_RGB('',0.800000011920929,0.800000011920929,0.800000011920929);
#321=AXIS2_PLACEMENT_3D('',#462,#463,#464);
#322=DRAUGHTING_PRE_DEFINED_CURVE_FONT('continuous');
#323=COLOUR_RGB('',0.498039215803146,0.498039215803146,0.498039215803146);
#324=AXIS2_PLACEMENT_3D('',#465,#466,#467);
#325=DRAUGHTING_PRE_DEFINED_CURVE_FONT('continuous');
#326=COLOUR_RGB('',0.498039215803146,0.498039215803146,0.498039215803146);
#327=AXIS2_PLACEMENT_3D('',#468,#469,#470);
#328=PRE_DEFINED_MARKER('');
#329=COLOUR_RGB('',0.498039215803146,0.498039215803146,0.498039215803146);
#330=DRAUGHTING_PRE_DEFINED_CURVE_FONT('continuous');
#331=COLOUR_RGB('',0.800000011920929,0.800000011920929,0.800000011920929);
#332=AXIS2_PLACEMENT_3D('',#471,#472,#473);
#333=DRAUGHTING_PRE_DEFINED_CURVE_FONT('continuous');
#334=COLOUR_RGB('',0.498039215803146,0.498039215803146,0.498039215803146);
#335=AXIS2_PLACEMENT_3D('',#474,#475,#476);
#336=SURFACE_SIDE_STYLE('',(#477));
#337=EDGE_LOOP('',(#478,#479,#480,#481));
#338=AXIS2_PLACEMENT_3D('',#482,#483,#484);
#339=DRAUGHTING_PRE_DEFINED_CURVE_FONT('continuous');
#340=COLOUR_RGB('',0.498039215803146,0.498039215803146,0.498039215803146);
#341=AXIS2_PLACEMENT_3D('',#485,#486,#487);
#342=PRE_DEFINED_MARKER('');
#343=COLOUR_RGB('',0.498039215803146,0.498039215803146,0.498039215803146);
#344=SURFACE_SIDE_STYLE('',(#488));
#345=EDGE_LOOP('',(#489,#490,#491,#492));
#346=AXIS2_PLACEMENT_3D('',#493,#494,#495);
#347=DRAUGHTING_PRE_DEFINED_CURVE_FONT('continuous');
#348=COLOUR_RGB('',0.498039215803146,0.498039215803146,0.498039215803146);
#349=CARTESIAN_POINT('',(3.88812517338605E-016,-3.175,-27.2985));
#350=VECTOR('',#496,1.0);
#351=PRE_DEFINED_MARKER('');
#352=COLOUR_RGB('',0.800000011920929,0.800000011920929,0.800000011920929);
#353=PRE_DEFINED_MARKER('');
#354=COLOUR_RGB('',0.498039215803146,0.498039215803146,0.498039215803146);
#355=DRAUGHTING_PRE_DEFINED_CURVE_FONT('continuous');
#356=COLOUR_RGB('',0.498039215803146,0.498039215803146,0.498039215803146);
#357=AXIS2_PLACEMENT_3D('',#497,#498,#499);
#358=SURFACE_SIDE_STYLE('',(#500));
#359=EDGE_LOOP('',(#501,#502,#503,#504));
#360=AXIS2_PLACEMENT_3D('',#505,#506,#507);
#361=SURFACE_SIDE_STYLE('',(#508));
#362=EDGE_LOOP('',(#509,#510));
#363=EDGE_LOOP('',(#511,#512));
#364=AXIS2_PLACEMENT_3D('',#513,#514,#515);
#365=SURFACE_SIDE_STYLE('',(#516));
#366=EDGE_LOOP('',(#517,#518));
#367=AXIS2_PLACEMENT_3D('',#519,#520,#521);
#368=PRE_DEFINED_MARKER('');
#369=COLOUR_RGB('',0.498039215803146,0.498039215803146,0.498039215803146);
#370=DRAUGHTING_PRE_DEFINED_CURVE_FONT('continuous');
#371=COLOUR_RGB('',0.800000011920929,0.800000011920929,0.800000011920929);
#372=CARTESIAN_POINT('',(-3.81036266991833E-016,3.1115,-69.6626749985727));
#373=VECTOR('',#522,1.0);
#374=DRAUGHTING_PRE_DEFINED_CURVE_FONT('continuous');
#375=COLOUR_RGB('',0.498039215803146,0.498039215803146,0.498039215803146);
#376=AXIS2_PLACEMENT_3D('',#523,#524,#525);
#377=DRAUGHTING_PRE_DEFINED_CURVE_FONT('continuous');
#378=COLOUR_RGB('',0.498039215803146,0.498039215803146,0.498039215803146);
#379=CARTESIAN_POINT('',(-3.74778035199196E-016,3.06039597156586,-0.198499999999996));
#380=VECTOR('',#526,1.0);
#381=DRAUGHTING_PRE_DEFINED_CURVE_FONT('continuous');
#382=COLOUR_RGB('',0.498039215803146,0.498039215803146,0.498039215803146);
#383=CARTESIAN_POINT('',(-3.88812517338605E-016,3.175,-27.2985));
#384=VECTOR('',#527,1.0);
#385=PRE_DEFINED_MARKER('');
#386=COLOUR_RGB('',0.800000011920929,0.800000011920929,0.800000011920929);
#387=PRE_DEFINED_MARKER('');
#388=COLOUR_RGB('',0.498039215803146,0.498039215803146,0.498039215803146);
#389=DRAUGHTING_PRE_DEFINED_CURVE_FONT('continuous');
#390=COLOUR_RGB('',0.800000011920929,0.800000011920929,0.800000011920929);
#391=CARTESIAN_POINT('',(-3.41303127644786E-016,2.78704358,-76.0126749985727));
#392=VECTOR('',#528,1.0);
#393=DRAUGHTING_PRE_DEFINED_CURVE_FONT('continuous');
#394=COLOUR_RGB('',0.498039215803146,0.498039215803146,0.498039215803146);
#395=AXIS2_PLACEMENT_3D('',#529,#530,#531);
#396=DRAUGHTING_PRE_DEFINED_CURVE_FONT('continuous');
#397=COLOUR_RGB('',0.800000011920929,0.800000011920929,0.800000011920929);
#398=CARTESIAN_POINT('',(3.41303127644786E-016,-2.78704358,-76.0126749985727));
#399=VECTOR('',#532,1.0);
#400=DRAUGHTING_PRE_DEFINED_CURVE_FONT('continuous');
#401=COLOUR_RGB('',0.800000011920929,0.800000011920929,0.800000011920929);
#402=CARTESIAN_POINT('',(3.81036266991833E-016,-3.1115,-69.6626749985727));
#403=VECTOR('',#533,1.0);
#405=CARTESIAN_POINT('',(0.0,0.0,-63.5));
#406=DIRECTION('',(0.0,0.0,-1.0));
#407=DIRECTION('',(0.0,-1.0,0.0));
#408=CARTESIAN_POINT('',(0.0,0.0,0.0));
#409=DIRECTION('',(0.0,0.0,-1.0));
#410=DIRECTION('',(0.0,1.0,0.0));
#411=SURFACE_STYLE_FILL_AREA(#534);
#412=ORIENTED_EDGE('',*,*,#136,.F.);
#413=ORIENTED_EDGE('',*,*,#102,.F.);
#414=ORIENTED_EDGE('',*,*,#154,.F.);
#415=ORIENTED_EDGE('',*,*,#100,.F.);
#416=CARTESIAN_POINT('',(0.0,0.0,-69.6626749985727));
#417=DIRECTION('',(-0.0,-0.0,1.0));
#418=DIRECTION('',(0.0,1.0,0.0));
#419=SURFACE_STYLE_FILL_AREA(#535);
#420=ORIENTED_EDGE('',*,*,#148,.T.);
#421=ORIENTED_EDGE('',*,*,#126,.F.);
#422=ORIENTED_EDGE('',*,*,#152,.T.);
#423=ORIENTED_EDGE('',*,*,#108,.T.);
#424=CARTESIAN_POINT('',(0.0,0.0,-76.0126749985727));
#425=DIRECTION('',(-0.0,-0.0,1.0));
#426=DIRECTION('',(0.0,1.0,0.0));
#427=SURFACE_STYLE_FILL_AREA(#536);
#428=CARTESIAN_POINT('',(0.0,0.0,0.0));
#429=DIRECTION('',(0.0,0.0,-1.0));
#430=DIRECTION('',(0.0,1.0,0.0));
#431=SURFACE_STYLE_FILL_AREA(#537);
#432=ORIENTED_EDGE('',*,*,#136,.T.);
#433=ORIENTED_EDGE('',*,*,#108,.F.);
#434=ORIENTED_EDGE('',*,*,#154,.T.);
#435=ORIENTED_EDGE('',*,*,#114,.F.);
#436=CARTESIAN_POINT('',(0.0,0.0,-69.6626749985727));
#437=DIRECTION('',(-0.0,-0.0,1.0));
#438=DIRECTION('',(0.0,1.0,0.0));
#439=SURFACE_STYLE_FILL_AREA(#538);
#440=ORIENTED_EDGE('',*,*,#142,.F.);
#441=ORIENTED_EDGE('',*,*,#150,.T.);
#442=ORIENTED_EDGE('',*,*,#120,.F.);
#443=ORIENTED_EDGE('',*,*,#110,.F.);
#444=CARTESIAN_POINT('',(0.0,0.0,-27.2985));
#445=DIRECTION('',(-0.0,-0.0,1.0));
#446=DIRECTION('',(0.0,1.0,0.0));
#447=DIRECTION('',(-6.12303176911191E-017,0.500000000000002,0.866025403784438));
#448=SURFACE_STYLE_FILL_AREA(#539);
#449=ORIENTED_EDGE('',*,*,#140,.T.);
#450=ORIENTED_EDGE('',*,*,#104,.F.);
#451=ORIENTED_EDGE('',*,*,#88,.T.);
#452=ORIENTED_EDGE('',*,*,#72,.T.);
#453=CARTESIAN_POINT('',(0.0,0.0,-0.198499999999996));
#454=DIRECTION('',(0.0,-0.0,-1.0));
#455=DIRECTION('',(0.0,1.0,0.0));
#456=SURFACE_STYLE_FILL_AREA(#540);
#457=ORIENTED_EDGE('',*,*,#82,.F.);
#458=ORIENTED_EDGE('',*,*,#72,.F.);
#459=CARTESIAN_POINT('',(0.0,1.47289597156586,0.0));
#460=DIRECTION('',(-0.0,0.0,1.0));
#461=DIRECTION('',(0.0,-1.0,0.0));
#462=CARTESIAN_POINT('',(0.0,0.0,-75.8253499971454));
#463=DIRECTION('',(0.0,0.0,-1.0));
#464=DIRECTION('',(0.0,1.0,0.0));
#465=CARTESIAN_POINT('',(0.0,0.0,-63.5));
#466=DIRECTION('',(0.0,-0.0,1.0));
#467=DIRECTION('',(0.0,1.0,0.0));
#468=CARTESIAN_POINT('',(0.0,0.0,-0.396999999999998));
#469=DIRECTION('',(0.0,0.0,-1.0));
#470=DIRECTION('',(0.0,1.0,0.0));
#471=CARTESIAN_POINT('',(0.0,0.0,-75.8253499971454));
#472=DIRECTION('',(0.0,0.0,-1.0));
#473=DIRECTION('',(0.0,1.0,0.0));
#474=CARTESIAN_POINT('',(0.0,0.0,-63.5));
#475=DIRECTION('',(0.0,0.0,-1.0));
#476=DIRECTION('',(0.0,-1.0,0.0));
#477=SURFACE_STYLE_FILL_AREA(#541);
#478=ORIENTED_EDGE('',*,*,#140,.F.);
#479=ORIENTED_EDGE('',*,*,#82,.T.);
#480=ORIENTED_EDGE('',*,*,#88,.F.);
#481=ORIENTED_EDGE('',*,*,#150,.F.);
#482=CARTESIAN_POINT('',(0.0,0.0,-0.198499999999996));
#483=DIRECTION('',(0.0,-0.0,-1.0));
#484=DIRECTION('',(0.0,1.0,0.0));
#485=CARTESIAN_POINT('',(0.0,0.0,-63.5));
#486=DIRECTION('',(0.0,-0.0,1.0));
#487=DIRECTION('',(0.0,1.0,0.0));
#488=SURFACE_STYLE_FILL_AREA(#542);
#489=ORIENTED_EDGE('',*,*,#142,.T.);
#490=ORIENTED_EDGE('',*,*,#68,.F.);
#491=ORIENTED_EDGE('',*,*,#120,.T.);
#492=ORIENTED_EDGE('',*,*,#104,.T.);
#493=CARTESIAN_POINT('',(0.0,0.0,-27.2985));
#494=DIRECTION('',(-0.0,-0.0,1.0));
#495=DIRECTION('',(0.0,1.0,0.0));
#496=DIRECTION('',(-0.0,-0.0,1.0));
#497=CARTESIAN_POINT('',(0.0,0.0,-76.2));
#498=DIRECTION('',(0.0,0.0,-1.0));
#499=DIRECTION('',(0.0,1.0,0.0));
#500=SURFACE_STYLE_FILL_AREA(#543);
#501=ORIENTED_EDGE('',*,*,#148,.F.);
#502=ORIENTED_EDGE('',*,*,#100,.T.);
#503=ORIENTED_EDGE('',*,*,#152,.F.);
#504=ORIENTED_EDGE('',*,*,#138,.F.);
#505=CARTESIAN_POINT('',(0.0,0.0,-76.0126749985727));
#506=DIRECTION('',(-0.0,-0.0,1.0));
#507=DIRECTION('',(0.0,1.0,0.0));
#508=SURFACE_STYLE_FILL_AREA(#544);
#509=ORIENTED_EDGE('',*,*,#114,.T.);
#510=ORIENTED_EDGE('',*,*,#102,.T.);
#511=ORIENTED_EDGE('',*,*,#68,.T.);
#512=ORIENTED_EDGE('',*,*,#110,.T.);
#513=CARTESIAN_POINT('',(0.0,0.0,-63.5));
#514=DIRECTION('',(0.0,0.0,-1.0));
#515=DIRECTION('',(0.0,-1.0,0.0));
#516=SURFACE_STYLE_FILL_AREA(#545);
#517=ORIENTED_EDGE('',*,*,#138,.T.);
#518=ORIENTED_EDGE('',*,*,#126,.T.);
#519=CARTESIAN_POINT('',(0.0,1.23129358,-76.2));
#520=DIRECTION('',(0.0,0.0,-1.0));
#521=DIRECTION('',(0.0,1.0,0.0));
#522=DIRECTION('',(0.0,0.0,-1.0));
#523=CARTESIAN_POINT('',(0.0,0.0,-76.2));
#524=DIRECTION('',(0.0,0.0,-1.0));
#525=DIRECTION('',(0.0,1.0,0.0));
#526=DIRECTION('',(-6.12303176911191E-017,0.500000000000002,-0.866025403784438));
#527=DIRECTION('',(0.0,0.0,-1.0));
#528=DIRECTION('',(1.06054021204601E-016,-0.866025403784439,-0.5));
#529=CARTESIAN_POINT('',(0.0,0.0,-0.396999999999998));
#530=DIRECTION('',(0.0,0.0,-1.0));
#531=DIRECTION('',(0.0,1.0,0.0));
#532=DIRECTION('',(1.06054021204601E-016,-0.866025403784439,0.5));
#533=DIRECTION('',(-0.0,-0.0,1.0));
#534=FILL_AREA_STYLE('',(#546));
#535=FILL_AREA_STYLE('',(#547));
#536=FILL_AREA_STYLE('',(#548));
#537=FILL_AREA_STYLE('',(#549));
#538=FILL_AREA_STYLE('',(#550));
#539=FILL_AREA_STYLE('',(#551));
#540=FILL_AREA_STYLE('',(#552));
#541=FILL_AREA_STYLE('',(#553));
#542=FILL_AREA_STYLE('',(#554));
#543=FILL_AREA_STYLE('',(#555));
#544=FILL_AREA_STYLE('',(#556));
#545=FILL_AREA_STYLE('',(#557));
#546=FILL_AREA_STYLE_COLOUR('',#558);
#547=FILL_AREA_STYLE_COLOUR('',#559);
#548=FILL_AREA_STYLE_COLOUR('',#560);
#549=FILL_AREA_STYLE_COLOUR('',#561);
#550=FILL_AREA_STYLE_COLOUR('',#562);
#551=FILL_AREA_STYLE_COLOUR('',#563);
#552=FILL_AREA_STYLE_COLOUR('',#564);
#553=FILL_AREA_STYLE_COLOUR('',#565);
#554=FILL_AREA_STYLE_COLOUR('',#566);
#555=FILL_AREA_STYLE_COLOUR('',#567);
#556=FILL_AREA_STYLE_COLOUR('',#568);
#557=FILL_AREA_STYLE_COLOUR('',#569);
#558=COLOUR_RGB('',0.800000011920929,0.800000011920929,0.800000011920929);
#559=COLOUR_RGB('',0.800000011920929,0.800000011920929,0.800000011920929);
#560=COLOUR_RGB('',0.498039215803146,0.498039215803146,0.498039215803146);
#561=COLOUR_RGB('',0.800000011920929,0.800000011920929,0.800000011920929);
#562=COLOUR_RGB('',0.498039215803146,0.498039215803146,0.498039215803146);
#563=COLOUR_RGB('',0.498039215803146,0.498039215803146,0.498039215803146);
#564=COLOUR_RGB('',0.498039215803146,0.498039215803146,0.498039215803146);
#565=COLOUR_RGB('',0.498039215803146,0.498039215803146,0.498039215803146);
#566=COLOUR_RGB('',0.498039215803146,0.498039215803146,0.498039215803146);
#567=COLOUR_RGB('',0.800000011920929,0.800000011920929,0.800000011920929);
#568=COLOUR_RGB('',0.498039215803146,0.498039215803146,0.498039215803146);
#569=COLOUR_RGB('',0.498039215803146,0.498039215803146,0.498039215803146);
#570=AXIS2_PLACEMENT_3D('PCS',#571,#572,#573);
#571=CARTESIAN_POINT('',(0.0,0.0,0.0));
#572=DIRECTION('',(0.0,0.0,1.0));
#573=DIRECTION('',(1.0,0.0,0.0));
#574=AXIS2_PLACEMENT_3D('CIP',#575,#576,#577);
#575=CARTESIAN_POINT('',(0.0,0.0,-76.2));
#576=DIRECTION('',(0.0,0.0,1.0));
#577=DIRECTION('',(1.0,0.0,0.0));
#578=AXIS2_PLACEMENT_3D('CRP',#579,#580,#581);
#579=CARTESIAN_POINT('',(-3.1115,0.0,-76.2));
#580=DIRECTION('',(0.0,0.0,1.0));
#581=DIRECTION('',(1.0,0.0,0.0));
#582=AXIS2_PLACEMENT_3D('MCS',#583,#584,#585);
#583=CARTESIAN_POINT('',(0.0,0.0,-54.2));
#584=DIRECTION('',(0.0,0.0,1.0));
#585=DIRECTION('',(1.0,0.0,0.0));
#586=CONSTRUCTIVE_GEOMETRY_REPRESENTATION_RELATIONSHIP('coordinate systems',$,#58,#587);
#587=CONSTRUCTIVE_GEOMETRY_REPRESENTATION('coordinate systems',(#570,#574,#578,#582),#6);
ENDSEC;
END-ISO-10303-21;
