ISO-10303-21;
HEADER;
FILE_DESCRIPTION(('no description'),'unknown implementation level');
FILE_NAME('solidUttJZmJY_AzYfg3EUdNHII8t6YE_1.STP','  ',('CIMSOURCE GmbH'),('CADClick - KiM GmbH - www.kimweb.de'),'unknown preprocess','ACIS','unknown authorization');
FILE_SCHEMA(('automotive_design'));
ENDSEC;
DATA;
#1=MECHANICAL_DESIGN_GEOMETRIC_PRESENTATION_REPRESENTATION(' ',(#10,#11,#12,#13,#14,#15,#16,#17,#18,#19,#20,#21,#22,#23,#24,#25,#26,#27,#28,#29,#30,#31,#32,#33,#34,#35,#36,#37,#38,#39,#40,#41,#42,#43,#44,#45,#46,#47,#48,#49,#50,#51,#52,#53),#6);
#2=PRODUCT_DEFINITION_CONTEXT('',#54,'design');
#3=APPLICATION_PROTOCOL_DEFINITION('INTERNATIONAL STANDARD','automotive_design',1994,#54);
#4=PRODUCT_CATEGORY_RELATIONSHIP('NONE','NONE',#55,#56);
#5=SHAPE_DEFINITION_REPRESENTATION(#57,#58);
#6= (GEOMETRIC_REPRESENTATION_CONTEXT(3)GLOBAL_UNCERTAINTY_ASSIGNED_CONTEXT((#61))GLOBAL_UNIT_ASSIGNED_CONTEXT((#63,#64,#65))REPRESENTATION_CONTEXT('NONE','WORKSPACE'));
#10=STYLED_ITEM('',(#67),#68);
#11=STYLED_ITEM('',(#69),#70);
#12=STYLED_ITEM('',(#71),#72);
#13=STYLED_ITEM('',(#73),#74);
#14=STYLED_ITEM('',(#75),#76);
#15=STYLED_ITEM('',(#77),#78);
#16=STYLED_ITEM('',(#79),#80);
#17=STYLED_ITEM('',(#81),#82);
#18=STYLED_ITEM('',(#83),#84);
#19=STYLED_ITEM('',(#85),#86);
#20=STYLED_ITEM('',(#87),#88);
#21=STYLED_ITEM('',(#89),#90);
#22=STYLED_ITEM('',(#91),#92);
#23=STYLED_ITEM('',(#93),#94);
#24=STYLED_ITEM('',(#95),#96);
#25=STYLED_ITEM('',(#97),#98);
#26=STYLED_ITEM('',(#99),#100);
#27=STYLED_ITEM('',(#101),#102);
#28=STYLED_ITEM('',(#103),#104);
#29=STYLED_ITEM('',(#105),#106);
#30=STYLED_ITEM('',(#107),#108);
#31=STYLED_ITEM('',(#109),#110);
#32=STYLED_ITEM('',(#111),#112);
#33=STYLED_ITEM('',(#113),#114);
#34=STYLED_ITEM('',(#115),#116);
#35=STYLED_ITEM('',(#117),#118);
#36=STYLED_ITEM('',(#119),#120);
#37=STYLED_ITEM('',(#121),#122);
#38=STYLED_ITEM('',(#123),#124);
#39=STYLED_ITEM('',(#125),#126);
#40=STYLED_ITEM('',(#127),#128);
#41=STYLED_ITEM('',(#129),#130);
#42=STYLED_ITEM('',(#131),#132);
#43=STYLED_ITEM('',(#133),#134);
#44=STYLED_ITEM('',(#135),#136);
#45=STYLED_ITEM('',(#137),#138);
#46=STYLED_ITEM('',(#139),#140);
#47=STYLED_ITEM('',(#141),#142);
#48=STYLED_ITEM('',(#143),#144);
#49=STYLED_ITEM('',(#145),#146);
#50=STYLED_ITEM('',(#147),#148);
#51=STYLED_ITEM('',(#149),#150);
#52=STYLED_ITEM('',(#151),#152);
#53=STYLED_ITEM('',(#153),#154);
#54=APPLICATION_CONTEXT(' ');
#55=PRODUCT_CATEGORY('part','NONE');
#56=PRODUCT_RELATED_PRODUCT_CATEGORY('detail',' ',(#155));
#57=PRODUCT_DEFINITION_SHAPE('NONE','NONE',#156);
#58=ADVANCED_BREP_SHAPE_REPRESENTATION('1',(#126,#157),#6);
#61=UNCERTAINTY_MEASURE_WITH_UNIT(LENGTH_MEASURE(1.0E-006),#63,'','');
#63= (CONVERSION_BASED_UNIT('MILLIMETRE',#160)LENGTH_UNIT()NAMED_UNIT(#163));
#64= (NAMED_UNIT(#165)PLANE_ANGLE_UNIT()SI_UNIT($,.RADIAN.));
#65= (NAMED_UNIT(#165)SOLID_ANGLE_UNIT()SI_UNIT($,.STERADIAN.));
#67=PRESENTATION_STYLE_ASSIGNMENT((#171));
#68=ADVANCED_FACE('',(#172),#173,.T.);
#69=PRESENTATION_STYLE_ASSIGNMENT((#174));
#70=ADVANCED_FACE('',(#175),#176,.T.);
#71=PRESENTATION_STYLE_ASSIGNMENT((#177));
#72=VERTEX_POINT('',#178);
#73=PRESENTATION_STYLE_ASSIGNMENT((#179));
#74=EDGE_CURVE('',#120,#118,#180,.T.);
#75=PRESENTATION_STYLE_ASSIGNMENT((#181));
#76=ADVANCED_FACE('',(#182),#183,.T.);
#77=PRESENTATION_STYLE_ASSIGNMENT((#184));
#78=EDGE_CURVE('',#136,#150,#185,.T.);
#79=PRESENTATION_STYLE_ASSIGNMENT((#186));
#80=EDGE_CURVE('',#86,#148,#187,.T.);
#81=PRESENTATION_STYLE_ASSIGNMENT((#188));
#82=VERTEX_POINT('',#189);
#83=PRESENTATION_STYLE_ASSIGNMENT((#190));
#84=ADVANCED_FACE('',(#191,#192),#193,.T.);
#85=PRESENTATION_STYLE_ASSIGNMENT((#194));
#86=VERTEX_POINT('',#195);
#87=PRESENTATION_STYLE_ASSIGNMENT((#196));
#88=EDGE_CURVE('',#102,#142,#197,.T.);
#89=PRESENTATION_STYLE_ASSIGNMENT((#198));
#90=EDGE_CURVE('',#122,#120,#199,.T.);
#91=PRESENTATION_STYLE_ASSIGNMENT((#200));
#92=EDGE_CURVE('',#82,#122,#201,.T.);
#93=PRESENTATION_STYLE_ASSIGNMENT((#202));
#94=EDGE_CURVE('',#122,#82,#203,.T.);
#95=PRESENTATION_STYLE_ASSIGNMENT((#204));
#96=EDGE_CURVE('',#142,#102,#205,.T.);
#97=PRESENTATION_STYLE_ASSIGNMENT((#206));
#98=EDGE_CURVE('',#118,#120,#207,.T.);
#99=PRESENTATION_STYLE_ASSIGNMENT((#208));
#100=ADVANCED_FACE('',(#209),#210,.T.);
#101=PRESENTATION_STYLE_ASSIGNMENT((#211));
#102=VERTEX_POINT('',#212);
#103=PRESENTATION_STYLE_ASSIGNMENT((#213));
#104=EDGE_CURVE('',#72,#128,#214,.T.);
#105=PRESENTATION_STYLE_ASSIGNMENT((#215));
#106=EDGE_CURVE('',#136,#102,#216,.T.);
#107=PRESENTATION_STYLE_ASSIGNMENT((#217));
#108=EDGE_CURVE('',#142,#150,#218,.T.);
#109=PRESENTATION_STYLE_ASSIGNMENT((#219));
#110=EDGE_CURVE('',#128,#72,#220,.T.);
#111=PRESENTATION_STYLE_ASSIGNMENT((#221));
#112=EDGE_CURVE('',#118,#82,#222,.T.);
#113=PRESENTATION_STYLE_ASSIGNMENT((#223));
#114=ADVANCED_FACE('',(#224),#225,.T.);
#115=PRESENTATION_STYLE_ASSIGNMENT((#226));
#116=EDGE_CURVE('',#148,#86,#227,.T.);
#117=PRESENTATION_STYLE_ASSIGNMENT((#228));
#118=VERTEX_POINT('',#229);
#119=PRESENTATION_STYLE_ASSIGNMENT((#230));
#120=VERTEX_POINT('',#231);
#121=PRESENTATION_STYLE_ASSIGNMENT((#232));
#122=VERTEX_POINT('',#233);
#123=PRESENTATION_STYLE_ASSIGNMENT((#234));
#124=EDGE_CURVE('',#82,#128,#235,.T.);
#125=PRESENTATION_STYLE_ASSIGNMENT((#236));
#126=MANIFOLD_SOLID_BREP('1',#237);
#127=PRESENTATION_STYLE_ASSIGNMENT((#238));
#128=VERTEX_POINT('',#239);
#129=PRESENTATION_STYLE_ASSIGNMENT((#240));
#130=EDGE_CURVE('',#148,#142,#241,.T.);
#131=PRESENTATION_STYLE_ASSIGNMENT((#242));
#132=EDGE_CURVE('',#72,#122,#243,.T.);
#133=PRESENTATION_STYLE_ASSIGNMENT((#244));
#134=ADVANCED_FACE('',(#245),#246,.T.);
#135=PRESENTATION_STYLE_ASSIGNMENT((#247));
#136=VERTEX_POINT('',#248);
#137=PRESENTATION_STYLE_ASSIGNMENT((#249));
#138=ADVANCED_FACE('',(#250),#251,.T.);
#139=PRESENTATION_STYLE_ASSIGNMENT((#252));
#140=ADVANCED_FACE('',(#253),#254,.T.);
#141=PRESENTATION_STYLE_ASSIGNMENT((#255));
#142=VERTEX_POINT('',#256);
#143=PRESENTATION_STYLE_ASSIGNMENT((#257));
#144=ADVANCED_FACE('',(#258),#259,.T.);
#145=PRESENTATION_STYLE_ASSIGNMENT((#260));
#146=EDGE_CURVE('',#102,#86,#261,.T.);
#147=PRESENTATION_STYLE_ASSIGNMENT((#262));
#148=VERTEX_POINT('',#263);
#149=PRESENTATION_STYLE_ASSIGNMENT((#264));
#150=VERTEX_POINT('',#265);
#151=PRESENTATION_STYLE_ASSIGNMENT((#266));
#152=ADVANCED_FACE('',(#267),#268,.T.);
#153=PRESENTATION_STYLE_ASSIGNMENT((#269));
#154=EDGE_CURVE('',#150,#136,#270,.T.);
#155=PRODUCT('1','1','PART-1-DESC',(#271));
#156=PRODUCT_DEFINITION('NONE','NONE',#272,#2);
#157=AXIS2_PLACEMENT_3D('',#273,#274,#275);
#160=LENGTH_MEASURE_WITH_UNIT(LENGTH_MEASURE(1.0),#276);
#163=DIMENSIONAL_EXPONENTS(1.0,0.0,0.0,0.0,0.0,0.0,0.0);
#165=DIMENSIONAL_EXPONENTS(0.0,0.0,0.0,0.0,0.0,0.0,0.0);
#171=SURFACE_STYLE_USAGE(.BOTH.,#277);
#172=FACE_OUTER_BOUND('',#278,.T.);
#173=CONICAL_SURFACE('',#279,3.86039597156586,0.523598775598301);
#174=SURFACE_STYLE_USAGE(.BOTH.,#280);
#175=FACE_OUTER_BOUND('',#281,.T.);
#176=CONICAL_SURFACE('',#282,3.323315375,1.0471975511966);
#177=POINT_STYLE(' ',#283,POSITIVE_LENGTH_MEASURE(1.0E-006),#284);
#178=CARTESIAN_POINT('',(0.0,3.74579194313172,0.0));
#179=CURVE_STYLE('',#285,POSITIVE_LENGTH_MEASURE(1.0E-006),#286);
#180=CIRCLE('',#287,3.975);
#181=SURFACE_STYLE_USAGE(.BOTH.,#288);
#182=FACE_OUTER_BOUND('',#289,.T.);
#183=PLANE('',#290);
#184=CURVE_STYLE('',#291,POSITIVE_LENGTH_MEASURE(1.0E-006),#292);
#185=CIRCLE('',#293,3.81);
#186=CURVE_STYLE('',#294,POSITIVE_LENGTH_MEASURE(1.0E-006),#295);
#187=CIRCLE('',#296,2.83663075);
#188=POINT_STYLE(' ',#297,POSITIVE_LENGTH_MEASURE(1.0E-006),#298);
#189=CARTESIAN_POINT('',(4.86781025644395E-016,-3.975,-0.396999999999998));
#190=SURFACE_STYLE_USAGE(.BOTH.,#299);
#191=FACE_BOUND('',#300,.T.);
#192=FACE_OUTER_BOUND('',#301,.T.);
#193=PLANE('',#302);
#194=POINT_STYLE(' ',#303,POSITIVE_LENGTH_MEASURE(1.0E-006),#304);
#195=CARTESIAN_POINT('',(0.0,2.83663075,-76.2));
#196=CURVE_STYLE('',#305,POSITIVE_LENGTH_MEASURE(1.0E-006),#306);
#197=CIRCLE('',#307,3.81);
#198=CURVE_STYLE('',#308,POSITIVE_LENGTH_MEASURE(1.0E-006),#309);
#199=LINE('',#310,#311);
#200=CURVE_STYLE('',#312,POSITIVE_LENGTH_MEASURE(1.0E-006),#313);
#201=CIRCLE('',#314,3.975);
#202=CURVE_STYLE('',#315,POSITIVE_LENGTH_MEASURE(1.0E-006),#316);
#203=CIRCLE('',#317,3.975);
#204=CURVE_STYLE('',#318,POSITIVE_LENGTH_MEASURE(1.0E-006),#319);
#205=CIRCLE('',#320,3.81);
#206=CURVE_STYLE('',#321,POSITIVE_LENGTH_MEASURE(1.0E-006),#322);
#207=CIRCLE('',#323,3.975);
#208=SURFACE_STYLE_USAGE(.BOTH.,#324);
#209=FACE_OUTER_BOUND('',#325,.T.);
#210=CYLINDRICAL_SURFACE('',#326,3.81);
#211=POINT_STYLE(' ',#327,POSITIVE_LENGTH_MEASURE(1.0E-006),#328);
#212=CARTESIAN_POINT('',(0.0,3.81,-75.6380250014916));
#213=CURVE_STYLE('',#329,POSITIVE_LENGTH_MEASURE(1.0E-006),#330);
#214=CIRCLE('',#331,3.74579194313172);
#215=CURVE_STYLE('',#332,POSITIVE_LENGTH_MEASURE(1.0E-006),#333);
#216=LINE('',#334,#335);
#217=CURVE_STYLE('',#336,POSITIVE_LENGTH_MEASURE(1.0E-006),#337);
#218=LINE('',#338,#339);
#219=CURVE_STYLE('',#340,POSITIVE_LENGTH_MEASURE(1.0E-006),#341);
#220=CIRCLE('',#342,3.74579194313172);
#221=CURVE_STYLE('',#343,POSITIVE_LENGTH_MEASURE(1.0E-006),#344);
#222=LINE('',#345,#346);
#223=SURFACE_STYLE_USAGE(.BOTH.,#347);
#224=FACE_OUTER_BOUND('',#348,.T.);
#225=CONICAL_SURFACE('',#349,3.86039597156586,0.523598775598301);
#226=CURVE_STYLE('',#350,POSITIVE_LENGTH_MEASURE(1.0E-006),#351);
#227=CIRCLE('',#352,2.83663075);
#228=POINT_STYLE(' ',#353,POSITIVE_LENGTH_MEASURE(1.0E-006),#354);
#229=CARTESIAN_POINT('',(0.0,-3.975,-61.9));
#230=POINT_STYLE(' ',#355,POSITIVE_LENGTH_MEASURE(1.0E-006),#356);
#231=CARTESIAN_POINT('',(-4.86781025644395E-016,3.975,-61.9));
#232=POINT_STYLE(' ',#357,POSITIVE_LENGTH_MEASURE(1.0E-006),#358);
#233=CARTESIAN_POINT('',(0.0,3.975,-0.396999999999998));
#234=CURVE_STYLE('',#359,POSITIVE_LENGTH_MEASURE(1.0E-006),#360);
#235=LINE('',#361,#362);
#236=SURFACE_STYLE_USAGE(.BOTH.,#363);
#237=CLOSED_SHELL('',(#138,#114,#70,#100,#134,#144,#84,#76,#68,#140,#152));
#238=POINT_STYLE(' ',#364,POSITIVE_LENGTH_MEASURE(1.0E-006),#365);
#239=CARTESIAN_POINT('',(4.58712061365577E-016,-3.74579194313172,0.0));
#240=CURVE_STYLE('',#366,POSITIVE_LENGTH_MEASURE(1.0E-006),#367);
#241=LINE('',#368,#369);
#242=CURVE_STYLE('',#370,POSITIVE_LENGTH_MEASURE(1.0E-006),#371);
#243=LINE('',#372,#373);
#244=SURFACE_STYLE_USAGE(.BOTH.,#374);
#245=FACE_OUTER_BOUND('',#375,.T.);
#246=CYLINDRICAL_SURFACE('',#376,3.81);
#247=POINT_STYLE(' ',#377,POSITIVE_LENGTH_MEASURE(1.0E-006),#378);
#248=CARTESIAN_POINT('',(0.0,3.81,-61.9));
#249=SURFACE_STYLE_USAGE(.BOTH.,#379);
#250=FACE_OUTER_BOUND('',#380,.T.);
#251=CYLINDRICAL_SURFACE('',#381,3.975);
#252=SURFACE_STYLE_USAGE(.BOTH.,#382);
#253=FACE_OUTER_BOUND('',#383,.T.);
#254=CYLINDRICAL_SURFACE('',#384,3.975);
#255=POINT_STYLE(' ',#385,POSITIVE_LENGTH_MEASURE(1.0E-006),#386);
#256=CARTESIAN_POINT('',(4.66575020806326E-016,-3.81,-75.6380250014916));
#257=SURFACE_STYLE_USAGE(.BOTH.,#387);
#258=FACE_OUTER_BOUND('',#388,.T.);
#259=CONICAL_SURFACE('',#389,3.323315375,1.0471975511966);
#260=CURVE_STYLE('',#390,POSITIVE_LENGTH_MEASURE(1.0E-006),#391);
#261=LINE('',#392,#393);
#262=POINT_STYLE(' ',#394,POSITIVE_LENGTH_MEASURE(1.0E-006),#395);
#263=CARTESIAN_POINT('',(3.47375603989794E-016,-2.83663075,-76.2));
#264=POINT_STYLE(' ',#396,POSITIVE_LENGTH_MEASURE(1.0E-006),#397);
#265=CARTESIAN_POINT('',(4.66575020806326E-016,-3.81,-61.9));
#266=SURFACE_STYLE_USAGE(.BOTH.,#398);
#267=FACE_OUTER_BOUND('',#399,.T.);
#268=PLANE('',#400);
#269=CURVE_STYLE('',#401,POSITIVE_LENGTH_MEASURE(1.0E-006),#402);
#270=CIRCLE('',#403,3.81);
#271=PRODUCT_CONTEXT('',#54,'mechanical');
#272=PRODUCT_DEFINITION_FORMATION_WITH_SPECIFIED_SOURCE(' ','NONE',#155,.NOT_KNOWN.);
#273=CARTESIAN_POINT('',(0.0,0.0,0.0));
#274=DIRECTION('',(0.0,0.0,1.0));
#275=DIRECTION('',(1.0,0.0,0.0));
#276= (NAMED_UNIT(#163)LENGTH_UNIT()SI_UNIT(.MILLI.,.METRE.));
#277=SURFACE_SIDE_STYLE('',(#405));
#278=EDGE_LOOP('',(#406,#407,#408,#409));
#279=AXIS2_PLACEMENT_3D('',#410,#411,#412);
#280=SURFACE_SIDE_STYLE('',(#413));
#281=EDGE_LOOP('',(#414,#415,#416,#417));
#282=AXIS2_PLACEMENT_3D('',#418,#419,#420);
#283=PRE_DEFINED_MARKER('');
#284=COLOUR_RGB('',0.498039215803146,0.498039215803146,0.498039215803146);
#285=DRAUGHTING_PRE_DEFINED_CURVE_FONT('continuous');
#286=COLOUR_RGB('',0.498039215803146,0.498039215803146,0.498039215803146);
#287=AXIS2_PLACEMENT_3D('',#421,#422,#423);
#288=SURFACE_SIDE_STYLE('',(#424));
#289=EDGE_LOOP('',(#425,#426));
#290=AXIS2_PLACEMENT_3D('',#427,#428,#429);
#291=DRAUGHTING_PRE_DEFINED_CURVE_FONT('continuous');
#292=COLOUR_RGB('',0.498039215803146,0.498039215803146,0.498039215803146);
#293=AXIS2_PLACEMENT_3D('',#430,#431,#432);
#294=DRAUGHTING_PRE_DEFINED_CURVE_FONT('continuous');
#295=COLOUR_RGB('',0.498039215803146,0.498039215803146,0.498039215803146);
#296=AXIS2_PLACEMENT_3D('',#433,#434,#435);
#297=PRE_DEFINED_MARKER('');
#298=COLOUR_RGB('',0.498039215803146,0.498039215803146,0.498039215803146);
#299=SURFACE_SIDE_STYLE('',(#436));
#300=EDGE_LOOP('',(#437,#438));
#301=EDGE_LOOP('',(#439,#440));
#302=AXIS2_PLACEMENT_3D('',#441,#442,#443);
#303=PRE_DEFINED_MARKER('');
#304=COLOUR_RGB('',0.498039215803146,0.498039215803146,0.498039215803146);
#305=DRAUGHTING_PRE_DEFINED_CURVE_FONT('continuous');
#306=COLOUR_RGB('',0.800000011920929,0.800000011920929,0.800000011920929);
#307=AXIS2_PLACEMENT_3D('',#444,#445,#446);
#308=DRAUGHTING_PRE_DEFINED_CURVE_FONT('continuous');
#309=COLOUR_RGB('',0.498039215803146,0.498039215803146,0.498039215803146);
#310=CARTESIAN_POINT('',(-4.86781025644395E-016,3.975,-25.7985));
#311=VECTOR('',#447,1.0);
#312=DRAUGHTING_PRE_DEFINED_CURVE_FONT('continuous');
#313=COLOUR_RGB('',0.498039215803146,0.498039215803146,0.498039215803146);
#314=AXIS2_PLACEMENT_3D('',#448,#449,#450);
#315=DRAUGHTING_PRE_DEFINED_CURVE_FONT('continuous');
#316=COLOUR_RGB('',0.498039215803146,0.498039215803146,0.498039215803146);
#317=AXIS2_PLACEMENT_3D('',#451,#452,#453);
#318=DRAUGHTING_PRE_DEFINED_CURVE_FONT('continuous');
#319=COLOUR_RGB('',0.800000011920929,0.800000011920929,0.800000011920929);
#320=AXIS2_PLACEMENT_3D('',#454,#455,#456);
#321=DRAUGHTING_PRE_DEFINED_CURVE_FONT('continuous');
#322=COLOUR_RGB('',0.498039215803146,0.498039215803146,0.498039215803146);
#323=AXIS2_PLACEMENT_3D('',#457,#458,#459);
#324=SURFACE_SIDE_STYLE('',(#460));
#325=EDGE_LOOP('',(#461,#462,#463,#464));
#326=AXIS2_PLACEMENT_3D('',#465,#466,#467);
#327=PRE_DEFINED_MARKER('');
#328=COLOUR_RGB('',0.800000011920929,0.800000011920929,0.800000011920929);
#329=DRAUGHTING_PRE_DEFINED_CURVE_FONT('continuous');
#330=COLOUR_RGB('',0.498039215803146,0.498039215803146,0.498039215803146);
#331=AXIS2_PLACEMENT_3D('',#468,#469,#470);
#332=DRAUGHTING_PRE_DEFINED_CURVE_FONT('continuous');
#333=COLOUR_RGB('',0.800000011920929,0.800000011920929,0.800000011920929);
#334=CARTESIAN_POINT('',(-4.66575020806326E-016,3.81,-68.7690125007458));
#335=VECTOR('',#471,1.0);
#336=DRAUGHTING_PRE_DEFINED_CURVE_FONT('continuous');
#337=COLOUR_RGB('',0.800000011920929,0.800000011920929,0.800000011920929);
#338=CARTESIAN_POINT('',(4.66575020806326E-016,-3.81,-68.7690125007458));
#339=VECTOR('',#472,1.0);
#340=DRAUGHTING_PRE_DEFINED_CURVE_FONT('continuous');
#341=COLOUR_RGB('',0.498039215803146,0.498039215803146,0.498039215803146);
#342=AXIS2_PLACEMENT_3D('',#473,#474,#475);
#343=DRAUGHTING_PRE_DEFINED_CURVE_FONT('continuous');
#344=COLOUR_RGB('',0.498039215803146,0.498039215803146,0.498039215803146);
#345=CARTESIAN_POINT('',(4.86781025644395E-016,-3.975,-25.7985));
#346=VECTOR('',#476,1.0);
#347=SURFACE_SIDE_STYLE('',(#477));
#348=EDGE_LOOP('',(#478,#479,#480,#481));
#349=AXIS2_PLACEMENT_3D('',#482,#483,#484);
#350=DRAUGHTING_PRE_DEFINED_CURVE_FONT('continuous');
#351=COLOUR_RGB('',0.498039215803146,0.498039215803146,0.498039215803146);
#352=AXIS2_PLACEMENT_3D('',#485,#486,#487);
#353=PRE_DEFINED_MARKER('');
#354=COLOUR_RGB('',0.498039215803146,0.498039215803146,0.498039215803146);
#355=PRE_DEFINED_MARKER('');
#356=COLOUR_RGB('',0.498039215803146,0.498039215803146,0.498039215803146);
#357=PRE_DEFINED_MARKER('');
#358=COLOUR_RGB('',0.498039215803146,0.498039215803146,0.498039215803146);
#359=DRAUGHTING_PRE_DEFINED_CURVE_FONT('continuous');
#360=COLOUR_RGB('',0.498039215803146,0.498039215803146,0.498039215803146);
#361=CARTESIAN_POINT('',(4.72746543504986E-016,-3.86039597156586,-0.198499999999996));
#362=VECTOR('',#488,1.0);
#363=SURFACE_SIDE_STYLE('',(#489));
#364=PRE_DEFINED_MARKER('');
#365=COLOUR_RGB('',0.498039215803146,0.498039215803146,0.498039215803146);
#366=DRAUGHTING_PRE_DEFINED_CURVE_FONT('continuous');
#367=COLOUR_RGB('',0.800000011920929,0.800000011920929,0.800000011920929);
#368=CARTESIAN_POINT('',(4.0697531239806E-016,-3.323315375,-75.9190125007458));
#369=VECTOR('',#490,1.0);
#370=DRAUGHTING_PRE_DEFINED_CURVE_FONT('continuous');
#371=COLOUR_RGB('',0.498039215803146,0.498039215803146,0.498039215803146);
#372=CARTESIAN_POINT('',(-4.72746543504986E-016,3.86039597156586,-0.198499999999996));
#373=VECTOR('',#491,1.0);
#374=SURFACE_SIDE_STYLE('',(#492));
#375=EDGE_LOOP('',(#493,#494,#495,#496));
#376=AXIS2_PLACEMENT_3D('',#497,#498,#499);
#377=PRE_DEFINED_MARKER('');
#378=COLOUR_RGB('',0.498039215803146,0.498039215803146,0.498039215803146);
#379=SURFACE_SIDE_STYLE('',(#500));
#380=EDGE_LOOP('',(#501,#502,#503,#504));
#381=AXIS2_PLACEMENT_3D('',#505,#506,#507);
#382=SURFACE_SIDE_STYLE('',(#508));
#383=EDGE_LOOP('',(#509,#510,#511,#512));
#384=AXIS2_PLACEMENT_3D('',#513,#514,#515);
#385=PRE_DEFINED_MARKER('');
#386=COLOUR_RGB('',0.800000011920929,0.800000011920929,0.800000011920929);
#387=SURFACE_SIDE_STYLE('',(#516));
#388=EDGE_LOOP('',(#517,#518,#519,#520));
#389=AXIS2_PLACEMENT_3D('',#521,#522,#523);
#390=DRAUGHTING_PRE_DEFINED_CURVE_FONT('continuous');
#391=COLOUR_RGB('',0.800000011920929,0.800000011920929,0.800000011920929);
#392=CARTESIAN_POINT('',(-4.0697531239806E-016,3.323315375,-75.9190125007458));
#393=VECTOR('',#524,1.0);
#394=PRE_DEFINED_MARKER('');
#395=COLOUR_RGB('',0.498039215803146,0.498039215803146,0.498039215803146);
#396=PRE_DEFINED_MARKER('');
#397=COLOUR_RGB('',0.498039215803146,0.498039215803146,0.498039215803146);
#398=SURFACE_SIDE_STYLE('',(#525));
#399=EDGE_LOOP('',(#526,#527));
#400=AXIS2_PLACEMENT_3D('',#528,#529,#530);
#401=DRAUGHTING_PRE_DEFINED_CURVE_FONT('continuous');
#402=COLOUR_RGB('',0.498039215803146,0.498039215803146,0.498039215803146);
#403=AXIS2_PLACEMENT_3D('',#531,#532,#533);
#405=SURFACE_STYLE_FILL_AREA(#534);
#406=ORIENTED_EDGE('',*,*,#132,.T.);
#407=ORIENTED_EDGE('',*,*,#92,.F.);
#408=ORIENTED_EDGE('',*,*,#124,.T.);
#409=ORIENTED_EDGE('',*,*,#110,.T.);
#410=CARTESIAN_POINT('',(0.0,0.0,-0.198499999999996));
#411=DIRECTION('',(0.0,-0.0,-1.0));
#412=DIRECTION('',(0.0,1.0,0.0));
#413=SURFACE_STYLE_FILL_AREA(#535);
#414=ORIENTED_EDGE('',*,*,#146,.F.);
#415=ORIENTED_EDGE('',*,*,#88,.T.);
#416=ORIENTED_EDGE('',*,*,#130,.F.);
#417=ORIENTED_EDGE('',*,*,#80,.F.);
#418=CARTESIAN_POINT('',(0.0,0.0,-75.9190125007458));
#419=DIRECTION('',(-0.0,-0.0,1.0));
#420=DIRECTION('',(0.0,1.0,0.0));
#421=CARTESIAN_POINT('',(0.0,0.0,-61.9));
#422=DIRECTION('',(0.0,0.0,-1.0));
#423=DIRECTION('',(0.0,-1.0,0.0));
#424=SURFACE_STYLE_FILL_AREA(#536);
#425=ORIENTED_EDGE('',*,*,#104,.F.);
#426=ORIENTED_EDGE('',*,*,#110,.F.);
#427=CARTESIAN_POINT('',(0.0,1.87289597156586,0.0));
#428=DIRECTION('',(-0.0,0.0,1.0));
#429=DIRECTION('',(0.0,-1.0,0.0));
#430=CARTESIAN_POINT('',(0.0,0.0,-61.9));
#431=DIRECTION('',(0.0,-0.0,1.0));
#432=DIRECTION('',(0.0,1.0,0.0));
#433=CARTESIAN_POINT('',(0.0,0.0,-76.2));
#434=DIRECTION('',(0.0,0.0,-1.0));
#435=DIRECTION('',(0.0,1.0,0.0));
#436=SURFACE_STYLE_FILL_AREA(#537);
#437=ORIENTED_EDGE('',*,*,#78,.T.);
#438=ORIENTED_EDGE('',*,*,#154,.T.);
#439=ORIENTED_EDGE('',*,*,#98,.T.);
#440=ORIENTED_EDGE('',*,*,#74,.T.);
#441=CARTESIAN_POINT('',(0.0,0.0,-61.9));
#442=DIRECTION('',(0.0,0.0,-1.0));
#443=DIRECTION('',(0.0,-1.0,0.0));
#444=CARTESIAN_POINT('',(0.0,0.0,-75.6380250014916));
#445=DIRECTION('',(0.0,0.0,-1.0));
#446=DIRECTION('',(0.0,1.0,0.0));
#447=DIRECTION('',(0.0,0.0,-1.0));
#448=CARTESIAN_POINT('',(0.0,0.0,-0.396999999999998));
#449=DIRECTION('',(0.0,0.0,-1.0));
#450=DIRECTION('',(0.0,1.0,0.0));
#451=CARTESIAN_POINT('',(0.0,0.0,-0.396999999999998));
#452=DIRECTION('',(0.0,0.0,-1.0));
#453=DIRECTION('',(0.0,1.0,0.0));
#454=CARTESIAN_POINT('',(0.0,0.0,-75.6380250014916));
#455=DIRECTION('',(0.0,0.0,-1.0));
#456=DIRECTION('',(0.0,1.0,0.0));
#457=CARTESIAN_POINT('',(0.0,0.0,-61.9));
#458=DIRECTION('',(0.0,0.0,-1.0));
#459=DIRECTION('',(0.0,-1.0,0.0));
#460=SURFACE_STYLE_FILL_AREA(#538);
#461=ORIENTED_EDGE('',*,*,#106,.F.);
#462=ORIENTED_EDGE('',*,*,#154,.F.);
#463=ORIENTED_EDGE('',*,*,#108,.F.);
#464=ORIENTED_EDGE('',*,*,#88,.F.);
#465=CARTESIAN_POINT('',(0.0,0.0,-68.7690125007458));
#466=DIRECTION('',(-0.0,-0.0,1.0));
#467=DIRECTION('',(0.0,1.0,0.0));
#468=CARTESIAN_POINT('',(0.0,0.0,0.0));
#469=DIRECTION('',(0.0,0.0,-1.0));
#470=DIRECTION('',(0.0,1.0,0.0));
#471=DIRECTION('',(0.0,0.0,-1.0));
#472=DIRECTION('',(-0.0,-0.0,1.0));
#473=CARTESIAN_POINT('',(0.0,0.0,0.0));
#474=DIRECTION('',(0.0,0.0,-1.0));
#475=DIRECTION('',(0.0,1.0,0.0));
#476=DIRECTION('',(-0.0,-0.0,1.0));
#477=SURFACE_STYLE_FILL_AREA(#539);
#478=ORIENTED_EDGE('',*,*,#132,.F.);
#479=ORIENTED_EDGE('',*,*,#104,.T.);
#480=ORIENTED_EDGE('',*,*,#124,.F.);
#481=ORIENTED_EDGE('',*,*,#94,.F.);
#482=CARTESIAN_POINT('',(0.0,0.0,-0.198499999999996));
#483=DIRECTION('',(0.0,-0.0,-1.0));
#484=DIRECTION('',(0.0,1.0,0.0));
#485=CARTESIAN_POINT('',(0.0,0.0,-76.2));
#486=DIRECTION('',(0.0,0.0,-1.0));
#487=DIRECTION('',(0.0,1.0,0.0));
#488=DIRECTION('',(-6.12303176911191E-017,0.500000000000002,0.866025403784438));
#489=SURFACE_STYLE_FILL_AREA(#540);
#490=DIRECTION('',(1.06054021204601E-016,-0.866025403784437,0.500000000000003));
#491=DIRECTION('',(-6.12303176911191E-017,0.500000000000002,-0.866025403784438));
#492=SURFACE_STYLE_FILL_AREA(#541);
#493=ORIENTED_EDGE('',*,*,#106,.T.);
#494=ORIENTED_EDGE('',*,*,#96,.F.);
#495=ORIENTED_EDGE('',*,*,#108,.T.);
#496=ORIENTED_EDGE('',*,*,#78,.F.);
#497=CARTESIAN_POINT('',(0.0,0.0,-68.7690125007458));
#498=DIRECTION('',(-0.0,-0.0,1.0));
#499=DIRECTION('',(0.0,1.0,0.0));
#500=SURFACE_STYLE_FILL_AREA(#542);
#501=ORIENTED_EDGE('',*,*,#90,.F.);
#502=ORIENTED_EDGE('',*,*,#94,.T.);
#503=ORIENTED_EDGE('',*,*,#112,.F.);
#504=ORIENTED_EDGE('',*,*,#74,.F.);
#505=CARTESIAN_POINT('',(0.0,0.0,-25.7985));
#506=DIRECTION('',(-0.0,-0.0,1.0));
#507=DIRECTION('',(0.0,1.0,0.0));
#508=SURFACE_STYLE_FILL_AREA(#543);
#509=ORIENTED_EDGE('',*,*,#90,.T.);
#510=ORIENTED_EDGE('',*,*,#98,.F.);
#511=ORIENTED_EDGE('',*,*,#112,.T.);
#512=ORIENTED_EDGE('',*,*,#92,.T.);
#513=CARTESIAN_POINT('',(0.0,0.0,-25.7985));
#514=DIRECTION('',(-0.0,-0.0,1.0));
#515=DIRECTION('',(0.0,1.0,0.0));
#516=SURFACE_STYLE_FILL_AREA(#544);
#517=ORIENTED_EDGE('',*,*,#146,.T.);
#518=ORIENTED_EDGE('',*,*,#116,.F.);
#519=ORIENTED_EDGE('',*,*,#130,.T.);
#520=ORIENTED_EDGE('',*,*,#96,.T.);
#521=CARTESIAN_POINT('',(0.0,0.0,-75.9190125007458));
#522=DIRECTION('',(-0.0,-0.0,1.0));
#523=DIRECTION('',(0.0,1.0,0.0));
#524=DIRECTION('',(1.06054021204601E-016,-0.866025403784437,-0.500000000000003));
#525=SURFACE_STYLE_FILL_AREA(#545);
#526=ORIENTED_EDGE('',*,*,#80,.T.);
#527=ORIENTED_EDGE('',*,*,#116,.T.);
#528=CARTESIAN_POINT('',(0.0,1.418315375,-76.2));
#529=DIRECTION('',(0.0,0.0,-1.0));
#530=DIRECTION('',(0.0,1.0,0.0));
#531=CARTESIAN_POINT('',(0.0,0.0,-61.9));
#532=DIRECTION('',(0.0,-0.0,1.0));
#533=DIRECTION('',(0.0,1.0,0.0));
#534=FILL_AREA_STYLE('',(#546));
#535=FILL_AREA_STYLE('',(#547));
#536=FILL_AREA_STYLE('',(#548));
#537=FILL_AREA_STYLE('',(#549));
#538=FILL_AREA_STYLE('',(#550));
#539=FILL_AREA_STYLE('',(#551));
#540=FILL_AREA_STYLE('',(#552));
#541=FILL_AREA_STYLE('',(#553));
#542=FILL_AREA_STYLE('',(#554));
#543=FILL_AREA_STYLE('',(#555));
#544=FILL_AREA_STYLE('',(#556));
#545=FILL_AREA_STYLE('',(#557));
#546=FILL_AREA_STYLE_COLOUR('',#558);
#547=FILL_AREA_STYLE_COLOUR('',#559);
#548=FILL_AREA_STYLE_COLOUR('',#560);
#549=FILL_AREA_STYLE_COLOUR('',#561);
#550=FILL_AREA_STYLE_COLOUR('',#562);
#551=FILL_AREA_STYLE_COLOUR('',#563);
#552=FILL_AREA_STYLE_COLOUR('',#564);
#553=FILL_AREA_STYLE_COLOUR('',#565);
#554=FILL_AREA_STYLE_COLOUR('',#566);
#555=FILL_AREA_STYLE_COLOUR('',#567);
#556=FILL_AREA_STYLE_COLOUR('',#568);
#557=FILL_AREA_STYLE_COLOUR('',#569);
#558=COLOUR_RGB('',0.498039215803146,0.498039215803146,0.498039215803146);
#559=COLOUR_RGB('',0.800000011920929,0.800000011920929,0.800000011920929);
#560=COLOUR_RGB('',0.498039215803146,0.498039215803146,0.498039215803146);
#561=COLOUR_RGB('',0.498039215803146,0.498039215803146,0.498039215803146);
#562=COLOUR_RGB('',0.800000011920929,0.800000011920929,0.800000011920929);
#563=COLOUR_RGB('',0.498039215803146,0.498039215803146,0.498039215803146);
#564=COLOUR_RGB('',0.498039215803146,0.498039215803146,0.498039215803146);
#565=COLOUR_RGB('',0.800000011920929,0.800000011920929,0.800000011920929);
#566=COLOUR_RGB('',0.498039215803146,0.498039215803146,0.498039215803146);
#567=COLOUR_RGB('',0.498039215803146,0.498039215803146,0.498039215803146);
#568=COLOUR_RGB('',0.800000011920929,0.800000011920929,0.800000011920929);
#569=COLOUR_RGB('',0.498039215803146,0.498039215803146,0.498039215803146);
#570=AXIS2_PLACEMENT_3D('PCS',#571,#572,#573);
#571=CARTESIAN_POINT('',(0.0,0.0,0.0));
#572=DIRECTION('',(0.0,0.0,1.0));
#573=DIRECTION('',(1.0,0.0,0.0));
#574=AXIS2_PLACEMENT_3D('CIP',#575,#576,#577);
#575=CARTESIAN_POINT('',(0.0,0.0,-76.2));
#576=DIRECTION('',(0.0,0.0,1.0));
#577=DIRECTION('',(1.0,0.0,0.0));
#578=AXIS2_PLACEMENT_3D('CRP',#579,#580,#581);
#579=CARTESIAN_POINT('',(-3.81,0.0,-76.2));
#580=DIRECTION('',(0.0,0.0,1.0));
#581=DIRECTION('',(1.0,0.0,0.0));
#582=AXIS2_PLACEMENT_3D('MCS',#583,#584,#585);
#583=CARTESIAN_POINT('',(0.0,0.0,-51.2));
#584=DIRECTION('',(0.0,0.0,1.0));
#585=DIRECTION('',(1.0,0.0,0.0));
#586=CONSTRUCTIVE_GEOMETRY_REPRESENTATION_RELATIONSHIP('coordinate systems',$,#58,#587);
#587=CONSTRUCTIVE_GEOMETRY_REPRESENTATION('coordinate systems',(#570,#574,#578,#582),#6);
ENDSEC;
END-ISO-10303-21;
