ISO-10303-21;
HEADER;
FILE_DESCRIPTION(('no description'),'unknown implementation level');
FILE_NAME('solidJOaeW5TcJdjvYlobqsSoGCVdBD8_1.STP','  ',('CIMSOURCE GmbH'),('CADClick - KiM GmbH - www.kimweb.de'),'unknown preprocess','ACIS','unknown authorization');
FILE_SCHEMA(('automotive_design'));
ENDSEC;
DATA;
#1=MECHANICAL_DESIGN_GEOMETRIC_PRESENTATION_REPRESENTATION(' ',(#10,#11,#12,#13,#14,#15,#16,#17,#18,#19,#20,#21,#22,#23,#24,#25,#26,#27,#28,#29,#30,#31,#32,#33,#34,#35,#36,#37,#38,#39,#40,#41,#42,#43,#44,#45,#46,#47,#48,#49,#50,#51,#52,#53),#6);
#2=PRODUCT_DEFINITION_CONTEXT('',#54,'design');
#3=APPLICATION_PROTOCOL_DEFINITION('INTERNATIONAL STANDARD','automotive_design',1994,#54);
#4=PRODUCT_CATEGORY_RELATIONSHIP('NONE','NONE',#55,#56);
#5=SHAPE_DEFINITION_REPRESENTATION(#57,#58);
#6= (GEOMETRIC_REPRESENTATION_CONTEXT(3)GLOBAL_UNCERTAINTY_ASSIGNED_CONTEXT((#61))GLOBAL_UNIT_ASSIGNED_CONTEXT((#63,#64,#65))REPRESENTATION_CONTEXT('NONE','WORKSPACE'));
#10=STYLED_ITEM('',(#67),#68);
#11=STYLED_ITEM('',(#69),#70);
#12=STYLED_ITEM('',(#71),#72);
#13=STYLED_ITEM('',(#73),#74);
#14=STYLED_ITEM('',(#75),#76);
#15=STYLED_ITEM('',(#77),#78);
#16=STYLED_ITEM('',(#79),#80);
#17=STYLED_ITEM('',(#81),#82);
#18=STYLED_ITEM('',(#83),#84);
#19=STYLED_ITEM('',(#85),#86);
#20=STYLED_ITEM('',(#87),#88);
#21=STYLED_ITEM('',(#89),#90);
#22=STYLED_ITEM('',(#91),#92);
#23=STYLED_ITEM('',(#93),#94);
#24=STYLED_ITEM('',(#95),#96);
#25=STYLED_ITEM('',(#97),#98);
#26=STYLED_ITEM('',(#99),#100);
#27=STYLED_ITEM('',(#101),#102);
#28=STYLED_ITEM('',(#103),#104);
#29=STYLED_ITEM('',(#105),#106);
#30=STYLED_ITEM('',(#107),#108);
#31=STYLED_ITEM('',(#109),#110);
#32=STYLED_ITEM('',(#111),#112);
#33=STYLED_ITEM('',(#113),#114);
#34=STYLED_ITEM('',(#115),#116);
#35=STYLED_ITEM('',(#117),#118);
#36=STYLED_ITEM('',(#119),#120);
#37=STYLED_ITEM('',(#121),#122);
#38=STYLED_ITEM('',(#123),#124);
#39=STYLED_ITEM('',(#125),#126);
#40=STYLED_ITEM('',(#127),#128);
#41=STYLED_ITEM('',(#129),#130);
#42=STYLED_ITEM('',(#131),#132);
#43=STYLED_ITEM('',(#133),#134);
#44=STYLED_ITEM('',(#135),#136);
#45=STYLED_ITEM('',(#137),#138);
#46=STYLED_ITEM('',(#139),#140);
#47=STYLED_ITEM('',(#141),#142);
#48=STYLED_ITEM('',(#143),#144);
#49=STYLED_ITEM('',(#145),#146);
#50=STYLED_ITEM('',(#147),#148);
#51=STYLED_ITEM('',(#149),#150);
#52=STYLED_ITEM('',(#151),#152);
#53=STYLED_ITEM('',(#153),#154);
#54=APPLICATION_CONTEXT(' ');
#55=PRODUCT_CATEGORY('part','NONE');
#56=PRODUCT_RELATED_PRODUCT_CATEGORY('detail',' ',(#155));
#57=PRODUCT_DEFINITION_SHAPE('NONE','NONE',#156);
#58=ADVANCED_BREP_SHAPE_REPRESENTATION('1',(#82,#157),#6);
#61=UNCERTAINTY_MEASURE_WITH_UNIT(LENGTH_MEASURE(1.0E-006),#63,'','');
#63= (CONVERSION_BASED_UNIT('MILLIMETRE',#160)LENGTH_UNIT()NAMED_UNIT(#163));
#64= (NAMED_UNIT(#165)PLANE_ANGLE_UNIT()SI_UNIT($,.RADIAN.));
#65= (NAMED_UNIT(#165)SOLID_ANGLE_UNIT()SI_UNIT($,.STERADIAN.));
#67=PRESENTATION_STYLE_ASSIGNMENT((#171));
#68=ADVANCED_FACE('',(#172),#173,.T.);
#69=PRESENTATION_STYLE_ASSIGNMENT((#174));
#70=EDGE_CURVE('',#144,#80,#175,.T.);
#71=PRESENTATION_STYLE_ASSIGNMENT((#176));
#72=EDGE_CURVE('',#106,#74,#177,.T.);
#73=PRESENTATION_STYLE_ASSIGNMENT((#178));
#74=VERTEX_POINT('',#179);
#75=PRESENTATION_STYLE_ASSIGNMENT((#180));
#76=EDGE_CURVE('',#140,#136,#181,.T.);
#77=PRESENTATION_STYLE_ASSIGNMENT((#182));
#78=EDGE_CURVE('',#126,#140,#183,.T.);
#79=PRESENTATION_STYLE_ASSIGNMENT((#184));
#80=VERTEX_POINT('',#185);
#81=PRESENTATION_STYLE_ASSIGNMENT((#186));
#82=MANIFOLD_SOLID_BREP('1',#187);
#83=PRESENTATION_STYLE_ASSIGNMENT((#188));
#84=VERTEX_POINT('',#189);
#85=PRESENTATION_STYLE_ASSIGNMENT((#190));
#86=EDGE_CURVE('',#74,#102,#191,.T.);
#87=PRESENTATION_STYLE_ASSIGNMENT((#192));
#88=EDGE_CURVE('',#126,#80,#193,.T.);
#89=PRESENTATION_STYLE_ASSIGNMENT((#194));
#90=EDGE_CURVE('',#106,#84,#195,.T.);
#91=PRESENTATION_STYLE_ASSIGNMENT((#196));
#92=EDGE_CURVE('',#132,#146,#197,.T.);
#93=PRESENTATION_STYLE_ASSIGNMENT((#198));
#94=EDGE_CURVE('',#136,#142,#199,.T.);
#95=PRESENTATION_STYLE_ASSIGNMENT((#200));
#96=EDGE_CURVE('',#142,#136,#201,.T.);
#97=PRESENTATION_STYLE_ASSIGNMENT((#202));
#98=ADVANCED_FACE('',(#203),#204,.T.);
#99=PRESENTATION_STYLE_ASSIGNMENT((#205));
#100=ADVANCED_FACE('',(#206),#207,.T.);
#101=PRESENTATION_STYLE_ASSIGNMENT((#208));
#102=VERTEX_POINT('',#209);
#103=PRESENTATION_STYLE_ASSIGNMENT((#210));
#104=EDGE_CURVE('',#102,#84,#211,.T.);
#105=PRESENTATION_STYLE_ASSIGNMENT((#212));
#106=VERTEX_POINT('',#213);
#107=PRESENTATION_STYLE_ASSIGNMENT((#214));
#108=EDGE_CURVE('',#140,#126,#215,.T.);
#109=PRESENTATION_STYLE_ASSIGNMENT((#216));
#110=ADVANCED_FACE('',(#217,#218),#219,.T.);
#111=PRESENTATION_STYLE_ASSIGNMENT((#220));
#112=EDGE_CURVE('',#84,#132,#221,.T.);
#113=PRESENTATION_STYLE_ASSIGNMENT((#222));
#114=ADVANCED_FACE('',(#223),#224,.T.);
#115=PRESENTATION_STYLE_ASSIGNMENT((#225));
#116=EDGE_CURVE('',#146,#106,#226,.T.);
#117=PRESENTATION_STYLE_ASSIGNMENT((#227));
#118=ADVANCED_FACE('',(#228),#229,.T.);
#119=PRESENTATION_STYLE_ASSIGNMENT((#230));
#120=ADVANCED_FACE('',(#231),#232,.T.);
#121=PRESENTATION_STYLE_ASSIGNMENT((#233));
#122=ADVANCED_FACE('',(#234),#235,.T.);
#123=PRESENTATION_STYLE_ASSIGNMENT((#236));
#124=ADVANCED_FACE('',(#237),#238,.T.);
#125=PRESENTATION_STYLE_ASSIGNMENT((#239));
#126=VERTEX_POINT('',#240);
#127=PRESENTATION_STYLE_ASSIGNMENT((#241));
#128=ADVANCED_FACE('',(#242),#243,.T.);
#129=PRESENTATION_STYLE_ASSIGNMENT((#244));
#130=EDGE_CURVE('',#142,#126,#245,.T.);
#131=PRESENTATION_STYLE_ASSIGNMENT((#246));
#132=VERTEX_POINT('',#247);
#133=PRESENTATION_STYLE_ASSIGNMENT((#248));
#134=EDGE_CURVE('',#144,#140,#249,.T.);
#135=PRESENTATION_STYLE_ASSIGNMENT((#250));
#136=VERTEX_POINT('',#251);
#137=PRESENTATION_STYLE_ASSIGNMENT((#252));
#138=EDGE_CURVE('',#146,#132,#253,.T.);
#139=PRESENTATION_STYLE_ASSIGNMENT((#254));
#140=VERTEX_POINT('',#255);
#141=PRESENTATION_STYLE_ASSIGNMENT((#256));
#142=VERTEX_POINT('',#257);
#143=PRESENTATION_STYLE_ASSIGNMENT((#258));
#144=VERTEX_POINT('',#259);
#145=PRESENTATION_STYLE_ASSIGNMENT((#260));
#146=VERTEX_POINT('',#261);
#147=PRESENTATION_STYLE_ASSIGNMENT((#262));
#148=ADVANCED_FACE('',(#263),#264,.T.);
#149=PRESENTATION_STYLE_ASSIGNMENT((#265));
#150=EDGE_CURVE('',#84,#106,#266,.T.);
#151=PRESENTATION_STYLE_ASSIGNMENT((#267));
#152=EDGE_CURVE('',#102,#74,#268,.T.);
#153=PRESENTATION_STYLE_ASSIGNMENT((#269));
#154=EDGE_CURVE('',#80,#144,#270,.T.);
#155=PRODUCT('1','1','PART-1-DESC',(#271));
#156=PRODUCT_DEFINITION('NONE','NONE',#272,#2);
#157=AXIS2_PLACEMENT_3D('',#273,#274,#275);
#160=LENGTH_MEASURE_WITH_UNIT(LENGTH_MEASURE(1.0),#276);
#163=DIMENSIONAL_EXPONENTS(1.0,0.0,0.0,0.0,0.0,0.0,0.0);
#165=DIMENSIONAL_EXPONENTS(0.0,0.0,0.0,0.0,0.0,0.0,0.0);
#171=SURFACE_STYLE_USAGE(.BOTH.,#277);
#172=FACE_OUTER_BOUND('',#278,.T.);
#173=CONICAL_SURFACE('',#279,3.86039597156586,0.523598775598301);
#174=CURVE_STYLE('',#280,POSITIVE_LENGTH_MEASURE(1.0E-006),#281);
#175=CIRCLE('',#282,3.74579194313172);
#176=CURVE_STYLE('',#283,POSITIVE_LENGTH_MEASURE(1.0E-006),#284);
#177=LINE('',#285,#286);
#178=POINT_STYLE(' ',#287,POSITIVE_LENGTH_MEASURE(1.0E-006),#288);
#179=CARTESIAN_POINT('',(0.0,3.16108716,-76.2));
#180=CURVE_STYLE('',#289,POSITIVE_LENGTH_MEASURE(1.0E-006),#290);
#181=LINE('',#291,#292);
#182=CURVE_STYLE('',#293,POSITIVE_LENGTH_MEASURE(1.0E-006),#294);
#183=CIRCLE('',#295,3.975);
#184=POINT_STYLE(' ',#296,POSITIVE_LENGTH_MEASURE(1.0E-006),#297);
#185=CARTESIAN_POINT('',(4.58712061365577E-016,-3.74579194313172,0.0));
#186=SURFACE_STYLE_USAGE(.BOTH.,#298);
#187=CLOSED_SHELL('',(#128,#68,#120,#122,#118,#98,#110,#124,#114,#100,#148));
#188=POINT_STYLE(' ',#299,POSITIVE_LENGTH_MEASURE(1.0E-006),#300);
#189=CARTESIAN_POINT('',(4.66575020806326E-016,-3.81,-75.8253499971454));
#190=CURVE_STYLE('',#301,POSITIVE_LENGTH_MEASURE(1.0E-006),#302);
#191=CIRCLE('',#303,3.16108716);
#192=CURVE_STYLE('',#304,POSITIVE_LENGTH_MEASURE(1.0E-006),#305);
#193=LINE('',#306,#307);
#194=CURVE_STYLE('',#308,POSITIVE_LENGTH_MEASURE(1.0E-006),#309);
#195=CIRCLE('',#310,3.81);
#196=CURVE_STYLE('',#311,POSITIVE_LENGTH_MEASURE(1.0E-006),#312);
#197=CIRCLE('',#313,3.81);
#198=CURVE_STYLE('',#314,POSITIVE_LENGTH_MEASURE(1.0E-006),#315);
#199=CIRCLE('',#316,3.975);
#200=CURVE_STYLE('',#317,POSITIVE_LENGTH_MEASURE(1.0E-006),#318);
#201=CIRCLE('',#319,3.975);
#202=SURFACE_STYLE_USAGE(.BOTH.,#320);
#203=FACE_OUTER_BOUND('',#321,.T.);
#204=CONICAL_SURFACE('',#322,3.48554358,1.0471975511966);
#205=SURFACE_STYLE_USAGE(.BOTH.,#323);
#206=FACE_OUTER_BOUND('',#324,.T.);
#207=CYLINDRICAL_SURFACE('',#325,3.975);
#208=POINT_STYLE(' ',#326,POSITIVE_LENGTH_MEASURE(1.0E-006),#327);
#209=CARTESIAN_POINT('',(3.87108742112233E-016,-3.16108716,-76.2));
#210=CURVE_STYLE('',#328,POSITIVE_LENGTH_MEASURE(1.0E-006),#329);
#211=LINE('',#330,#331);
#212=POINT_STYLE(' ',#332,POSITIVE_LENGTH_MEASURE(1.0E-006),#333);
#213=CARTESIAN_POINT('',(0.0,3.81,-75.8253499971454));
#214=CURVE_STYLE('',#334,POSITIVE_LENGTH_MEASURE(1.0E-006),#335);
#215=CIRCLE('',#336,3.975);
#216=SURFACE_STYLE_USAGE(.BOTH.,#337);
#217=FACE_BOUND('',#338,.T.);
#218=FACE_OUTER_BOUND('',#339,.T.);
#219=PLANE('',#340);
#220=CURVE_STYLE('',#341,POSITIVE_LENGTH_MEASURE(1.0E-006),#342);
#221=LINE('',#343,#344);
#222=SURFACE_STYLE_USAGE(.BOTH.,#345);
#223=FACE_OUTER_BOUND('',#346,.T.);
#224=CONICAL_SURFACE('',#347,3.86039597156586,0.523598775598301);
#225=CURVE_STYLE('',#348,POSITIVE_LENGTH_MEASURE(1.0E-006),#349);
#226=LINE('',#350,#351);
#227=SURFACE_STYLE_USAGE(.BOTH.,#352);
#228=FACE_OUTER_BOUND('',#353,.T.);
#229=CYLINDRICAL_SURFACE('',#354,3.81);
#230=SURFACE_STYLE_USAGE(.BOTH.,#355);
#231=FACE_OUTER_BOUND('',#356,.T.);
#232=CONICAL_SURFACE('',#357,3.48554358,1.0471975511966);
#233=SURFACE_STYLE_USAGE(.BOTH.,#358);
#234=FACE_OUTER_BOUND('',#359,.T.);
#235=CYLINDRICAL_SURFACE('',#360,3.81);
#236=SURFACE_STYLE_USAGE(.BOTH.,#361);
#237=FACE_OUTER_BOUND('',#362,.T.);
#238=PLANE('',#363);
#239=POINT_STYLE(' ',#364,POSITIVE_LENGTH_MEASURE(1.0E-006),#365);
#240=CARTESIAN_POINT('',(4.86781025644395E-016,-3.975,-0.396999999999998));
#241=SURFACE_STYLE_USAGE(.BOTH.,#366);
#242=FACE_OUTER_BOUND('',#367,.T.);
#243=CYLINDRICAL_SURFACE('',#368,3.975);
#244=CURVE_STYLE('',#369,POSITIVE_LENGTH_MEASURE(1.0E-006),#370);
#245=LINE('',#371,#372);
#246=POINT_STYLE(' ',#373,POSITIVE_LENGTH_MEASURE(1.0E-006),#374);
#247=CARTESIAN_POINT('',(4.66575020806326E-016,-3.81,-61.4));
#248=CURVE_STYLE('',#375,POSITIVE_LENGTH_MEASURE(1.0E-006),#376);
#249=LINE('',#377,#378);
#250=POINT_STYLE(' ',#379,POSITIVE_LENGTH_MEASURE(1.0E-006),#380);
#251=CARTESIAN_POINT('',(-4.86781025644395E-016,3.975,-61.4));
#252=CURVE_STYLE('',#381,POSITIVE_LENGTH_MEASURE(1.0E-006),#382);
#253=CIRCLE('',#383,3.81);
#254=POINT_STYLE(' ',#384,POSITIVE_LENGTH_MEASURE(1.0E-006),#385);
#255=CARTESIAN_POINT('',(0.0,3.975,-0.396999999999998));
#256=POINT_STYLE(' ',#386,POSITIVE_LENGTH_MEASURE(1.0E-006),#387);
#257=CARTESIAN_POINT('',(0.0,-3.975,-61.4));
#258=POINT_STYLE(' ',#388,POSITIVE_LENGTH_MEASURE(1.0E-006),#389);
#259=CARTESIAN_POINT('',(0.0,3.74579194313172,0.0));
#260=POINT_STYLE(' ',#390,POSITIVE_LENGTH_MEASURE(1.0E-006),#391);
#261=CARTESIAN_POINT('',(0.0,3.81,-61.4));
#262=SURFACE_STYLE_USAGE(.BOTH.,#392);
#263=FACE_OUTER_BOUND('',#393,.T.);
#264=PLANE('',#394);
#265=CURVE_STYLE('',#395,POSITIVE_LENGTH_MEASURE(1.0E-006),#396);
#266=CIRCLE('',#397,3.81);
#267=CURVE_STYLE('',#398,POSITIVE_LENGTH_MEASURE(1.0E-006),#399);
#268=CIRCLE('',#400,3.16108716);
#269=CURVE_STYLE('',#401,POSITIVE_LENGTH_MEASURE(1.0E-006),#402);
#270=CIRCLE('',#403,3.74579194313172);
#271=PRODUCT_CONTEXT('',#54,'mechanical');
#272=PRODUCT_DEFINITION_FORMATION_WITH_SPECIFIED_SOURCE(' ','NONE',#155,.NOT_KNOWN.);
#273=CARTESIAN_POINT('',(0.0,0.0,0.0));
#274=DIRECTION('',(0.0,0.0,1.0));
#275=DIRECTION('',(1.0,0.0,0.0));
#276= (NAMED_UNIT(#163)LENGTH_UNIT()SI_UNIT(.MILLI.,.METRE.));
#277=SURFACE_SIDE_STYLE('',(#405));
#278=EDGE_LOOP('',(#406,#407,#408,#409));
#279=AXIS2_PLACEMENT_3D('',#410,#411,#412);
#280=DRAUGHTING_PRE_DEFINED_CURVE_FONT('continuous');
#281=COLOUR_RGB('',0.498039215803146,0.498039215803146,0.498039215803146);
#282=AXIS2_PLACEMENT_3D('',#413,#414,#415);
#283=DRAUGHTING_PRE_DEFINED_CURVE_FONT('continuous');
#284=COLOUR_RGB('',0.800000011920929,0.800000011920929,0.800000011920929);
#285=CARTESIAN_POINT('',(-4.2684188145928E-016,3.48554358,-76.0126749985727));
#286=VECTOR('',#416,1.0);
#287=PRE_DEFINED_MARKER('');
#288=COLOUR_RGB('',0.498039215803146,0.498039215803146,0.498039215803146);
#289=DRAUGHTING_PRE_DEFINED_CURVE_FONT('continuous');
#290=COLOUR_RGB('',0.498039215803146,0.498039215803146,0.498039215803146);
#291=CARTESIAN_POINT('',(-4.86781025644395E-016,3.975,-25.2985));
#292=VECTOR('',#417,1.0);
#293=DRAUGHTING_PRE_DEFINED_CURVE_FONT('continuous');
#294=COLOUR_RGB('',0.498039215803146,0.498039215803146,0.498039215803146);
#295=AXIS2_PLACEMENT_3D('',#418,#419,#420);
#296=PRE_DEFINED_MARKER('');
#297=COLOUR_RGB('',0.498039215803146,0.498039215803146,0.498039215803146);
#298=SURFACE_SIDE_STYLE('',(#421));
#299=PRE_DEFINED_MARKER('');
#300=COLOUR_RGB('',0.800000011920929,0.800000011920929,0.800000011920929);
#301=DRAUGHTING_PRE_DEFINED_CURVE_FONT('continuous');
#302=COLOUR_RGB('',0.498039215803146,0.498039215803146,0.498039215803146);
#303=AXIS2_PLACEMENT_3D('',#422,#423,#424);
#304=DRAUGHTING_PRE_DEFINED_CURVE_FONT('continuous');
#305=COLOUR_RGB('',0.498039215803146,0.498039215803146,0.498039215803146);
#306=CARTESIAN_POINT('',(4.72746543504986E-016,-3.86039597156586,-0.198500000000003));
#307=VECTOR('',#425,1.0);
#308=DRAUGHTING_PRE_DEFINED_CURVE_FONT('continuous');
#309=COLOUR_RGB('',0.800000011920929,0.800000011920929,0.800000011920929);
#310=AXIS2_PLACEMENT_3D('',#426,#427,#428);
#311=DRAUGHTING_PRE_DEFINED_CURVE_FONT('continuous');
#312=COLOUR_RGB('',0.498039215803146,0.498039215803146,0.498039215803146);
#313=AXIS2_PLACEMENT_3D('',#429,#430,#431);
#314=DRAUGHTING_PRE_DEFINED_CURVE_FONT('continuous');
#315=COLOUR_RGB('',0.498039215803146,0.498039215803146,0.498039215803146);
#316=AXIS2_PLACEMENT_3D('',#432,#433,#434);
#317=DRAUGHTING_PRE_DEFINED_CURVE_FONT('continuous');
#318=COLOUR_RGB('',0.498039215803146,0.498039215803146,0.498039215803146);
#319=AXIS2_PLACEMENT_3D('',#435,#436,#437);
#320=SURFACE_SIDE_STYLE('',(#438));
#321=EDGE_LOOP('',(#439,#440,#441,#442));
#322=AXIS2_PLACEMENT_3D('',#443,#444,#445);
#323=SURFACE_SIDE_STYLE('',(#446));
#324=EDGE_LOOP('',(#447,#448,#449,#450));
#325=AXIS2_PLACEMENT_3D('',#451,#452,#453);
#326=PRE_DEFINED_MARKER('');
#327=COLOUR_RGB('',0.498039215803146,0.498039215803146,0.498039215803146);
#328=DRAUGHTING_PRE_DEFINED_CURVE_FONT('continuous');
#329=COLOUR_RGB('',0.800000011920929,0.800000011920929,0.800000011920929);
#330=CARTESIAN_POINT('',(4.2684188145928E-016,-3.48554358,-76.0126749985727));
#331=VECTOR('',#454,1.0);
#332=PRE_DEFINED_MARKER('');
#333=COLOUR_RGB('',0.800000011920929,0.800000011920929,0.800000011920929);
#334=DRAUGHTING_PRE_DEFINED_CURVE_FONT('continuous');
#335=COLOUR_RGB('',0.498039215803146,0.498039215803146,0.498039215803146);
#336=AXIS2_PLACEMENT_3D('',#455,#456,#457);
#337=SURFACE_SIDE_STYLE('',(#458));
#338=EDGE_LOOP('',(#459,#460));
#339=EDGE_LOOP('',(#461,#462));
#340=AXIS2_PLACEMENT_3D('',#463,#464,#465);
#341=DRAUGHTING_PRE_DEFINED_CURVE_FONT('continuous');
#342=COLOUR_RGB('',0.800000011920929,0.800000011920929,0.800000011920929);
#343=CARTESIAN_POINT('',(4.66575020806326E-016,-3.81,-68.6126749985727));
#344=VECTOR('',#466,1.0);
#345=SURFACE_SIDE_STYLE('',(#467));
#346=EDGE_LOOP('',(#468,#469,#470,#471));
#347=AXIS2_PLACEMENT_3D('',#472,#473,#474);
#348=DRAUGHTING_PRE_DEFINED_CURVE_FONT('continuous');
#349=COLOUR_RGB('',0.800000011920929,0.800000011920929,0.800000011920929);
#350=CARTESIAN_POINT('',(-4.66575020806326E-016,3.81,-68.6126749985727));
#351=VECTOR('',#475,1.0);
#352=SURFACE_SIDE_STYLE('',(#476));
#353=EDGE_LOOP('',(#477,#478,#479,#480));
#354=AXIS2_PLACEMENT_3D('',#481,#482,#483);
#355=SURFACE_SIDE_STYLE('',(#484));
#356=EDGE_LOOP('',(#485,#486,#487,#488));
#357=AXIS2_PLACEMENT_3D('',#489,#490,#491);
#358=SURFACE_SIDE_STYLE('',(#492));
#359=EDGE_LOOP('',(#493,#494,#495,#496));
#360=AXIS2_PLACEMENT_3D('',#497,#498,#499);
#361=SURFACE_SIDE_STYLE('',(#500));
#362=EDGE_LOOP('',(#501,#502));
#363=AXIS2_PLACEMENT_3D('',#503,#504,#505);
#364=PRE_DEFINED_MARKER('');
#365=COLOUR_RGB('',0.498039215803146,0.498039215803146,0.498039215803146);
#366=SURFACE_SIDE_STYLE('',(#506));
#367=EDGE_LOOP('',(#507,#508,#509,#510));
#368=AXIS2_PLACEMENT_3D('',#511,#512,#513);
#369=DRAUGHTING_PRE_DEFINED_CURVE_FONT('continuous');
#370=COLOUR_RGB('',0.498039215803146,0.498039215803146,0.498039215803146);
#371=CARTESIAN_POINT('',(4.86781025644395E-016,-3.975,-25.2985));
#372=VECTOR('',#514,1.0);
#373=PRE_DEFINED_MARKER('');
#374=COLOUR_RGB('',0.498039215803146,0.498039215803146,0.498039215803146);
#375=DRAUGHTING_PRE_DEFINED_CURVE_FONT('continuous');
#376=COLOUR_RGB('',0.498039215803146,0.498039215803146,0.498039215803146);
#377=CARTESIAN_POINT('',(-4.72746543504986E-016,3.86039597156586,-0.198500000000003));
#378=VECTOR('',#515,1.0);
#379=PRE_DEFINED_MARKER('');
#380=COLOUR_RGB('',0.498039215803146,0.498039215803146,0.498039215803146);
#381=DRAUGHTING_PRE_DEFINED_CURVE_FONT('continuous');
#382=COLOUR_RGB('',0.498039215803146,0.498039215803146,0.498039215803146);
#383=AXIS2_PLACEMENT_3D('',#516,#517,#518);
#384=PRE_DEFINED_MARKER('');
#385=COLOUR_RGB('',0.498039215803146,0.498039215803146,0.498039215803146);
#386=PRE_DEFINED_MARKER('');
#387=COLOUR_RGB('',0.498039215803146,0.498039215803146,0.498039215803146);
#388=PRE_DEFINED_MARKER('');
#389=COLOUR_RGB('',0.498039215803146,0.498039215803146,0.498039215803146);
#390=PRE_DEFINED_MARKER('');
#391=COLOUR_RGB('',0.498039215803146,0.498039215803146,0.498039215803146);
#392=SURFACE_SIDE_STYLE('',(#519));
#393=EDGE_LOOP('',(#520,#521));
#394=AXIS2_PLACEMENT_3D('',#522,#523,#524);
#395=DRAUGHTING_PRE_DEFINED_CURVE_FONT('continuous');
#396=COLOUR_RGB('',0.800000011920929,0.800000011920929,0.800000011920929);
#397=AXIS2_PLACEMENT_3D('',#525,#526,#527);
#398=DRAUGHTING_PRE_DEFINED_CURVE_FONT('continuous');
#399=COLOUR_RGB('',0.498039215803146,0.498039215803146,0.498039215803146);
#400=AXIS2_PLACEMENT_3D('',#528,#529,#530);
#401=DRAUGHTING_PRE_DEFINED_CURVE_FONT('continuous');
#402=COLOUR_RGB('',0.498039215803146,0.498039215803146,0.498039215803146);
#403=AXIS2_PLACEMENT_3D('',#531,#532,#533);
#405=SURFACE_STYLE_FILL_AREA(#534);
#406=ORIENTED_EDGE('',*,*,#134,.F.);
#407=ORIENTED_EDGE('',*,*,#70,.T.);
#408=ORIENTED_EDGE('',*,*,#88,.F.);
#409=ORIENTED_EDGE('',*,*,#108,.F.);
#410=CARTESIAN_POINT('',(0.0,0.0,-0.198500000000003));
#411=DIRECTION('',(0.0,-0.0,-1.0));
#412=DIRECTION('',(0.0,1.0,0.0));
#413=CARTESIAN_POINT('',(0.0,0.0,0.0));
#414=DIRECTION('',(0.0,0.0,-1.0));
#415=DIRECTION('',(0.0,1.0,0.0));
#416=DIRECTION('',(1.06054021204601E-016,-0.866025403784437,-0.500000000000003));
#417=DIRECTION('',(0.0,0.0,-1.0));
#418=CARTESIAN_POINT('',(0.0,0.0,-0.396999999999998));
#419=DIRECTION('',(0.0,0.0,-1.0));
#420=DIRECTION('',(0.0,1.0,0.0));
#421=SURFACE_STYLE_FILL_AREA(#535);
#422=CARTESIAN_POINT('',(0.0,0.0,-76.2));
#423=DIRECTION('',(0.0,0.0,-1.0));
#424=DIRECTION('',(0.0,1.0,0.0));
#425=DIRECTION('',(-6.12303176911191E-017,0.500000000000002,0.866025403784438));
#426=CARTESIAN_POINT('',(0.0,0.0,-75.8253499971454));
#427=DIRECTION('',(0.0,0.0,-1.0));
#428=DIRECTION('',(0.0,1.0,0.0));
#429=CARTESIAN_POINT('',(0.0,0.0,-61.4));
#430=DIRECTION('',(0.0,-0.0,1.0));
#431=DIRECTION('',(0.0,1.0,0.0));
#432=CARTESIAN_POINT('',(0.0,0.0,-61.4));
#433=DIRECTION('',(0.0,0.0,-1.0));
#434=DIRECTION('',(0.0,-1.0,0.0));
#435=CARTESIAN_POINT('',(0.0,0.0,-61.4));
#436=DIRECTION('',(0.0,0.0,-1.0));
#437=DIRECTION('',(0.0,-1.0,0.0));
#438=SURFACE_STYLE_FILL_AREA(#536);
#439=ORIENTED_EDGE('',*,*,#72,.T.);
#440=ORIENTED_EDGE('',*,*,#152,.F.);
#441=ORIENTED_EDGE('',*,*,#104,.T.);
#442=ORIENTED_EDGE('',*,*,#150,.T.);
#443=CARTESIAN_POINT('',(0.0,0.0,-76.0126749985727));
#444=DIRECTION('',(-0.0,-0.0,1.0));
#445=DIRECTION('',(0.0,1.0,0.0));
#446=SURFACE_STYLE_FILL_AREA(#537);
#447=ORIENTED_EDGE('',*,*,#76,.T.);
#448=ORIENTED_EDGE('',*,*,#96,.F.);
#449=ORIENTED_EDGE('',*,*,#130,.T.);
#450=ORIENTED_EDGE('',*,*,#78,.T.);
#451=CARTESIAN_POINT('',(0.0,0.0,-25.2985));
#452=DIRECTION('',(-0.0,-0.0,1.0));
#453=DIRECTION('',(0.0,1.0,0.0));
#454=DIRECTION('',(1.06054021204601E-016,-0.866025403784437,0.500000000000003));
#455=CARTESIAN_POINT('',(0.0,0.0,-0.396999999999998));
#456=DIRECTION('',(0.0,0.0,-1.0));
#457=DIRECTION('',(0.0,1.0,0.0));
#458=SURFACE_STYLE_FILL_AREA(#538);
#459=ORIENTED_EDGE('',*,*,#138,.T.);
#460=ORIENTED_EDGE('',*,*,#92,.T.);
#461=ORIENTED_EDGE('',*,*,#96,.T.);
#462=ORIENTED_EDGE('',*,*,#94,.T.);
#463=CARTESIAN_POINT('',(0.0,0.0,-61.4));
#464=DIRECTION('',(0.0,0.0,-1.0));
#465=DIRECTION('',(0.0,-1.0,0.0));
#466=DIRECTION('',(-0.0,-0.0,1.0));
#467=SURFACE_STYLE_FILL_AREA(#539);
#468=ORIENTED_EDGE('',*,*,#134,.T.);
#469=ORIENTED_EDGE('',*,*,#78,.F.);
#470=ORIENTED_EDGE('',*,*,#88,.T.);
#471=ORIENTED_EDGE('',*,*,#154,.T.);
#472=CARTESIAN_POINT('',(0.0,0.0,-0.198500000000003));
#473=DIRECTION('',(0.0,-0.0,-1.0));
#474=DIRECTION('',(0.0,1.0,0.0));
#475=DIRECTION('',(0.0,0.0,-1.0));
#476=SURFACE_STYLE_FILL_AREA(#540);
#477=ORIENTED_EDGE('',*,*,#116,.T.);
#478=ORIENTED_EDGE('',*,*,#150,.F.);
#479=ORIENTED_EDGE('',*,*,#112,.T.);
#480=ORIENTED_EDGE('',*,*,#138,.F.);
#481=CARTESIAN_POINT('',(0.0,0.0,-68.6126749985727));
#482=DIRECTION('',(-0.0,-0.0,1.0));
#483=DIRECTION('',(0.0,1.0,0.0));
#484=SURFACE_STYLE_FILL_AREA(#541);
#485=ORIENTED_EDGE('',*,*,#72,.F.);
#486=ORIENTED_EDGE('',*,*,#90,.T.);
#487=ORIENTED_EDGE('',*,*,#104,.F.);
#488=ORIENTED_EDGE('',*,*,#86,.F.);
#489=CARTESIAN_POINT('',(0.0,0.0,-76.0126749985727));
#490=DIRECTION('',(-0.0,-0.0,1.0));
#491=DIRECTION('',(0.0,1.0,0.0));
#492=SURFACE_STYLE_FILL_AREA(#542);
#493=ORIENTED_EDGE('',*,*,#116,.F.);
#494=ORIENTED_EDGE('',*,*,#92,.F.);
#495=ORIENTED_EDGE('',*,*,#112,.F.);
#496=ORIENTED_EDGE('',*,*,#90,.F.);
#497=CARTESIAN_POINT('',(0.0,0.0,-68.6126749985727));
#498=DIRECTION('',(-0.0,-0.0,1.0));
#499=DIRECTION('',(0.0,1.0,0.0));
#500=SURFACE_STYLE_FILL_AREA(#543);
#501=ORIENTED_EDGE('',*,*,#70,.F.);
#502=ORIENTED_EDGE('',*,*,#154,.F.);
#503=CARTESIAN_POINT('',(0.0,1.87289597156586,0.0));
#504=DIRECTION('',(-0.0,0.0,1.0));
#505=DIRECTION('',(0.0,-1.0,0.0));
#506=SURFACE_STYLE_FILL_AREA(#544);
#507=ORIENTED_EDGE('',*,*,#76,.F.);
#508=ORIENTED_EDGE('',*,*,#108,.T.);
#509=ORIENTED_EDGE('',*,*,#130,.F.);
#510=ORIENTED_EDGE('',*,*,#94,.F.);
#511=CARTESIAN_POINT('',(0.0,0.0,-25.2985));
#512=DIRECTION('',(-0.0,-0.0,1.0));
#513=DIRECTION('',(0.0,1.0,0.0));
#514=DIRECTION('',(-0.0,-0.0,1.0));
#515=DIRECTION('',(-6.12303176911191E-017,0.500000000000002,-0.866025403784438));
#516=CARTESIAN_POINT('',(0.0,0.0,-61.4));
#517=DIRECTION('',(0.0,-0.0,1.0));
#518=DIRECTION('',(0.0,1.0,0.0));
#519=SURFACE_STYLE_FILL_AREA(#545);
#520=ORIENTED_EDGE('',*,*,#86,.T.);
#521=ORIENTED_EDGE('',*,*,#152,.T.);
#522=CARTESIAN_POINT('',(0.0,1.58054358,-76.2));
#523=DIRECTION('',(0.0,0.0,-1.0));
#524=DIRECTION('',(0.0,1.0,0.0));
#525=CARTESIAN_POINT('',(0.0,0.0,-75.8253499971454));
#526=DIRECTION('',(0.0,0.0,-1.0));
#527=DIRECTION('',(0.0,1.0,0.0));
#528=CARTESIAN_POINT('',(0.0,0.0,-76.2));
#529=DIRECTION('',(0.0,0.0,-1.0));
#530=DIRECTION('',(0.0,1.0,0.0));
#531=CARTESIAN_POINT('',(0.0,0.0,0.0));
#532=DIRECTION('',(0.0,0.0,-1.0));
#533=DIRECTION('',(0.0,1.0,0.0));
#534=FILL_AREA_STYLE('',(#546));
#535=FILL_AREA_STYLE('',(#547));
#536=FILL_AREA_STYLE('',(#548));
#537=FILL_AREA_STYLE('',(#549));
#538=FILL_AREA_STYLE('',(#550));
#539=FILL_AREA_STYLE('',(#551));
#540=FILL_AREA_STYLE('',(#552));
#541=FILL_AREA_STYLE('',(#553));
#542=FILL_AREA_STYLE('',(#554));
#543=FILL_AREA_STYLE('',(#555));
#544=FILL_AREA_STYLE('',(#556));
#545=FILL_AREA_STYLE('',(#557));
#546=FILL_AREA_STYLE_COLOUR('',#558);
#547=FILL_AREA_STYLE_COLOUR('',#559);
#548=FILL_AREA_STYLE_COLOUR('',#560);
#549=FILL_AREA_STYLE_COLOUR('',#561);
#550=FILL_AREA_STYLE_COLOUR('',#562);
#551=FILL_AREA_STYLE_COLOUR('',#563);
#552=FILL_AREA_STYLE_COLOUR('',#564);
#553=FILL_AREA_STYLE_COLOUR('',#565);
#554=FILL_AREA_STYLE_COLOUR('',#566);
#555=FILL_AREA_STYLE_COLOUR('',#567);
#556=FILL_AREA_STYLE_COLOUR('',#568);
#557=FILL_AREA_STYLE_COLOUR('',#569);
#558=COLOUR_RGB('',0.498039215803146,0.498039215803146,0.498039215803146);
#559=COLOUR_RGB('',0.498039215803146,0.498039215803146,0.498039215803146);
#560=COLOUR_RGB('',0.800000011920929,0.800000011920929,0.800000011920929);
#561=COLOUR_RGB('',0.498039215803146,0.498039215803146,0.498039215803146);
#562=COLOUR_RGB('',0.498039215803146,0.498039215803146,0.498039215803146);
#563=COLOUR_RGB('',0.498039215803146,0.498039215803146,0.498039215803146);
#564=COLOUR_RGB('',0.800000011920929,0.800000011920929,0.800000011920929);
#565=COLOUR_RGB('',0.800000011920929,0.800000011920929,0.800000011920929);
#566=COLOUR_RGB('',0.800000011920929,0.800000011920929,0.800000011920929);
#567=COLOUR_RGB('',0.498039215803146,0.498039215803146,0.498039215803146);
#568=COLOUR_RGB('',0.498039215803146,0.498039215803146,0.498039215803146);
#569=COLOUR_RGB('',0.498039215803146,0.498039215803146,0.498039215803146);
#570=AXIS2_PLACEMENT_3D('PCS',#571,#572,#573);
#571=CARTESIAN_POINT('',(0.0,0.0,0.0));
#572=DIRECTION('',(0.0,0.0,1.0));
#573=DIRECTION('',(1.0,0.0,0.0));
#574=AXIS2_PLACEMENT_3D('CIP',#575,#576,#577);
#575=CARTESIAN_POINT('',(0.0,0.0,-76.2));
#576=DIRECTION('',(0.0,0.0,1.0));
#577=DIRECTION('',(1.0,0.0,0.0));
#578=AXIS2_PLACEMENT_3D('CRP',#579,#580,#581);
#579=CARTESIAN_POINT('',(-3.81,0.0,-76.2));
#580=DIRECTION('',(0.0,0.0,1.0));
#581=DIRECTION('',(1.0,0.0,0.0));
#582=AXIS2_PLACEMENT_3D('MCS',#583,#584,#585);
#583=CARTESIAN_POINT('',(0.0,0.0,-50.2));
#584=DIRECTION('',(0.0,0.0,1.0));
#585=DIRECTION('',(1.0,0.0,0.0));
#586=CONSTRUCTIVE_GEOMETRY_REPRESENTATION_RELATIONSHIP('coordinate systems',$,#58,#587);
#587=CONSTRUCTIVE_GEOMETRY_REPRESENTATION('coordinate systems',(#570,#574,#578,#582),#6);
ENDSEC;
END-ISO-10303-21;
