ISO-10303-21;
HEADER;
FILE_DESCRIPTION(('no description'),'unknown implementation level');
FILE_NAME('solidLO5vkwa8YbJGINNQZjTQHfCw9D4_1.STP','  ',('CIMSOURCE GmbH'),('CADClick - KiM GmbH - www.kimweb.de'),'unknown preprocess','ACIS','unknown authorization');
FILE_SCHEMA(('automotive_design'));
ENDSEC;
DATA;
#1=MECHANICAL_DESIGN_GEOMETRIC_PRESENTATION_REPRESENTATION(' ',(#10,#11,#12,#13,#14,#15,#16,#17,#18,#19,#20,#21,#22,#23,#24,#25,#26,#27,#28,#29,#30,#31,#32,#33,#34,#35,#36,#37,#38,#39,#40,#41,#42,#43,#44,#45,#46,#47,#48,#49,#50,#51,#52,#53),#6);
#2=PRODUCT_DEFINITION_CONTEXT('',#54,'design');
#3=APPLICATION_PROTOCOL_DEFINITION('INTERNATIONAL STANDARD','automotive_design',1994,#54);
#4=PRODUCT_CATEGORY_RELATIONSHIP('NONE','NONE',#55,#56);
#5=SHAPE_DEFINITION_REPRESENTATION(#57,#58);
#6= (GEOMETRIC_REPRESENTATION_CONTEXT(3)GLOBAL_UNCERTAINTY_ASSIGNED_CONTEXT((#61))GLOBAL_UNIT_ASSIGNED_CONTEXT((#63,#64,#65))REPRESENTATION_CONTEXT('NONE','WORKSPACE'));
#10=STYLED_ITEM('',(#67),#68);
#11=STYLED_ITEM('',(#69),#70);
#12=STYLED_ITEM('',(#71),#72);
#13=STYLED_ITEM('',(#73),#74);
#14=STYLED_ITEM('',(#75),#76);
#15=STYLED_ITEM('',(#77),#78);
#16=STYLED_ITEM('',(#79),#80);
#17=STYLED_ITEM('',(#81),#82);
#18=STYLED_ITEM('',(#83),#84);
#19=STYLED_ITEM('',(#85),#86);
#20=STYLED_ITEM('',(#87),#88);
#21=STYLED_ITEM('',(#89),#90);
#22=STYLED_ITEM('',(#91),#92);
#23=STYLED_ITEM('',(#93),#94);
#24=STYLED_ITEM('',(#95),#96);
#25=STYLED_ITEM('',(#97),#98);
#26=STYLED_ITEM('',(#99),#100);
#27=STYLED_ITEM('',(#101),#102);
#28=STYLED_ITEM('',(#103),#104);
#29=STYLED_ITEM('',(#105),#106);
#30=STYLED_ITEM('',(#107),#108);
#31=STYLED_ITEM('',(#109),#110);
#32=STYLED_ITEM('',(#111),#112);
#33=STYLED_ITEM('',(#113),#114);
#34=STYLED_ITEM('',(#115),#116);
#35=STYLED_ITEM('',(#117),#118);
#36=STYLED_ITEM('',(#119),#120);
#37=STYLED_ITEM('',(#121),#122);
#38=STYLED_ITEM('',(#123),#124);
#39=STYLED_ITEM('',(#125),#126);
#40=STYLED_ITEM('',(#127),#128);
#41=STYLED_ITEM('',(#129),#130);
#42=STYLED_ITEM('',(#131),#132);
#43=STYLED_ITEM('',(#133),#134);
#44=STYLED_ITEM('',(#135),#136);
#45=STYLED_ITEM('',(#137),#138);
#46=STYLED_ITEM('',(#139),#140);
#47=STYLED_ITEM('',(#141),#142);
#48=STYLED_ITEM('',(#143),#144);
#49=STYLED_ITEM('',(#145),#146);
#50=STYLED_ITEM('',(#147),#148);
#51=STYLED_ITEM('',(#149),#150);
#52=STYLED_ITEM('',(#151),#152);
#53=STYLED_ITEM('',(#153),#154);
#54=APPLICATION_CONTEXT(' ');
#55=PRODUCT_CATEGORY('part','NONE');
#56=PRODUCT_RELATED_PRODUCT_CATEGORY('detail',' ',(#155));
#57=PRODUCT_DEFINITION_SHAPE('NONE','NONE',#156);
#58=ADVANCED_BREP_SHAPE_REPRESENTATION('1',(#154,#157),#6);
#61=UNCERTAINTY_MEASURE_WITH_UNIT(LENGTH_MEASURE(1.0E-006),#63,'','');
#63= (CONVERSION_BASED_UNIT('MILLIMETRE',#160)LENGTH_UNIT()NAMED_UNIT(#163));
#64= (NAMED_UNIT(#165)PLANE_ANGLE_UNIT()SI_UNIT($,.RADIAN.));
#65= (NAMED_UNIT(#165)SOLID_ANGLE_UNIT()SI_UNIT($,.STERADIAN.));
#67=PRESENTATION_STYLE_ASSIGNMENT((#171));
#68=EDGE_CURVE('',#88,#98,#172,.T.);
#69=PRESENTATION_STYLE_ASSIGNMENT((#173));
#70=EDGE_CURVE('',#98,#90,#174,.T.);
#71=PRESENTATION_STYLE_ASSIGNMENT((#175));
#72=EDGE_CURVE('',#76,#138,#176,.T.);
#73=PRESENTATION_STYLE_ASSIGNMENT((#177));
#74=EDGE_CURVE('',#90,#138,#178,.T.);
#75=PRESENTATION_STYLE_ASSIGNMENT((#179));
#76=VERTEX_POINT('',#180);
#77=PRESENTATION_STYLE_ASSIGNMENT((#181));
#78=EDGE_CURVE('',#76,#94,#182,.T.);
#79=PRESENTATION_STYLE_ASSIGNMENT((#183));
#80=ADVANCED_FACE('',(#184),#185,.T.);
#81=PRESENTATION_STYLE_ASSIGNMENT((#186));
#82=VERTEX_POINT('',#187);
#83=PRESENTATION_STYLE_ASSIGNMENT((#188));
#84=ADVANCED_FACE('',(#189),#190,.T.);
#85=PRESENTATION_STYLE_ASSIGNMENT((#191));
#86=EDGE_CURVE('',#116,#114,#192,.T.);
#87=PRESENTATION_STYLE_ASSIGNMENT((#193));
#88=VERTEX_POINT('',#194);
#89=PRESENTATION_STYLE_ASSIGNMENT((#195));
#90=VERTEX_POINT('',#196);
#91=PRESENTATION_STYLE_ASSIGNMENT((#197));
#92=EDGE_CURVE('',#94,#90,#198,.T.);
#93=PRESENTATION_STYLE_ASSIGNMENT((#199));
#94=VERTEX_POINT('',#200);
#95=PRESENTATION_STYLE_ASSIGNMENT((#201));
#96=ADVANCED_FACE('',(#202),#203,.T.);
#97=PRESENTATION_STYLE_ASSIGNMENT((#204));
#98=VERTEX_POINT('',#205);
#99=PRESENTATION_STYLE_ASSIGNMENT((#206));
#100=EDGE_CURVE('',#114,#112,#207,.T.);
#101=PRESENTATION_STYLE_ASSIGNMENT((#208));
#102=ADVANCED_FACE('',(#209),#210,.T.);
#103=PRESENTATION_STYLE_ASSIGNMENT((#211));
#104=ADVANCED_FACE('',(#212,#213),#214,.T.);
#105=PRESENTATION_STYLE_ASSIGNMENT((#215));
#106=ADVANCED_FACE('',(#216),#217,.T.);
#107=PRESENTATION_STYLE_ASSIGNMENT((#218));
#108=VERTEX_POINT('',#219);
#109=PRESENTATION_STYLE_ASSIGNMENT((#220));
#110=ADVANCED_FACE('',(#221),#222,.T.);
#111=PRESENTATION_STYLE_ASSIGNMENT((#223));
#112=VERTEX_POINT('',#224);
#113=PRESENTATION_STYLE_ASSIGNMENT((#225));
#114=VERTEX_POINT('',#226);
#115=PRESENTATION_STYLE_ASSIGNMENT((#227));
#116=VERTEX_POINT('',#228);
#117=PRESENTATION_STYLE_ASSIGNMENT((#229));
#118=EDGE_CURVE('',#150,#108,#230,.T.);
#119=PRESENTATION_STYLE_ASSIGNMENT((#231));
#120=EDGE_CURVE('',#116,#82,#232,.T.);
#121=PRESENTATION_STYLE_ASSIGNMENT((#233));
#122=EDGE_CURVE('',#114,#108,#234,.T.);
#123=PRESENTATION_STYLE_ASSIGNMENT((#235));
#124=ADVANCED_FACE('',(#236),#237,.T.);
#125=PRESENTATION_STYLE_ASSIGNMENT((#238));
#126=EDGE_CURVE('',#138,#76,#239,.T.);
#127=PRESENTATION_STYLE_ASSIGNMENT((#240));
#128=EDGE_CURVE('',#108,#114,#241,.T.);
#129=PRESENTATION_STYLE_ASSIGNMENT((#242));
#130=ADVANCED_FACE('',(#243),#244,.T.);
#131=PRESENTATION_STYLE_ASSIGNMENT((#245));
#132=EDGE_CURVE('',#98,#88,#246,.T.);
#133=PRESENTATION_STYLE_ASSIGNMENT((#247));
#134=EDGE_CURVE('',#112,#150,#248,.T.);
#135=PRESENTATION_STYLE_ASSIGNMENT((#249));
#136=ADVANCED_FACE('',(#250),#251,.T.);
#137=PRESENTATION_STYLE_ASSIGNMENT((#252));
#138=VERTEX_POINT('',#253);
#139=PRESENTATION_STYLE_ASSIGNMENT((#254));
#140=EDGE_CURVE('',#150,#112,#255,.T.);
#141=PRESENTATION_STYLE_ASSIGNMENT((#256));
#142=EDGE_CURVE('',#108,#82,#257,.T.);
#143=PRESENTATION_STYLE_ASSIGNMENT((#258));
#144=EDGE_CURVE('',#82,#116,#259,.T.);
#145=PRESENTATION_STYLE_ASSIGNMENT((#260));
#146=EDGE_CURVE('',#94,#88,#261,.T.);
#147=PRESENTATION_STYLE_ASSIGNMENT((#262));
#148=ADVANCED_FACE('',(#263),#264,.T.);
#149=PRESENTATION_STYLE_ASSIGNMENT((#265));
#150=VERTEX_POINT('',#266);
#151=PRESENTATION_STYLE_ASSIGNMENT((#267));
#152=EDGE_CURVE('',#90,#94,#268,.T.);
#153=PRESENTATION_STYLE_ASSIGNMENT((#269));
#154=MANIFOLD_SOLID_BREP('1',#270);
#155=PRODUCT('1','1','PART-1-DESC',(#271));
#156=PRODUCT_DEFINITION('NONE','NONE',#272,#2);
#157=AXIS2_PLACEMENT_3D('',#273,#274,#275);
#160=LENGTH_MEASURE_WITH_UNIT(LENGTH_MEASURE(1.0),#276);
#163=DIMENSIONAL_EXPONENTS(1.0,0.0,0.0,0.0,0.0,0.0,0.0);
#165=DIMENSIONAL_EXPONENTS(0.0,0.0,0.0,0.0,0.0,0.0,0.0);
#171=CURVE_STYLE('',#277,POSITIVE_LENGTH_MEASURE(1.0E-006),#278);
#172=CIRCLE('',#279,4.699);
#173=CURVE_STYLE('',#280,POSITIVE_LENGTH_MEASURE(1.0E-006),#281);
#174=LINE('',#282,#283);
#175=CURVE_STYLE('',#284,POSITIVE_LENGTH_MEASURE(1.0E-006),#285);
#176=CIRCLE('',#286,3.9203046);
#177=CURVE_STYLE('',#287,POSITIVE_LENGTH_MEASURE(1.0E-006),#288);
#178=LINE('',#289,#290);
#179=POINT_STYLE(' ',#291,POSITIVE_LENGTH_MEASURE(1.0E-006),#292);
#180=CARTESIAN_POINT('',(4.80082992207909E-016,-3.9203046,-76.2));
#181=CURVE_STYLE('',#293,POSITIVE_LENGTH_MEASURE(1.0E-006),#294);
#182=LINE('',#295,#296);
#183=SURFACE_STYLE_USAGE(.BOTH.,#297);
#184=FACE_OUTER_BOUND('',#298,.T.);
#185=CYLINDRICAL_SURFACE('',#299,4.7625);
#186=POINT_STYLE(' ',#300,POSITIVE_LENGTH_MEASURE(1.0E-006),#301);
#187=CARTESIAN_POINT('',(-5.83218776007907E-016,4.7625,-57.15));
#188=SURFACE_STYLE_USAGE(.BOTH.,#302);
#189=FACE_OUTER_BOUND('',#303,.T.);
#190=PLANE('',#304);
#191=CURVE_STYLE('',#305,POSITIVE_LENGTH_MEASURE(1.0E-006),#306);
#192=LINE('',#307,#308);
#193=POINT_STYLE(' ',#309,POSITIVE_LENGTH_MEASURE(1.0E-006),#310);
#194=CARTESIAN_POINT('',(5.75442525661135E-016,-4.699,-57.15));
#195=POINT_STYLE(' ',#311,POSITIVE_LENGTH_MEASURE(1.0E-006),#312);
#196=CARTESIAN_POINT('',(0.0,4.699,-75.7504200011933));
#197=CURVE_STYLE('',#313,POSITIVE_LENGTH_MEASURE(1.0E-006),#314);
#198=CIRCLE('',#315,4.699);
#199=POINT_STYLE(' ',#316,POSITIVE_LENGTH_MEASURE(1.0E-006),#317);
#200=CARTESIAN_POINT('',(5.75442525661135E-016,-4.699,-75.7504200011933));
#201=SURFACE_STYLE_USAGE(.BOTH.,#318);
#202=FACE_OUTER_BOUND('',#319,.T.);
#203=CONICAL_SURFACE('',#320,4.53329194313172,0.523598775598301);
#204=POINT_STYLE(' ',#321,POSITIVE_LENGTH_MEASURE(1.0E-006),#322);
#205=CARTESIAN_POINT('',(0.0,4.699,-57.15));
#206=CURVE_STYLE('',#323,POSITIVE_LENGTH_MEASURE(1.0E-006),#324);
#207=LINE('',#325,#326);
#208=SURFACE_STYLE_USAGE(.BOTH.,#327);
#209=FACE_OUTER_BOUND('',#328,.T.);
#210=CYLINDRICAL_SURFACE('',#329,4.699);
#211=SURFACE_STYLE_USAGE(.BOTH.,#330);
#212=FACE_BOUND('',#331,.T.);
#213=FACE_OUTER_BOUND('',#332,.T.);
#214=PLANE('',#333);
#215=SURFACE_STYLE_USAGE(.BOTH.,#334);
#216=FACE_OUTER_BOUND('',#335,.T.);
#217=CYLINDRICAL_SURFACE('',#336,4.699);
#218=POINT_STYLE(' ',#337,POSITIVE_LENGTH_MEASURE(1.0E-006),#338);
#219=CARTESIAN_POINT('',(0.0,4.7625,-0.793999999999997));
#220=SURFACE_STYLE_USAGE(.BOTH.,#339);
#221=FACE_OUTER_BOUND('',#340,.T.);
#222=CONICAL_SURFACE('',#341,4.3096523,1.0471975511966);
#223=POINT_STYLE(' ',#342,POSITIVE_LENGTH_MEASURE(1.0E-006),#343);
#224=CARTESIAN_POINT('',(5.27080847450271E-016,-4.30408388626344,0.0));
#225=POINT_STYLE(' ',#344,POSITIVE_LENGTH_MEASURE(1.0E-006),#345);
#226=CARTESIAN_POINT('',(5.83218776007907E-016,-4.7625,-0.793999999999997));
#227=POINT_STYLE(' ',#346,POSITIVE_LENGTH_MEASURE(1.0E-006),#347);
#228=CARTESIAN_POINT('',(0.0,-4.7625,-57.15));
#229=CURVE_STYLE('',#348,POSITIVE_LENGTH_MEASURE(1.0E-006),#349);
#230=LINE('',#350,#351);
#231=CURVE_STYLE('',#352,POSITIVE_LENGTH_MEASURE(1.0E-006),#353);
#232=CIRCLE('',#354,4.7625);
#233=CURVE_STYLE('',#355,POSITIVE_LENGTH_MEASURE(1.0E-006),#356);
#234=CIRCLE('',#357,4.7625);
#235=SURFACE_STYLE_USAGE(.BOTH.,#358);
#236=FACE_OUTER_BOUND('',#359,.T.);
#237=PLANE('',#360);
#238=CURVE_STYLE('',#361,POSITIVE_LENGTH_MEASURE(1.0E-006),#362);
#239=CIRCLE('',#363,3.9203046);
#240=CURVE_STYLE('',#364,POSITIVE_LENGTH_MEASURE(1.0E-006),#365);
#241=CIRCLE('',#366,4.7625);
#242=SURFACE_STYLE_USAGE(.BOTH.,#367);
#243=FACE_OUTER_BOUND('',#368,.T.);
#244=CYLINDRICAL_SURFACE('',#369,4.7625);
#245=CURVE_STYLE('',#370,POSITIVE_LENGTH_MEASURE(1.0E-006),#371);
#246=CIRCLE('',#372,4.699);
#247=CURVE_STYLE('',#373,POSITIVE_LENGTH_MEASURE(1.0E-006),#374);
#248=CIRCLE('',#375,4.30408388626344);
#249=SURFACE_STYLE_USAGE(.BOTH.,#376);
#250=FACE_OUTER_BOUND('',#377,.T.);
#251=CONICAL_SURFACE('',#378,4.3096523,1.0471975511966);
#252=POINT_STYLE(' ',#379,POSITIVE_LENGTH_MEASURE(1.0E-006),#380);
#253=CARTESIAN_POINT('',(0.0,3.9203046,-76.2));
#254=CURVE_STYLE('',#381,POSITIVE_LENGTH_MEASURE(1.0E-006),#382);
#255=CIRCLE('',#383,4.30408388626344);
#256=CURVE_STYLE('',#384,POSITIVE_LENGTH_MEASURE(1.0E-006),#385);
#257=LINE('',#386,#387);
#258=CURVE_STYLE('',#388,POSITIVE_LENGTH_MEASURE(1.0E-006),#389);
#259=CIRCLE('',#390,4.7625);
#260=CURVE_STYLE('',#391,POSITIVE_LENGTH_MEASURE(1.0E-006),#392);
#261=LINE('',#393,#394);
#262=SURFACE_STYLE_USAGE(.BOTH.,#395);
#263=FACE_OUTER_BOUND('',#396,.T.);
#264=CONICAL_SURFACE('',#397,4.53329194313172,0.523598775598301);
#265=POINT_STYLE(' ',#398,POSITIVE_LENGTH_MEASURE(1.0E-006),#399);
#266=CARTESIAN_POINT('',(0.0,4.30408388626344,0.0));
#267=CURVE_STYLE('',#400,POSITIVE_LENGTH_MEASURE(1.0E-006),#401);
#268=CIRCLE('',#402,4.699);
#269=SURFACE_STYLE_USAGE(.BOTH.,#403);
#270=CLOSED_SHELL('',(#80,#96,#136,#102,#106,#110,#104,#124,#148,#130,#84));
#271=PRODUCT_CONTEXT('',#54,'mechanical');
#272=PRODUCT_DEFINITION_FORMATION_WITH_SPECIFIED_SOURCE(' ','NONE',#155,.NOT_KNOWN.);
#273=CARTESIAN_POINT('',(0.0,0.0,0.0));
#274=DIRECTION('',(0.0,0.0,1.0));
#275=DIRECTION('',(1.0,0.0,0.0));
#276= (NAMED_UNIT(#163)LENGTH_UNIT()SI_UNIT(.MILLI.,.METRE.));
#277=DRAUGHTING_PRE_DEFINED_CURVE_FONT('continuous');
#278=COLOUR_RGB('',0.498039215803146,0.498039215803146,0.498039215803146);
#279=AXIS2_PLACEMENT_3D('',#405,#406,#407);
#280=DRAUGHTING_PRE_DEFINED_CURVE_FONT('continuous');
#281=COLOUR_RGB('',0.800000011920929,0.800000011920929,0.800000011920929);
#282=CARTESIAN_POINT('',(-5.75442525661135E-016,4.699,-66.4502100005966));
#283=VECTOR('',#408,1.0);
#284=DRAUGHTING_PRE_DEFINED_CURVE_FONT('continuous');
#285=COLOUR_RGB('',0.498039215803146,0.498039215803146,0.498039215803146);
#286=AXIS2_PLACEMENT_3D('',#409,#410,#411);
#287=DRAUGHTING_PRE_DEFINED_CURVE_FONT('continuous');
#288=COLOUR_RGB('',0.800000011920929,0.800000011920929,0.800000011920929);
#289=CARTESIAN_POINT('',(-5.27762758934522E-016,4.3096523,-75.9752100005966));
#290=VECTOR('',#412,1.0);
#291=PRE_DEFINED_MARKER('');
#292=COLOUR_RGB('',0.498039215803146,0.498039215803146,0.498039215803146);
#293=DRAUGHTING_PRE_DEFINED_CURVE_FONT('continuous');
#294=COLOUR_RGB('',0.800000011920929,0.800000011920929,0.800000011920929);
#295=CARTESIAN_POINT('',(5.27762758934522E-016,-4.3096523,-75.9752100005966));
#296=VECTOR('',#413,1.0);
#297=SURFACE_SIDE_STYLE('',(#414));
#298=EDGE_LOOP('',(#415,#416,#417,#418));
#299=AXIS2_PLACEMENT_3D('',#419,#420,#421);
#300=PRE_DEFINED_MARKER('');
#301=COLOUR_RGB('',0.498039215803146,0.498039215803146,0.498039215803146);
#302=SURFACE_SIDE_STYLE('',(#422));
#303=EDGE_LOOP('',(#423,#424));
#304=AXIS2_PLACEMENT_3D('',#425,#426,#427);
#305=DRAUGHTING_PRE_DEFINED_CURVE_FONT('continuous');
#306=COLOUR_RGB('',0.498039215803146,0.498039215803146,0.498039215803146);
#307=CARTESIAN_POINT('',(5.83218776007907E-016,-4.7625,-24.247));
#308=VECTOR('',#428,1.0);
#309=PRE_DEFINED_MARKER('');
#310=COLOUR_RGB('',0.498039215803146,0.498039215803146,0.498039215803146);
#311=PRE_DEFINED_MARKER('');
#312=COLOUR_RGB('',0.800000011920929,0.800000011920929,0.800000011920929);
#313=DRAUGHTING_PRE_DEFINED_CURVE_FONT('continuous');
#314=COLOUR_RGB('',0.800000011920929,0.800000011920929,0.800000011920929);
#315=AXIS2_PLACEMENT_3D('',#429,#430,#431);
#316=PRE_DEFINED_MARKER('');
#317=COLOUR_RGB('',0.800000011920929,0.800000011920929,0.800000011920929);
#318=SURFACE_SIDE_STYLE('',(#432));
#319=EDGE_LOOP('',(#433,#434,#435,#436));
#320=AXIS2_PLACEMENT_3D('',#437,#438,#439);
#321=PRE_DEFINED_MARKER('');
#322=COLOUR_RGB('',0.498039215803146,0.498039215803146,0.498039215803146);
#323=DRAUGHTING_PRE_DEFINED_CURVE_FONT('continuous');
#324=COLOUR_RGB('',0.498039215803146,0.498039215803146,0.498039215803146);
#325=CARTESIAN_POINT('',(5.55149811729089E-016,-4.53329194313172,-0.396999999999998));
#326=VECTOR('',#440,1.0);
#327=SURFACE_SIDE_STYLE('',(#441));
#328=EDGE_LOOP('',(#442,#443,#444,#445));
#329=AXIS2_PLACEMENT_3D('',#446,#447,#448);
#330=SURFACE_SIDE_STYLE('',(#449));
#331=EDGE_LOOP('',(#450,#451));
#332=EDGE_LOOP('',(#452,#453));
#333=AXIS2_PLACEMENT_3D('',#454,#455,#456);
#334=SURFACE_SIDE_STYLE('',(#457));
#335=EDGE_LOOP('',(#458,#459,#460,#461));
#336=AXIS2_PLACEMENT_3D('',#462,#463,#464);
#337=PRE_DEFINED_MARKER('');
#338=COLOUR_RGB('',0.498039215803146,0.498039215803146,0.498039215803146);
#339=SURFACE_SIDE_STYLE('',(#465));
#340=EDGE_LOOP('',(#466,#467,#468,#469));
#341=AXIS2_PLACEMENT_3D('',#470,#471,#472);
#342=PRE_DEFINED_MARKER('');
#343=COLOUR_RGB('',0.498039215803146,0.498039215803146,0.498039215803146);
#344=PRE_DEFINED_MARKER('');
#345=COLOUR_RGB('',0.498039215803146,0.498039215803146,0.498039215803146);
#346=PRE_DEFINED_MARKER('');
#347=COLOUR_RGB('',0.498039215803146,0.498039215803146,0.498039215803146);
#348=DRAUGHTING_PRE_DEFINED_CURVE_FONT('continuous');
#349=COLOUR_RGB('',0.498039215803146,0.498039215803146,0.498039215803146);
#350=CARTESIAN_POINT('',(-5.5514981172909E-016,4.53329194313172,-0.396999999999998));
#351=VECTOR('',#473,1.0);
#352=DRAUGHTING_PRE_DEFINED_CURVE_FONT('continuous');
#353=COLOUR_RGB('',0.498039215803146,0.498039215803146,0.498039215803146);
#354=AXIS2_PLACEMENT_3D('',#474,#475,#476);
#355=DRAUGHTING_PRE_DEFINED_CURVE_FONT('continuous');
#356=COLOUR_RGB('',0.498039215803146,0.498039215803146,0.498039215803146);
#357=AXIS2_PLACEMENT_3D('',#477,#478,#479);
#358=SURFACE_SIDE_STYLE('',(#480));
#359=EDGE_LOOP('',(#481,#482));
#360=AXIS2_PLACEMENT_3D('',#483,#484,#485);
#361=DRAUGHTING_PRE_DEFINED_CURVE_FONT('continuous');
#362=COLOUR_RGB('',0.498039215803146,0.498039215803146,0.498039215803146);
#363=AXIS2_PLACEMENT_3D('',#486,#487,#488);
#364=DRAUGHTING_PRE_DEFINED_CURVE_FONT('continuous');
#365=COLOUR_RGB('',0.498039215803146,0.498039215803146,0.498039215803146);
#366=AXIS2_PLACEMENT_3D('',#489,#490,#491);
#367=SURFACE_SIDE_STYLE('',(#492));
#368=EDGE_LOOP('',(#493,#494,#495,#496));
#369=AXIS2_PLACEMENT_3D('',#497,#498,#499);
#370=DRAUGHTING_PRE_DEFINED_CURVE_FONT('continuous');
#371=COLOUR_RGB('',0.498039215803146,0.498039215803146,0.498039215803146);
#372=AXIS2_PLACEMENT_3D('',#500,#501,#502);
#373=DRAUGHTING_PRE_DEFINED_CURVE_FONT('continuous');
#374=COLOUR_RGB('',0.498039215803146,0.498039215803146,0.498039215803146);
#375=AXIS2_PLACEMENT_3D('',#503,#504,#505);
#376=SURFACE_SIDE_STYLE('',(#506));
#377=EDGE_LOOP('',(#507,#508,#509,#510));
#378=AXIS2_PLACEMENT_3D('',#511,#512,#513);
#379=PRE_DEFINED_MARKER('');
#380=COLOUR_RGB('',0.498039215803146,0.498039215803146,0.498039215803146);
#381=DRAUGHTING_PRE_DEFINED_CURVE_FONT('continuous');
#382=COLOUR_RGB('',0.498039215803146,0.498039215803146,0.498039215803146);
#383=AXIS2_PLACEMENT_3D('',#514,#515,#516);
#384=DRAUGHTING_PRE_DEFINED_CURVE_FONT('continuous');
#385=COLOUR_RGB('',0.498039215803146,0.498039215803146,0.498039215803146);
#386=CARTESIAN_POINT('',(-5.83218776007907E-016,4.7625,-24.247));
#387=VECTOR('',#517,1.0);
#388=DRAUGHTING_PRE_DEFINED_CURVE_FONT('continuous');
#389=COLOUR_RGB('',0.498039215803146,0.498039215803146,0.498039215803146);
#390=AXIS2_PLACEMENT_3D('',#518,#519,#520);
#391=DRAUGHTING_PRE_DEFINED_CURVE_FONT('continuous');
#392=COLOUR_RGB('',0.800000011920929,0.800000011920929,0.800000011920929);
#393=CARTESIAN_POINT('',(5.75442525661135E-016,-4.699,-66.4502100005966));
#394=VECTOR('',#521,1.0);
#395=SURFACE_SIDE_STYLE('',(#522));
#396=EDGE_LOOP('',(#523,#524,#525,#526));
#397=AXIS2_PLACEMENT_3D('',#527,#528,#529);
#398=PRE_DEFINED_MARKER('');
#399=COLOUR_RGB('',0.498039215803146,0.498039215803146,0.498039215803146);
#400=DRAUGHTING_PRE_DEFINED_CURVE_FONT('continuous');
#401=COLOUR_RGB('',0.800000011920929,0.800000011920929,0.800000011920929);
#402=AXIS2_PLACEMENT_3D('',#530,#531,#532);
#403=SURFACE_SIDE_STYLE('',(#533));
#405=CARTESIAN_POINT('',(0.0,0.0,-57.15));
#406=DIRECTION('',(0.0,-0.0,1.0));
#407=DIRECTION('',(0.0,1.0,0.0));
#408=DIRECTION('',(0.0,0.0,-1.0));
#409=CARTESIAN_POINT('',(0.0,0.0,-76.2));
#410=DIRECTION('',(0.0,0.0,-1.0));
#411=DIRECTION('',(0.0,1.0,0.0));
#412=DIRECTION('',(1.06054021204601E-016,-0.866025403784438,-0.500000000000002));
#413=DIRECTION('',(1.06054021204601E-016,-0.866025403784438,0.500000000000002));
#414=SURFACE_STYLE_FILL_AREA(#534);
#415=ORIENTED_EDGE('',*,*,#142,.F.);
#416=ORIENTED_EDGE('',*,*,#128,.T.);
#417=ORIENTED_EDGE('',*,*,#86,.F.);
#418=ORIENTED_EDGE('',*,*,#144,.F.);
#419=CARTESIAN_POINT('',(0.0,0.0,-24.247));
#420=DIRECTION('',(-0.0,-0.0,1.0));
#421=DIRECTION('',(0.0,1.0,0.0));
#422=SURFACE_STYLE_FILL_AREA(#535);
#423=ORIENTED_EDGE('',*,*,#126,.T.);
#424=ORIENTED_EDGE('',*,*,#72,.T.);
#425=CARTESIAN_POINT('',(0.0,1.9601523,-76.2));
#426=DIRECTION('',(0.0,0.0,-1.0));
#427=DIRECTION('',(0.0,1.0,0.0));
#428=DIRECTION('',(-0.0,-0.0,1.0));
#429=CARTESIAN_POINT('',(0.0,0.0,-75.7504200011933));
#430=DIRECTION('',(0.0,0.0,-1.0));
#431=DIRECTION('',(0.0,1.0,0.0));
#432=SURFACE_STYLE_FILL_AREA(#536);
#433=ORIENTED_EDGE('',*,*,#118,.F.);
#434=ORIENTED_EDGE('',*,*,#140,.T.);
#435=ORIENTED_EDGE('',*,*,#100,.F.);
#436=ORIENTED_EDGE('',*,*,#128,.F.);
#437=CARTESIAN_POINT('',(0.0,0.0,-0.396999999999998));
#438=DIRECTION('',(0.0,-0.0,-1.0));
#439=DIRECTION('',(0.0,1.0,0.0));
#440=DIRECTION('',(-6.12303176911191E-017,0.500000000000002,0.866025403784438));
#441=SURFACE_STYLE_FILL_AREA(#537);
#442=ORIENTED_EDGE('',*,*,#70,.F.);
#443=ORIENTED_EDGE('',*,*,#68,.F.);
#444=ORIENTED_EDGE('',*,*,#146,.F.);
#445=ORIENTED_EDGE('',*,*,#152,.F.);
#446=CARTESIAN_POINT('',(0.0,0.0,-66.4502100005966));
#447=DIRECTION('',(-0.0,-0.0,1.0));
#448=DIRECTION('',(0.0,1.0,0.0));
#449=SURFACE_STYLE_FILL_AREA(#538);
#450=ORIENTED_EDGE('',*,*,#132,.T.);
#451=ORIENTED_EDGE('',*,*,#68,.T.);
#452=ORIENTED_EDGE('',*,*,#120,.T.);
#453=ORIENTED_EDGE('',*,*,#144,.T.);
#454=CARTESIAN_POINT('',(0.0,0.0,-57.15));
#455=DIRECTION('',(0.0,0.0,-1.0));
#456=DIRECTION('',(0.0,-1.0,0.0));
#457=SURFACE_STYLE_FILL_AREA(#539);
#458=ORIENTED_EDGE('',*,*,#70,.T.);
#459=ORIENTED_EDGE('',*,*,#92,.F.);
#460=ORIENTED_EDGE('',*,*,#146,.T.);
#461=ORIENTED_EDGE('',*,*,#132,.F.);
#462=CARTESIAN_POINT('',(0.0,0.0,-66.4502100005966));
#463=DIRECTION('',(-0.0,-0.0,1.0));
#464=DIRECTION('',(0.0,1.0,0.0));
#465=SURFACE_STYLE_FILL_AREA(#540);
#466=ORIENTED_EDGE('',*,*,#74,.T.);
#467=ORIENTED_EDGE('',*,*,#72,.F.);
#468=ORIENTED_EDGE('',*,*,#78,.T.);
#469=ORIENTED_EDGE('',*,*,#92,.T.);
#470=CARTESIAN_POINT('',(0.0,0.0,-75.9752100005966));
#471=DIRECTION('',(-0.0,-0.0,1.0));
#472=DIRECTION('',(0.0,1.0,0.0));
#473=DIRECTION('',(-6.12303176911191E-017,0.500000000000002,-0.866025403784438));
#474=CARTESIAN_POINT('',(0.0,0.0,-57.15));
#475=DIRECTION('',(0.0,0.0,-1.0));
#476=DIRECTION('',(0.0,-1.0,0.0));
#477=CARTESIAN_POINT('',(0.0,0.0,-0.793999999999997));
#478=DIRECTION('',(0.0,0.0,-1.0));
#479=DIRECTION('',(0.0,1.0,0.0));
#480=SURFACE_STYLE_FILL_AREA(#541);
#481=ORIENTED_EDGE('',*,*,#140,.F.);
#482=ORIENTED_EDGE('',*,*,#134,.F.);
#483=CARTESIAN_POINT('',(0.0,2.15204194313172,0.0));
#484=DIRECTION('',(-0.0,0.0,1.0));
#485=DIRECTION('',(0.0,-1.0,0.0));
#486=CARTESIAN_POINT('',(0.0,0.0,-76.2));
#487=DIRECTION('',(0.0,0.0,-1.0));
#488=DIRECTION('',(0.0,1.0,0.0));
#489=CARTESIAN_POINT('',(0.0,0.0,-0.793999999999997));
#490=DIRECTION('',(0.0,0.0,-1.0));
#491=DIRECTION('',(0.0,1.0,0.0));
#492=SURFACE_STYLE_FILL_AREA(#542);
#493=ORIENTED_EDGE('',*,*,#142,.T.);
#494=ORIENTED_EDGE('',*,*,#120,.F.);
#495=ORIENTED_EDGE('',*,*,#86,.T.);
#496=ORIENTED_EDGE('',*,*,#122,.T.);
#497=CARTESIAN_POINT('',(0.0,0.0,-24.247));
#498=DIRECTION('',(-0.0,-0.0,1.0));
#499=DIRECTION('',(0.0,1.0,0.0));
#500=CARTESIAN_POINT('',(0.0,0.0,-57.15));
#501=DIRECTION('',(0.0,-0.0,1.0));
#502=DIRECTION('',(0.0,1.0,0.0));
#503=CARTESIAN_POINT('',(0.0,0.0,0.0));
#504=DIRECTION('',(0.0,0.0,-1.0));
#505=DIRECTION('',(0.0,1.0,0.0));
#506=SURFACE_STYLE_FILL_AREA(#543);
#507=ORIENTED_EDGE('',*,*,#74,.F.);
#508=ORIENTED_EDGE('',*,*,#152,.T.);
#509=ORIENTED_EDGE('',*,*,#78,.F.);
#510=ORIENTED_EDGE('',*,*,#126,.F.);
#511=CARTESIAN_POINT('',(0.0,0.0,-75.9752100005966));
#512=DIRECTION('',(-0.0,-0.0,1.0));
#513=DIRECTION('',(0.0,1.0,0.0));
#514=CARTESIAN_POINT('',(0.0,0.0,0.0));
#515=DIRECTION('',(0.0,0.0,-1.0));
#516=DIRECTION('',(0.0,1.0,0.0));
#517=DIRECTION('',(0.0,0.0,-1.0));
#518=CARTESIAN_POINT('',(0.0,0.0,-57.15));
#519=DIRECTION('',(0.0,0.0,-1.0));
#520=DIRECTION('',(0.0,-1.0,0.0));
#521=DIRECTION('',(-0.0,-0.0,1.0));
#522=SURFACE_STYLE_FILL_AREA(#544);
#523=ORIENTED_EDGE('',*,*,#118,.T.);
#524=ORIENTED_EDGE('',*,*,#122,.F.);
#525=ORIENTED_EDGE('',*,*,#100,.T.);
#526=ORIENTED_EDGE('',*,*,#134,.T.);
#527=CARTESIAN_POINT('',(0.0,0.0,-0.396999999999998));
#528=DIRECTION('',(0.0,-0.0,-1.0));
#529=DIRECTION('',(0.0,1.0,0.0));
#530=CARTESIAN_POINT('',(0.0,0.0,-75.7504200011933));
#531=DIRECTION('',(0.0,0.0,-1.0));
#532=DIRECTION('',(0.0,1.0,0.0));
#533=SURFACE_STYLE_FILL_AREA(#545);
#534=FILL_AREA_STYLE('',(#546));
#535=FILL_AREA_STYLE('',(#547));
#536=FILL_AREA_STYLE('',(#548));
#537=FILL_AREA_STYLE('',(#549));
#538=FILL_AREA_STYLE('',(#550));
#539=FILL_AREA_STYLE('',(#551));
#540=FILL_AREA_STYLE('',(#552));
#541=FILL_AREA_STYLE('',(#553));
#542=FILL_AREA_STYLE('',(#554));
#543=FILL_AREA_STYLE('',(#555));
#544=FILL_AREA_STYLE('',(#556));
#545=FILL_AREA_STYLE('',(#557));
#546=FILL_AREA_STYLE_COLOUR('',#558);
#547=FILL_AREA_STYLE_COLOUR('',#559);
#548=FILL_AREA_STYLE_COLOUR('',#560);
#549=FILL_AREA_STYLE_COLOUR('',#561);
#550=FILL_AREA_STYLE_COLOUR('',#562);
#551=FILL_AREA_STYLE_COLOUR('',#563);
#552=FILL_AREA_STYLE_COLOUR('',#564);
#553=FILL_AREA_STYLE_COLOUR('',#565);
#554=FILL_AREA_STYLE_COLOUR('',#566);
#555=FILL_AREA_STYLE_COLOUR('',#567);
#556=FILL_AREA_STYLE_COLOUR('',#568);
#557=FILL_AREA_STYLE_COLOUR('',#569);
#558=COLOUR_RGB('',0.498039215803146,0.498039215803146,0.498039215803146);
#559=COLOUR_RGB('',0.498039215803146,0.498039215803146,0.498039215803146);
#560=COLOUR_RGB('',0.498039215803146,0.498039215803146,0.498039215803146);
#561=COLOUR_RGB('',0.800000011920929,0.800000011920929,0.800000011920929);
#562=COLOUR_RGB('',0.498039215803146,0.498039215803146,0.498039215803146);
#563=COLOUR_RGB('',0.800000011920929,0.800000011920929,0.800000011920929);
#564=COLOUR_RGB('',0.800000011920929,0.800000011920929,0.800000011920929);
#565=COLOUR_RGB('',0.498039215803146,0.498039215803146,0.498039215803146);
#566=COLOUR_RGB('',0.498039215803146,0.498039215803146,0.498039215803146);
#567=COLOUR_RGB('',0.800000011920929,0.800000011920929,0.800000011920929);
#568=COLOUR_RGB('',0.498039215803146,0.498039215803146,0.498039215803146);
#569=COLOUR_RGB('',0.498039215803146,0.498039215803146,0.498039215803146);
#570=AXIS2_PLACEMENT_3D('PCS',#571,#572,#573);
#571=CARTESIAN_POINT('',(0.0,0.0,0.0));
#572=DIRECTION('',(0.0,0.0,1.0));
#573=DIRECTION('',(1.0,0.0,0.0));
#574=AXIS2_PLACEMENT_3D('CIP',#575,#576,#577);
#575=CARTESIAN_POINT('',(0.0,0.0,-76.2));
#576=DIRECTION('',(0.0,0.0,1.0));
#577=DIRECTION('',(1.0,0.0,0.0));
#578=AXIS2_PLACEMENT_3D('CRP',#579,#580,#581);
#579=CARTESIAN_POINT('',(-4.699,0.0,-76.2));
#580=DIRECTION('',(0.0,0.0,1.0));
#581=DIRECTION('',(1.0,0.0,0.0));
#582=AXIS2_PLACEMENT_3D('MCS',#583,#584,#585);
#583=CARTESIAN_POINT('',(0.0,0.0,-47.7));
#584=DIRECTION('',(0.0,0.0,1.0));
#585=DIRECTION('',(1.0,0.0,0.0));
#586=CONSTRUCTIVE_GEOMETRY_REPRESENTATION_RELATIONSHIP('coordinate systems',$,#58,#587);
#587=CONSTRUCTIVE_GEOMETRY_REPRESENTATION('coordinate systems',(#570,#574,#578,#582),#6);
ENDSEC;
END-ISO-10303-21;
