ISO-10303-21;
HEADER;
FILE_DESCRIPTION(('no description'),'unknown implementation level');
FILE_NAME('solidpdI38bTtF9R52hCEm_eb8X9KFgE_1.STP','  ',('CIMSOURCE GmbH'),('CADClick - KiM GmbH - www.kimweb.de'),'unknown preprocess','ACIS','unknown authorization');
FILE_SCHEMA(('automotive_design'));
ENDSEC;
DATA;
#1=MECHANICAL_DESIGN_GEOMETRIC_PRESENTATION_REPRESENTATION(' ',(#10,#11,#12,#13,#14,#15,#16,#17,#18,#19,#20,#21,#22,#23,#24,#25,#26,#27,#28,#29,#30,#31,#32,#33,#34,#35,#36,#37,#38,#39,#40,#41,#42,#43,#44,#45,#46,#47,#48,#49,#50,#51,#52,#53),#6);
#2=PRODUCT_DEFINITION_CONTEXT('',#54,'design');
#3=APPLICATION_PROTOCOL_DEFINITION('INTERNATIONAL STANDARD','automotive_design',1994,#54);
#4=PRODUCT_CATEGORY_RELATIONSHIP('NONE','NONE',#55,#56);
#5=SHAPE_DEFINITION_REPRESENTATION(#57,#58);
#6= (GEOMETRIC_REPRESENTATION_CONTEXT(3)GLOBAL_UNCERTAINTY_ASSIGNED_CONTEXT((#61))GLOBAL_UNIT_ASSIGNED_CONTEXT((#63,#64,#65))REPRESENTATION_CONTEXT('NONE','WORKSPACE'));
#10=STYLED_ITEM('',(#67),#68);
#11=STYLED_ITEM('',(#69),#70);
#12=STYLED_ITEM('',(#71),#72);
#13=STYLED_ITEM('',(#73),#74);
#14=STYLED_ITEM('',(#75),#76);
#15=STYLED_ITEM('',(#77),#78);
#16=STYLED_ITEM('',(#79),#80);
#17=STYLED_ITEM('',(#81),#82);
#18=STYLED_ITEM('',(#83),#84);
#19=STYLED_ITEM('',(#85),#86);
#20=STYLED_ITEM('',(#87),#88);
#21=STYLED_ITEM('',(#89),#90);
#22=STYLED_ITEM('',(#91),#92);
#23=STYLED_ITEM('',(#93),#94);
#24=STYLED_ITEM('',(#95),#96);
#25=STYLED_ITEM('',(#97),#98);
#26=STYLED_ITEM('',(#99),#100);
#27=STYLED_ITEM('',(#101),#102);
#28=STYLED_ITEM('',(#103),#104);
#29=STYLED_ITEM('',(#105),#106);
#30=STYLED_ITEM('',(#107),#108);
#31=STYLED_ITEM('',(#109),#110);
#32=STYLED_ITEM('',(#111),#112);
#33=STYLED_ITEM('',(#113),#114);
#34=STYLED_ITEM('',(#115),#116);
#35=STYLED_ITEM('',(#117),#118);
#36=STYLED_ITEM('',(#119),#120);
#37=STYLED_ITEM('',(#121),#122);
#38=STYLED_ITEM('',(#123),#124);
#39=STYLED_ITEM('',(#125),#126);
#40=STYLED_ITEM('',(#127),#128);
#41=STYLED_ITEM('',(#129),#130);
#42=STYLED_ITEM('',(#131),#132);
#43=STYLED_ITEM('',(#133),#134);
#44=STYLED_ITEM('',(#135),#136);
#45=STYLED_ITEM('',(#137),#138);
#46=STYLED_ITEM('',(#139),#140);
#47=STYLED_ITEM('',(#141),#142);
#48=STYLED_ITEM('',(#143),#144);
#49=STYLED_ITEM('',(#145),#146);
#50=STYLED_ITEM('',(#147),#148);
#51=STYLED_ITEM('',(#149),#150);
#52=STYLED_ITEM('',(#151),#152);
#53=STYLED_ITEM('',(#153),#154);
#54=APPLICATION_CONTEXT(' ');
#55=PRODUCT_CATEGORY('part','NONE');
#56=PRODUCT_RELATED_PRODUCT_CATEGORY('detail',' ',(#155));
#57=PRODUCT_DEFINITION_SHAPE('NONE','NONE',#156);
#58=ADVANCED_BREP_SHAPE_REPRESENTATION('1',(#80,#157),#6);
#61=UNCERTAINTY_MEASURE_WITH_UNIT(LENGTH_MEASURE(1.0E-006),#63,'','');
#63= (CONVERSION_BASED_UNIT('MILLIMETRE',#160)LENGTH_UNIT()NAMED_UNIT(#163));
#64= (NAMED_UNIT(#165)PLANE_ANGLE_UNIT()SI_UNIT($,.RADIAN.));
#65= (NAMED_UNIT(#165)SOLID_ANGLE_UNIT()SI_UNIT($,.STERADIAN.));
#67=PRESENTATION_STYLE_ASSIGNMENT((#171));
#68=VERTEX_POINT('',#172);
#69=PRESENTATION_STYLE_ASSIGNMENT((#173));
#70=EDGE_CURVE('',#112,#82,#174,.T.);
#71=PRESENTATION_STYLE_ASSIGNMENT((#175));
#72=VERTEX_POINT('',#176);
#73=PRESENTATION_STYLE_ASSIGNMENT((#177));
#74=EDGE_CURVE('',#82,#78,#178,.T.);
#75=PRESENTATION_STYLE_ASSIGNMENT((#179));
#76=VERTEX_POINT('',#180);
#77=PRESENTATION_STYLE_ASSIGNMENT((#181));
#78=VERTEX_POINT('',#182);
#79=PRESENTATION_STYLE_ASSIGNMENT((#183));
#80=MANIFOLD_SOLID_BREP('1',#184);
#81=PRESENTATION_STYLE_ASSIGNMENT((#185));
#82=VERTEX_POINT('',#186);
#83=PRESENTATION_STYLE_ASSIGNMENT((#187));
#84=ADVANCED_FACE('',(#188),#189,.T.);
#85=PRESENTATION_STYLE_ASSIGNMENT((#190));
#86=ADVANCED_FACE('',(#191),#192,.T.);
#87=PRESENTATION_STYLE_ASSIGNMENT((#193));
#88=ADVANCED_FACE('',(#194),#195,.T.);
#89=PRESENTATION_STYLE_ASSIGNMENT((#196));
#90=EDGE_CURVE('',#118,#124,#197,.T.);
#91=PRESENTATION_STYLE_ASSIGNMENT((#198));
#92=EDGE_CURVE('',#106,#122,#199,.T.);
#93=PRESENTATION_STYLE_ASSIGNMENT((#200));
#94=ADVANCED_FACE('',(#201),#202,.T.);
#95=PRESENTATION_STYLE_ASSIGNMENT((#203));
#96=EDGE_CURVE('',#144,#72,#204,.T.);
#97=PRESENTATION_STYLE_ASSIGNMENT((#205));
#98=EDGE_CURVE('',#78,#136,#206,.T.);
#99=PRESENTATION_STYLE_ASSIGNMENT((#207));
#100=ADVANCED_FACE('',(#208),#209,.T.);
#101=PRESENTATION_STYLE_ASSIGNMENT((#210));
#102=ADVANCED_FACE('',(#211,#212),#213,.T.);
#103=PRESENTATION_STYLE_ASSIGNMENT((#214));
#104=EDGE_CURVE('',#68,#118,#215,.T.);
#105=PRESENTATION_STYLE_ASSIGNMENT((#216));
#106=VERTEX_POINT('',#217);
#107=PRESENTATION_STYLE_ASSIGNMENT((#218));
#108=EDGE_CURVE('',#112,#72,#219,.T.);
#109=PRESENTATION_STYLE_ASSIGNMENT((#220));
#110=EDGE_CURVE('',#122,#118,#221,.T.);
#111=PRESENTATION_STYLE_ASSIGNMENT((#222));
#112=VERTEX_POINT('',#223);
#113=PRESENTATION_STYLE_ASSIGNMENT((#224));
#114=ADVANCED_FACE('',(#225),#226,.T.);
#115=PRESENTATION_STYLE_ASSIGNMENT((#227));
#116=EDGE_CURVE('',#72,#144,#228,.T.);
#117=PRESENTATION_STYLE_ASSIGNMENT((#229));
#118=VERTEX_POINT('',#230);
#119=PRESENTATION_STYLE_ASSIGNMENT((#231));
#120=EDGE_CURVE('',#122,#106,#232,.T.);
#121=PRESENTATION_STYLE_ASSIGNMENT((#233));
#122=VERTEX_POINT('',#234);
#123=PRESENTATION_STYLE_ASSIGNMENT((#235));
#124=VERTEX_POINT('',#236);
#125=PRESENTATION_STYLE_ASSIGNMENT((#237));
#126=EDGE_CURVE('',#118,#68,#238,.T.);
#127=PRESENTATION_STYLE_ASSIGNMENT((#239));
#128=ADVANCED_FACE('',(#240),#241,.T.);
#129=PRESENTATION_STYLE_ASSIGNMENT((#242));
#130=ADVANCED_FACE('',(#243),#244,.T.);
#131=PRESENTATION_STYLE_ASSIGNMENT((#245));
#132=EDGE_CURVE('',#76,#68,#246,.T.);
#133=PRESENTATION_STYLE_ASSIGNMENT((#247));
#134=EDGE_CURVE('',#68,#106,#248,.T.);
#135=PRESENTATION_STYLE_ASSIGNMENT((#249));
#136=VERTEX_POINT('',#250);
#137=PRESENTATION_STYLE_ASSIGNMENT((#251));
#138=ADVANCED_FACE('',(#252),#253,.T.);
#139=PRESENTATION_STYLE_ASSIGNMENT((#254));
#140=EDGE_CURVE('',#124,#76,#255,.T.);
#141=PRESENTATION_STYLE_ASSIGNMENT((#256));
#142=EDGE_CURVE('',#144,#82,#257,.T.);
#143=PRESENTATION_STYLE_ASSIGNMENT((#258));
#144=VERTEX_POINT('',#259);
#145=PRESENTATION_STYLE_ASSIGNMENT((#260));
#146=EDGE_CURVE('',#136,#112,#261,.T.);
#147=PRESENTATION_STYLE_ASSIGNMENT((#262));
#148=EDGE_CURVE('',#82,#112,#263,.T.);
#149=PRESENTATION_STYLE_ASSIGNMENT((#264));
#150=ADVANCED_FACE('',(#265),#266,.T.);
#151=PRESENTATION_STYLE_ASSIGNMENT((#267));
#152=EDGE_CURVE('',#76,#124,#268,.T.);
#153=PRESENTATION_STYLE_ASSIGNMENT((#269));
#154=EDGE_CURVE('',#136,#78,#270,.T.);
#155=PRODUCT('1','1','PART-1-DESC',(#271));
#156=PRODUCT_DEFINITION('NONE','NONE',#272,#2);
#157=AXIS2_PLACEMENT_3D('',#273,#274,#275);
#160=LENGTH_MEASURE_WITH_UNIT(LENGTH_MEASURE(1.0),#276);
#163=DIMENSIONAL_EXPONENTS(1.0,0.0,0.0,0.0,0.0,0.0,0.0);
#165=DIMENSIONAL_EXPONENTS(0.0,0.0,0.0,0.0,0.0,0.0,0.0);
#171=POINT_STYLE(' ',#277,POSITIVE_LENGTH_MEASURE(1.0E-006),#278);
#172=CARTESIAN_POINT('',(9.6425504299974E-016,-7.874,-100.700840002387));
#173=CURVE_STYLE('',#279,POSITIVE_LENGTH_MEASURE(1.0E-006),#280);
#174=CIRCLE('',#281,7.9375);
#175=POINT_STYLE(' ',#282,POSITIVE_LENGTH_MEASURE(1.0E-006),#283);
#176=CARTESIAN_POINT('',(-9.72031293346512E-016,7.9375,-71.1));
#177=CURVE_STYLE('',#284,POSITIVE_LENGTH_MEASURE(1.0E-006),#285);
#178=LINE('',#286,#287);
#179=POINT_STYLE(' ',#288,POSITIVE_LENGTH_MEASURE(1.0E-006),#289);
#180=CARTESIAN_POINT('',(7.73535976093288E-016,-6.3166092,-101.6));
#181=POINT_STYLE(' ',#290,POSITIVE_LENGTH_MEASURE(1.0E-006),#291);
#182=CARTESIAN_POINT('',(9.15893364788876E-016,-7.47908388626344,7.105427357601E-015));
#183=SURFACE_STYLE_USAGE(.BOTH.,#292);
#184=CLOSED_SHELL('',(#114,#128,#138,#100,#88,#84,#102,#94,#130,#86,#150));
#185=POINT_STYLE(' ',#293,POSITIVE_LENGTH_MEASURE(1.0E-006),#294);
#186=CARTESIAN_POINT('',(9.72031293346512E-016,-7.9375,-0.79399999999999));
#187=SURFACE_STYLE_USAGE(.BOTH.,#295);
#188=FACE_OUTER_BOUND('',#296,.T.);
#189=CONICAL_SURFACE('',#297,7.0953046,1.0471975511966);
#190=SURFACE_STYLE_USAGE(.BOTH.,#298);
#191=FACE_OUTER_BOUND('',#299,.T.);
#192=CYLINDRICAL_SURFACE('',#300,7.9375);
#193=SURFACE_STYLE_USAGE(.BOTH.,#301);
#194=FACE_OUTER_BOUND('',#302,.T.);
#195=CYLINDRICAL_SURFACE('',#303,7.874);
#196=CURVE_STYLE('',#304,POSITIVE_LENGTH_MEASURE(1.0E-006),#305);
#197=LINE('',#306,#307);
#198=CURVE_STYLE('',#308,POSITIVE_LENGTH_MEASURE(1.0E-006),#309);
#199=CIRCLE('',#310,7.874);
#200=SURFACE_STYLE_USAGE(.BOTH.,#311);
#201=FACE_OUTER_BOUND('',#312,.T.);
#202=PLANE('',#313);
#203=CURVE_STYLE('',#314,POSITIVE_LENGTH_MEASURE(1.0E-006),#315);
#204=CIRCLE('',#316,7.9375);
#205=CURVE_STYLE('',#317,POSITIVE_LENGTH_MEASURE(1.0E-006),#318);
#206=CIRCLE('',#319,7.47908388626344);
#207=SURFACE_STYLE_USAGE(.BOTH.,#320);
#208=FACE_OUTER_BOUND('',#321,.T.);
#209=CYLINDRICAL_SURFACE('',#322,7.874);
#210=SURFACE_STYLE_USAGE(.BOTH.,#323);
#211=FACE_BOUND('',#324,.T.);
#212=FACE_OUTER_BOUND('',#325,.T.);
#213=PLANE('',#326);
#214=CURVE_STYLE('',#327,POSITIVE_LENGTH_MEASURE(1.0E-006),#328);
#215=CIRCLE('',#329,7.874);
#216=POINT_STYLE(' ',#330,POSITIVE_LENGTH_MEASURE(1.0E-006),#331);
#217=CARTESIAN_POINT('',(9.6425504299974E-016,-7.874,-71.1));
#218=CURVE_STYLE('',#332,POSITIVE_LENGTH_MEASURE(1.0E-006),#333);
#219=LINE('',#334,#335);
#220=CURVE_STYLE('',#336,POSITIVE_LENGTH_MEASURE(1.0E-006),#337);
#221=LINE('',#338,#339);
#222=POINT_STYLE(' ',#340,POSITIVE_LENGTH_MEASURE(1.0E-006),#341);
#223=CARTESIAN_POINT('',(0.0,7.9375,-0.79399999999999));
#224=SURFACE_STYLE_USAGE(.BOTH.,#342);
#225=FACE_OUTER_BOUND('',#343,.T.);
#226=CYLINDRICAL_SURFACE('',#344,7.9375);
#227=CURVE_STYLE('',#345,POSITIVE_LENGTH_MEASURE(1.0E-006),#346);
#228=CIRCLE('',#347,7.9375);
#229=POINT_STYLE(' ',#348,POSITIVE_LENGTH_MEASURE(1.0E-006),#349);
#230=CARTESIAN_POINT('',(0.0,7.874,-100.700840002387));
#231=CURVE_STYLE('',#350,POSITIVE_LENGTH_MEASURE(1.0E-006),#351);
#232=CIRCLE('',#352,7.874);
#233=POINT_STYLE(' ',#353,POSITIVE_LENGTH_MEASURE(1.0E-006),#354);
#234=CARTESIAN_POINT('',(0.0,7.874,-71.1));
#235=POINT_STYLE(' ',#355,POSITIVE_LENGTH_MEASURE(1.0E-006),#356);
#236=CARTESIAN_POINT('',(0.0,6.3166092,-101.6));
#237=CURVE_STYLE('',#357,POSITIVE_LENGTH_MEASURE(1.0E-006),#358);
#238=CIRCLE('',#359,7.874);
#239=SURFACE_STYLE_USAGE(.BOTH.,#360);
#240=FACE_OUTER_BOUND('',#361,.T.);
#241=CONICAL_SURFACE('',#362,7.70829194313172,0.523598775598301);
#242=SURFACE_STYLE_USAGE(.BOTH.,#363);
#243=FACE_OUTER_BOUND('',#364,.T.);
#244=CONICAL_SURFACE('',#365,7.70829194313172,0.523598775598301);
#245=CURVE_STYLE('',#366,POSITIVE_LENGTH_MEASURE(1.0E-006),#367);
#246=LINE('',#368,#369);
#247=CURVE_STYLE('',#370,POSITIVE_LENGTH_MEASURE(1.0E-006),#371);
#248=LINE('',#372,#373);
#249=POINT_STYLE(' ',#374,POSITIVE_LENGTH_MEASURE(1.0E-006),#375);
#250=CARTESIAN_POINT('',(0.0,7.47908388626344,7.105427357601E-015));
#251=SURFACE_STYLE_USAGE(.BOTH.,#376);
#252=FACE_OUTER_BOUND('',#377,.T.);
#253=CONICAL_SURFACE('',#378,7.0953046,1.0471975511966);
#254=CURVE_STYLE('',#379,POSITIVE_LENGTH_MEASURE(1.0E-006),#380);
#255=CIRCLE('',#381,6.3166092);
#256=CURVE_STYLE('',#382,POSITIVE_LENGTH_MEASURE(1.0E-006),#383);
#257=LINE('',#384,#385);
#258=POINT_STYLE(' ',#386,POSITIVE_LENGTH_MEASURE(1.0E-006),#387);
#259=CARTESIAN_POINT('',(0.0,-7.9375,-71.1));
#260=CURVE_STYLE('',#388,POSITIVE_LENGTH_MEASURE(1.0E-006),#389);
#261=LINE('',#390,#391);
#262=CURVE_STYLE('',#392,POSITIVE_LENGTH_MEASURE(1.0E-006),#393);
#263=CIRCLE('',#394,7.9375);
#264=SURFACE_STYLE_USAGE(.BOTH.,#395);
#265=FACE_OUTER_BOUND('',#396,.T.);
#266=PLANE('',#397);
#267=CURVE_STYLE('',#398,POSITIVE_LENGTH_MEASURE(1.0E-006),#399);
#268=CIRCLE('',#400,6.3166092);
#269=CURVE_STYLE('',#401,POSITIVE_LENGTH_MEASURE(1.0E-006),#402);
#270=CIRCLE('',#403,7.47908388626344);
#271=PRODUCT_CONTEXT('',#54,'mechanical');
#272=PRODUCT_DEFINITION_FORMATION_WITH_SPECIFIED_SOURCE(' ','NONE',#155,.NOT_KNOWN.);
#273=CARTESIAN_POINT('',(0.0,0.0,0.0));
#274=DIRECTION('',(0.0,0.0,1.0));
#275=DIRECTION('',(1.0,0.0,0.0));
#276= (NAMED_UNIT(#163)LENGTH_UNIT()SI_UNIT(.MILLI.,.METRE.));
#277=PRE_DEFINED_MARKER('');
#278=COLOUR_RGB('',0.800000011920929,0.800000011920929,0.800000011920929);
#279=DRAUGHTING_PRE_DEFINED_CURVE_FONT('continuous');
#280=COLOUR_RGB('',0.498039215803146,0.498039215803146,0.498039215803146);
#281=AXIS2_PLACEMENT_3D('',#405,#406,#407);
#282=PRE_DEFINED_MARKER('');
#283=COLOUR_RGB('',0.498039215803146,0.498039215803146,0.498039215803146);
#284=DRAUGHTING_PRE_DEFINED_CURVE_FONT('continuous');
#285=COLOUR_RGB('',0.498039215803146,0.498039215803146,0.498039215803146);
#286=CARTESIAN_POINT('',(9.43962329067694E-016,-7.70829194313172,-0.396999999999991));
#287=VECTOR('',#408,1.0);
#288=PRE_DEFINED_MARKER('');
#289=COLOUR_RGB('',0.498039215803146,0.498039215803146,0.498039215803146);
#290=PRE_DEFINED_MARKER('');
#291=COLOUR_RGB('',0.498039215803146,0.498039215803146,0.498039215803146);
#292=SURFACE_SIDE_STYLE('',(#409));
#293=PRE_DEFINED_MARKER('');
#294=COLOUR_RGB('',0.498039215803146,0.498039215803146,0.498039215803146);
#295=SURFACE_SIDE_STYLE('',(#410));
#296=EDGE_LOOP('',(#411,#412,#413,#414));
#297=AXIS2_PLACEMENT_3D('',#415,#416,#417);
#298=SURFACE_SIDE_STYLE('',(#418));
#299=EDGE_LOOP('',(#419,#420,#421,#422));
#300=AXIS2_PLACEMENT_3D('',#423,#424,#425);
#301=SURFACE_SIDE_STYLE('',(#426));
#302=EDGE_LOOP('',(#427,#428,#429,#430));
#303=AXIS2_PLACEMENT_3D('',#431,#432,#433);
#304=DRAUGHTING_PRE_DEFINED_CURVE_FONT('continuous');
#305=COLOUR_RGB('',0.800000011920929,0.800000011920929,0.800000011920929);
#306=CARTESIAN_POINT('',(-8.68895509546514E-016,7.0953046,-101.150420001193));
#307=VECTOR('',#434,1.0);
#308=DRAUGHTING_PRE_DEFINED_CURVE_FONT('continuous');
#309=COLOUR_RGB('',0.498039215803146,0.498039215803146,0.498039215803146);
#310=AXIS2_PLACEMENT_3D('',#435,#436,#437);
#311=SURFACE_SIDE_STYLE('',(#438));
#312=EDGE_LOOP('',(#439,#440));
#313=AXIS2_PLACEMENT_3D('',#441,#442,#443);
#314=DRAUGHTING_PRE_DEFINED_CURVE_FONT('continuous');
#315=COLOUR_RGB('',0.498039215803146,0.498039215803146,0.498039215803146);
#316=AXIS2_PLACEMENT_3D('',#444,#445,#446);
#317=DRAUGHTING_PRE_DEFINED_CURVE_FONT('continuous');
#318=COLOUR_RGB('',0.498039215803146,0.498039215803146,0.498039215803146);
#319=AXIS2_PLACEMENT_3D('',#447,#448,#449);
#320=SURFACE_SIDE_STYLE('',(#450));
#321=EDGE_LOOP('',(#451,#452,#453,#454));
#322=AXIS2_PLACEMENT_3D('',#455,#456,#457);
#323=SURFACE_SIDE_STYLE('',(#458));
#324=EDGE_LOOP('',(#459,#460));
#325=EDGE_LOOP('',(#461,#462));
#326=AXIS2_PLACEMENT_3D('',#463,#464,#465);
#327=DRAUGHTING_PRE_DEFINED_CURVE_FONT('continuous');
#328=COLOUR_RGB('',0.800000011920929,0.800000011920929,0.800000011920929);
#329=AXIS2_PLACEMENT_3D('',#466,#467,#468);
#330=PRE_DEFINED_MARKER('');
#331=COLOUR_RGB('',0.498039215803146,0.498039215803146,0.498039215803146);
#332=DRAUGHTING_PRE_DEFINED_CURVE_FONT('continuous');
#333=COLOUR_RGB('',0.498039215803146,0.498039215803146,0.498039215803146);
#334=CARTESIAN_POINT('',(-9.72031293346512E-016,7.9375,-29.447));
#335=VECTOR('',#469,1.0);
#336=DRAUGHTING_PRE_DEFINED_CURVE_FONT('continuous');
#337=COLOUR_RGB('',0.800000011920929,0.800000011920929,0.800000011920929);
#338=CARTESIAN_POINT('',(-9.6425504299974E-016,7.874,-85.9004200011933));
#339=VECTOR('',#470,1.0);
#340=PRE_DEFINED_MARKER('');
#341=COLOUR_RGB('',0.498039215803146,0.498039215803146,0.498039215803146);
#342=SURFACE_SIDE_STYLE('',(#471));
#343=EDGE_LOOP('',(#472,#473,#474,#475));
#344=AXIS2_PLACEMENT_3D('',#476,#477,#478);
#345=DRAUGHTING_PRE_DEFINED_CURVE_FONT('continuous');
#346=COLOUR_RGB('',0.498039215803146,0.498039215803146,0.498039215803146);
#347=AXIS2_PLACEMENT_3D('',#479,#480,#481);
#348=PRE_DEFINED_MARKER('');
#349=COLOUR_RGB('',0.800000011920929,0.800000011920929,0.800000011920929);
#350=DRAUGHTING_PRE_DEFINED_CURVE_FONT('continuous');
#351=COLOUR_RGB('',0.498039215803146,0.498039215803146,0.498039215803146);
#352=AXIS2_PLACEMENT_3D('',#482,#483,#484);
#353=PRE_DEFINED_MARKER('');
#354=COLOUR_RGB('',0.498039215803146,0.498039215803146,0.498039215803146);
#355=PRE_DEFINED_MARKER('');
#356=COLOUR_RGB('',0.498039215803146,0.498039215803146,0.498039215803146);
#357=DRAUGHTING_PRE_DEFINED_CURVE_FONT('continuous');
#358=COLOUR_RGB('',0.800000011920929,0.800000011920929,0.800000011920929);
#359=AXIS2_PLACEMENT_3D('',#485,#486,#487);
#360=SURFACE_SIDE_STYLE('',(#488));
#361=EDGE_LOOP('',(#489,#490,#491,#492));
#362=AXIS2_PLACEMENT_3D('',#493,#494,#495);
#363=SURFACE_SIDE_STYLE('',(#496));
#364=EDGE_LOOP('',(#497,#498,#499,#500));
#365=AXIS2_PLACEMENT_3D('',#501,#502,#503);
#366=DRAUGHTING_PRE_DEFINED_CURVE_FONT('continuous');
#367=COLOUR_RGB('',0.800000011920929,0.800000011920929,0.800000011920929);
#368=CARTESIAN_POINT('',(8.68895509546514E-016,-7.0953046,-101.150420001193));
#369=VECTOR('',#504,1.0);
#370=DRAUGHTING_PRE_DEFINED_CURVE_FONT('continuous');
#371=COLOUR_RGB('',0.800000011920929,0.800000011920929,0.800000011920929);
#372=CARTESIAN_POINT('',(9.6425504299974E-016,-7.874,-85.9004200011933));
#373=VECTOR('',#505,1.0);
#374=PRE_DEFINED_MARKER('');
#375=COLOUR_RGB('',0.498039215803146,0.498039215803146,0.498039215803146);
#376=SURFACE_SIDE_STYLE('',(#506));
#377=EDGE_LOOP('',(#507,#508,#509,#510));
#378=AXIS2_PLACEMENT_3D('',#511,#512,#513);
#379=DRAUGHTING_PRE_DEFINED_CURVE_FONT('continuous');
#380=COLOUR_RGB('',0.498039215803146,0.498039215803146,0.498039215803146);
#381=AXIS2_PLACEMENT_3D('',#514,#515,#516);
#382=DRAUGHTING_PRE_DEFINED_CURVE_FONT('continuous');
#383=COLOUR_RGB('',0.498039215803146,0.498039215803146,0.498039215803146);
#384=CARTESIAN_POINT('',(9.72031293346512E-016,-7.9375,-29.447));
#385=VECTOR('',#517,1.0);
#386=PRE_DEFINED_MARKER('');
#387=COLOUR_RGB('',0.498039215803146,0.498039215803146,0.498039215803146);
#388=DRAUGHTING_PRE_DEFINED_CURVE_FONT('continuous');
#389=COLOUR_RGB('',0.498039215803146,0.498039215803146,0.498039215803146);
#390=CARTESIAN_POINT('',(-9.43962329067694E-016,7.70829194313172,-0.396999999999991));
#391=VECTOR('',#518,1.0);
#392=DRAUGHTING_PRE_DEFINED_CURVE_FONT('continuous');
#393=COLOUR_RGB('',0.498039215803146,0.498039215803146,0.498039215803146);
#394=AXIS2_PLACEMENT_3D('',#519,#520,#521);
#395=SURFACE_SIDE_STYLE('',(#522));
#396=EDGE_LOOP('',(#523,#524));
#397=AXIS2_PLACEMENT_3D('',#525,#526,#527);
#398=DRAUGHTING_PRE_DEFINED_CURVE_FONT('continuous');
#399=COLOUR_RGB('',0.498039215803146,0.498039215803146,0.498039215803146);
#400=AXIS2_PLACEMENT_3D('',#528,#529,#530);
#401=DRAUGHTING_PRE_DEFINED_CURVE_FONT('continuous');
#402=COLOUR_RGB('',0.498039215803146,0.498039215803146,0.498039215803146);
#403=AXIS2_PLACEMENT_3D('',#531,#532,#533);
#405=CARTESIAN_POINT('',(0.0,0.0,-0.79399999999999));
#406=DIRECTION('',(0.0,0.0,-1.0));
#407=DIRECTION('',(0.0,1.0,0.0));
#408=DIRECTION('',(-6.12303176911191E-017,0.500000000000002,0.866025403784438));
#409=SURFACE_STYLE_FILL_AREA(#534);
#410=SURFACE_STYLE_FILL_AREA(#535);
#411=ORIENTED_EDGE('',*,*,#90,.T.);
#412=ORIENTED_EDGE('',*,*,#152,.F.);
#413=ORIENTED_EDGE('',*,*,#132,.T.);
#414=ORIENTED_EDGE('',*,*,#104,.T.);
#415=CARTESIAN_POINT('',(0.0,0.0,-101.150420001193));
#416=DIRECTION('',(-0.0,-0.0,1.0));
#417=DIRECTION('',(0.0,1.0,0.0));
#418=SURFACE_STYLE_FILL_AREA(#536);
#419=ORIENTED_EDGE('',*,*,#108,.T.);
#420=ORIENTED_EDGE('',*,*,#96,.F.);
#421=ORIENTED_EDGE('',*,*,#142,.T.);
#422=ORIENTED_EDGE('',*,*,#148,.T.);
#423=CARTESIAN_POINT('',(0.0,0.0,-29.447));
#424=DIRECTION('',(-0.0,-0.0,1.0));
#425=DIRECTION('',(0.0,1.0,0.0));
#426=SURFACE_STYLE_FILL_AREA(#537);
#427=ORIENTED_EDGE('',*,*,#110,.T.);
#428=ORIENTED_EDGE('',*,*,#104,.F.);
#429=ORIENTED_EDGE('',*,*,#134,.T.);
#430=ORIENTED_EDGE('',*,*,#120,.F.);
#431=CARTESIAN_POINT('',(0.0,0.0,-85.9004200011933));
#432=DIRECTION('',(-0.0,-0.0,1.0));
#433=DIRECTION('',(0.0,1.0,0.0));
#434=DIRECTION('',(1.06054021204601E-016,-0.866025403784439,-0.499999999999999));
#435=CARTESIAN_POINT('',(0.0,0.0,-71.1));
#436=DIRECTION('',(0.0,-0.0,1.0));
#437=DIRECTION('',(0.0,1.0,0.0));
#438=SURFACE_STYLE_FILL_AREA(#538);
#439=ORIENTED_EDGE('',*,*,#154,.F.);
#440=ORIENTED_EDGE('',*,*,#98,.F.);
#441=CARTESIAN_POINT('',(0.0,3.73954194313172,7.105427357601E-015));
#442=DIRECTION('',(-0.0,0.0,1.0));
#443=DIRECTION('',(0.0,-1.0,0.0));
#444=CARTESIAN_POINT('',(0.0,0.0,-71.1));
#445=DIRECTION('',(0.0,0.0,-1.0));
#446=DIRECTION('',(0.0,-1.0,0.0));
#447=CARTESIAN_POINT('',(0.0,0.0,7.105427357601E-015));
#448=DIRECTION('',(0.0,0.0,-1.0));
#449=DIRECTION('',(0.0,1.0,0.0));
#450=SURFACE_STYLE_FILL_AREA(#539);
#451=ORIENTED_EDGE('',*,*,#110,.F.);
#452=ORIENTED_EDGE('',*,*,#92,.F.);
#453=ORIENTED_EDGE('',*,*,#134,.F.);
#454=ORIENTED_EDGE('',*,*,#126,.F.);
#455=CARTESIAN_POINT('',(0.0,0.0,-85.9004200011933));
#456=DIRECTION('',(-0.0,-0.0,1.0));
#457=DIRECTION('',(0.0,1.0,0.0));
#458=SURFACE_STYLE_FILL_AREA(#540);
#459=ORIENTED_EDGE('',*,*,#120,.T.);
#460=ORIENTED_EDGE('',*,*,#92,.T.);
#461=ORIENTED_EDGE('',*,*,#96,.T.);
#462=ORIENTED_EDGE('',*,*,#116,.T.);
#463=CARTESIAN_POINT('',(0.0,0.0,-71.1));
#464=DIRECTION('',(0.0,0.0,-1.0));
#465=DIRECTION('',(0.0,-1.0,0.0));
#466=CARTESIAN_POINT('',(0.0,0.0,-100.700840002387));
#467=DIRECTION('',(0.0,0.0,-1.0));
#468=DIRECTION('',(0.0,1.0,0.0));
#469=DIRECTION('',(0.0,0.0,-1.0));
#470=DIRECTION('',(0.0,0.0,-1.0));
#471=SURFACE_STYLE_FILL_AREA(#541);
#472=ORIENTED_EDGE('',*,*,#108,.F.);
#473=ORIENTED_EDGE('',*,*,#70,.T.);
#474=ORIENTED_EDGE('',*,*,#142,.F.);
#475=ORIENTED_EDGE('',*,*,#116,.F.);
#476=CARTESIAN_POINT('',(0.0,0.0,-29.447));
#477=DIRECTION('',(-0.0,-0.0,1.0));
#478=DIRECTION('',(0.0,1.0,0.0));
#479=CARTESIAN_POINT('',(0.0,0.0,-71.1));
#480=DIRECTION('',(0.0,0.0,-1.0));
#481=DIRECTION('',(0.0,-1.0,0.0));
#482=CARTESIAN_POINT('',(0.0,0.0,-71.1));
#483=DIRECTION('',(0.0,-0.0,1.0));
#484=DIRECTION('',(0.0,1.0,0.0));
#485=CARTESIAN_POINT('',(0.0,0.0,-100.700840002387));
#486=DIRECTION('',(0.0,0.0,-1.0));
#487=DIRECTION('',(0.0,1.0,0.0));
#488=SURFACE_STYLE_FILL_AREA(#542);
#489=ORIENTED_EDGE('',*,*,#146,.F.);
#490=ORIENTED_EDGE('',*,*,#154,.T.);
#491=ORIENTED_EDGE('',*,*,#74,.F.);
#492=ORIENTED_EDGE('',*,*,#70,.F.);
#493=CARTESIAN_POINT('',(0.0,0.0,-0.396999999999991));
#494=DIRECTION('',(0.0,-0.0,-1.0));
#495=DIRECTION('',(0.0,1.0,0.0));
#496=SURFACE_STYLE_FILL_AREA(#543);
#497=ORIENTED_EDGE('',*,*,#146,.T.);
#498=ORIENTED_EDGE('',*,*,#148,.F.);
#499=ORIENTED_EDGE('',*,*,#74,.T.);
#500=ORIENTED_EDGE('',*,*,#98,.T.);
#501=CARTESIAN_POINT('',(0.0,0.0,-0.396999999999991));
#502=DIRECTION('',(0.0,-0.0,-1.0));
#503=DIRECTION('',(0.0,1.0,0.0));
#504=DIRECTION('',(1.06054021204601E-016,-0.866025403784439,0.499999999999999));
#505=DIRECTION('',(-0.0,-0.0,1.0));
#506=SURFACE_STYLE_FILL_AREA(#544);
#507=ORIENTED_EDGE('',*,*,#90,.F.);
#508=ORIENTED_EDGE('',*,*,#126,.T.);
#509=ORIENTED_EDGE('',*,*,#132,.F.);
#510=ORIENTED_EDGE('',*,*,#140,.F.);
#511=CARTESIAN_POINT('',(0.0,0.0,-101.150420001193));
#512=DIRECTION('',(-0.0,-0.0,1.0));
#513=DIRECTION('',(0.0,1.0,0.0));
#514=CARTESIAN_POINT('',(0.0,0.0,-101.6));
#515=DIRECTION('',(0.0,0.0,-1.0));
#516=DIRECTION('',(0.0,1.0,0.0));
#517=DIRECTION('',(-0.0,-0.0,1.0));
#518=DIRECTION('',(-6.12303176911191E-017,0.500000000000002,-0.866025403784438));
#519=CARTESIAN_POINT('',(0.0,0.0,-0.79399999999999));
#520=DIRECTION('',(0.0,0.0,-1.0));
#521=DIRECTION('',(0.0,1.0,0.0));
#522=SURFACE_STYLE_FILL_AREA(#545);
#523=ORIENTED_EDGE('',*,*,#140,.T.);
#524=ORIENTED_EDGE('',*,*,#152,.T.);
#525=CARTESIAN_POINT('',(0.0,3.1583046,-101.6));
#526=DIRECTION('',(0.0,0.0,-1.0));
#527=DIRECTION('',(0.0,1.0,0.0));
#528=CARTESIAN_POINT('',(0.0,0.0,-101.6));
#529=DIRECTION('',(0.0,0.0,-1.0));
#530=DIRECTION('',(0.0,1.0,0.0));
#531=CARTESIAN_POINT('',(0.0,0.0,7.105427357601E-015));
#532=DIRECTION('',(0.0,0.0,-1.0));
#533=DIRECTION('',(0.0,1.0,0.0));
#534=FILL_AREA_STYLE('',(#546));
#535=FILL_AREA_STYLE('',(#547));
#536=FILL_AREA_STYLE('',(#548));
#537=FILL_AREA_STYLE('',(#549));
#538=FILL_AREA_STYLE('',(#550));
#539=FILL_AREA_STYLE('',(#551));
#540=FILL_AREA_STYLE('',(#552));
#541=FILL_AREA_STYLE('',(#553));
#542=FILL_AREA_STYLE('',(#554));
#543=FILL_AREA_STYLE('',(#555));
#544=FILL_AREA_STYLE('',(#556));
#545=FILL_AREA_STYLE('',(#557));
#546=FILL_AREA_STYLE_COLOUR('',#558);
#547=FILL_AREA_STYLE_COLOUR('',#559);
#548=FILL_AREA_STYLE_COLOUR('',#560);
#549=FILL_AREA_STYLE_COLOUR('',#561);
#550=FILL_AREA_STYLE_COLOUR('',#562);
#551=FILL_AREA_STYLE_COLOUR('',#563);
#552=FILL_AREA_STYLE_COLOUR('',#564);
#553=FILL_AREA_STYLE_COLOUR('',#565);
#554=FILL_AREA_STYLE_COLOUR('',#566);
#555=FILL_AREA_STYLE_COLOUR('',#567);
#556=FILL_AREA_STYLE_COLOUR('',#568);
#557=FILL_AREA_STYLE_COLOUR('',#569);
#558=COLOUR_RGB('',0.498039215803146,0.498039215803146,0.498039215803146);
#559=COLOUR_RGB('',0.800000011920929,0.800000011920929,0.800000011920929);
#560=COLOUR_RGB('',0.498039215803146,0.498039215803146,0.498039215803146);
#561=COLOUR_RGB('',0.800000011920929,0.800000011920929,0.800000011920929);
#562=COLOUR_RGB('',0.498039215803146,0.498039215803146,0.498039215803146);
#563=COLOUR_RGB('',0.800000011920929,0.800000011920929,0.800000011920929);
#564=COLOUR_RGB('',0.498039215803146,0.498039215803146,0.498039215803146);
#565=COLOUR_RGB('',0.498039215803146,0.498039215803146,0.498039215803146);
#566=COLOUR_RGB('',0.498039215803146,0.498039215803146,0.498039215803146);
#567=COLOUR_RGB('',0.498039215803146,0.498039215803146,0.498039215803146);
#568=COLOUR_RGB('',0.800000011920929,0.800000011920929,0.800000011920929);
#569=COLOUR_RGB('',0.498039215803146,0.498039215803146,0.498039215803146);
#570=AXIS2_PLACEMENT_3D('PCS',#571,#572,#573);
#571=CARTESIAN_POINT('',(0.0,0.0,0.0));
#572=DIRECTION('',(0.0,0.0,1.0));
#573=DIRECTION('',(1.0,0.0,0.0));
#574=AXIS2_PLACEMENT_3D('CIP',#575,#576,#577);
#575=CARTESIAN_POINT('',(0.0,0.0,-101.6));
#576=DIRECTION('',(0.0,0.0,1.0));
#577=DIRECTION('',(1.0,0.0,0.0));
#578=AXIS2_PLACEMENT_3D('CRP',#579,#580,#581);
#579=CARTESIAN_POINT('',(-7.874,0.0,-101.6));
#580=DIRECTION('',(0.0,0.0,1.0));
#581=DIRECTION('',(1.0,0.0,0.0));
#582=AXIS2_PLACEMENT_3D('MCS',#583,#584,#585);
#583=CARTESIAN_POINT('',(0.0,0.0,-58.1));
#584=DIRECTION('',(0.0,0.0,1.0));
#585=DIRECTION('',(1.0,0.0,0.0));
#586=CONSTRUCTIVE_GEOMETRY_REPRESENTATION_RELATIONSHIP('coordinate systems',$,#58,#587);
#587=CONSTRUCTIVE_GEOMETRY_REPRESENTATION('coordinate systems',(#570,#574,#578,#582),#6);
ENDSEC;
END-ISO-10303-21;
