ISO-10303-21;
HEADER;
FILE_DESCRIPTION(('no description'),'unknown implementation level');
FILE_NAME('solidYhgCWO5rcz5L4v8SPrR1HjKXTZo_1.STP','  ',('CIMSOURCE GmbH'),('CADClick - KiM GmbH - www.kimweb.de'),'unknown preprocess','ACIS','unknown authorization');
FILE_SCHEMA(('automotive_design'));
ENDSEC;
DATA;
#1=MECHANICAL_DESIGN_GEOMETRIC_PRESENTATION_REPRESENTATION(' ',(#10,#11,#12,#13,#14,#15,#16,#17,#18,#19,#20,#21,#22,#23,#24,#25,#26,#27,#28,#29,#30,#31,#32,#33,#34,#35,#36,#37,#38,#39,#40,#41,#42,#43,#44,#45,#46,#47,#48,#49,#50,#51,#52,#53),#6);
#2=PRODUCT_DEFINITION_CONTEXT('',#54,'design');
#3=APPLICATION_PROTOCOL_DEFINITION('INTERNATIONAL STANDARD','automotive_design',1994,#54);
#4=PRODUCT_CATEGORY_RELATIONSHIP('NONE','NONE',#55,#56);
#5=SHAPE_DEFINITION_REPRESENTATION(#57,#58);
#6= (GEOMETRIC_REPRESENTATION_CONTEXT(3)GLOBAL_UNCERTAINTY_ASSIGNED_CONTEXT((#61))GLOBAL_UNIT_ASSIGNED_CONTEXT((#63,#64,#65))REPRESENTATION_CONTEXT('NONE','WORKSPACE'));
#10=STYLED_ITEM('',(#67),#68);
#11=STYLED_ITEM('',(#69),#70);
#12=STYLED_ITEM('',(#71),#72);
#13=STYLED_ITEM('',(#73),#74);
#14=STYLED_ITEM('',(#75),#76);
#15=STYLED_ITEM('',(#77),#78);
#16=STYLED_ITEM('',(#79),#80);
#17=STYLED_ITEM('',(#81),#82);
#18=STYLED_ITEM('',(#83),#84);
#19=STYLED_ITEM('',(#85),#86);
#20=STYLED_ITEM('',(#87),#88);
#21=STYLED_ITEM('',(#89),#90);
#22=STYLED_ITEM('',(#91),#92);
#23=STYLED_ITEM('',(#93),#94);
#24=STYLED_ITEM('',(#95),#96);
#25=STYLED_ITEM('',(#97),#98);
#26=STYLED_ITEM('',(#99),#100);
#27=STYLED_ITEM('',(#101),#102);
#28=STYLED_ITEM('',(#103),#104);
#29=STYLED_ITEM('',(#105),#106);
#30=STYLED_ITEM('',(#107),#108);
#31=STYLED_ITEM('',(#109),#110);
#32=STYLED_ITEM('',(#111),#112);
#33=STYLED_ITEM('',(#113),#114);
#34=STYLED_ITEM('',(#115),#116);
#35=STYLED_ITEM('',(#117),#118);
#36=STYLED_ITEM('',(#119),#120);
#37=STYLED_ITEM('',(#121),#122);
#38=STYLED_ITEM('',(#123),#124);
#39=STYLED_ITEM('',(#125),#126);
#40=STYLED_ITEM('',(#127),#128);
#41=STYLED_ITEM('',(#129),#130);
#42=STYLED_ITEM('',(#131),#132);
#43=STYLED_ITEM('',(#133),#134);
#44=STYLED_ITEM('',(#135),#136);
#45=STYLED_ITEM('',(#137),#138);
#46=STYLED_ITEM('',(#139),#140);
#47=STYLED_ITEM('',(#141),#142);
#48=STYLED_ITEM('',(#143),#144);
#49=STYLED_ITEM('',(#145),#146);
#50=STYLED_ITEM('',(#147),#148);
#51=STYLED_ITEM('',(#149),#150);
#52=STYLED_ITEM('',(#151),#152);
#53=STYLED_ITEM('',(#153),#154);
#54=APPLICATION_CONTEXT(' ');
#55=PRODUCT_CATEGORY('part','NONE');
#56=PRODUCT_RELATED_PRODUCT_CATEGORY('detail',' ',(#155));
#57=PRODUCT_DEFINITION_SHAPE('NONE','NONE',#156);
#58=ADVANCED_BREP_SHAPE_REPRESENTATION('1',(#144,#157),#6);
#61=UNCERTAINTY_MEASURE_WITH_UNIT(LENGTH_MEASURE(1.0E-006),#63,'','');
#63= (CONVERSION_BASED_UNIT('MILLIMETRE',#160)LENGTH_UNIT()NAMED_UNIT(#163));
#64= (NAMED_UNIT(#165)PLANE_ANGLE_UNIT()SI_UNIT($,.RADIAN.));
#65= (NAMED_UNIT(#165)SOLID_ANGLE_UNIT()SI_UNIT($,.STERADIAN.));
#67=PRESENTATION_STYLE_ASSIGNMENT((#171));
#68=EDGE_CURVE('',#98,#134,#172,.T.);
#69=PRESENTATION_STYLE_ASSIGNMENT((#173));
#70=EDGE_CURVE('',#100,#92,#174,.T.);
#71=PRESENTATION_STYLE_ASSIGNMENT((#175));
#72=EDGE_CURVE('',#94,#106,#176,.T.);
#73=PRESENTATION_STYLE_ASSIGNMENT((#177));
#74=VERTEX_POINT('',#178);
#75=PRESENTATION_STYLE_ASSIGNMENT((#179));
#76=VERTEX_POINT('',#180);
#77=PRESENTATION_STYLE_ASSIGNMENT((#181));
#78=EDGE_CURVE('',#128,#94,#182,.T.);
#79=PRESENTATION_STYLE_ASSIGNMENT((#183));
#80=EDGE_CURVE('',#128,#138,#184,.T.);
#81=PRESENTATION_STYLE_ASSIGNMENT((#185));
#82=ADVANCED_FACE('',(#186),#187,.T.);
#83=PRESENTATION_STYLE_ASSIGNMENT((#188));
#84=EDGE_CURVE('',#74,#100,#189,.T.);
#85=PRESENTATION_STYLE_ASSIGNMENT((#190));
#86=EDGE_CURVE('',#92,#136,#191,.T.);
#87=PRESENTATION_STYLE_ASSIGNMENT((#192));
#88=EDGE_CURVE('',#134,#100,#193,.T.);
#89=PRESENTATION_STYLE_ASSIGNMENT((#194));
#90=ADVANCED_FACE('',(#195),#196,.T.);
#91=PRESENTATION_STYLE_ASSIGNMENT((#197));
#92=VERTEX_POINT('',#198);
#93=PRESENTATION_STYLE_ASSIGNMENT((#199));
#94=VERTEX_POINT('',#200);
#95=PRESENTATION_STYLE_ASSIGNMENT((#201));
#96=ADVANCED_FACE('',(#202),#203,.T.);
#97=PRESENTATION_STYLE_ASSIGNMENT((#204));
#98=VERTEX_POINT('',#205);
#99=PRESENTATION_STYLE_ASSIGNMENT((#206));
#100=VERTEX_POINT('',#207);
#101=PRESENTATION_STYLE_ASSIGNMENT((#208));
#102=EDGE_CURVE('',#134,#98,#209,.T.);
#103=PRESENTATION_STYLE_ASSIGNMENT((#210));
#104=EDGE_CURVE('',#100,#74,#211,.T.);
#105=PRESENTATION_STYLE_ASSIGNMENT((#212));
#106=VERTEX_POINT('',#213);
#107=PRESENTATION_STYLE_ASSIGNMENT((#214));
#108=ADVANCED_FACE('',(#215),#216,.T.);
#109=PRESENTATION_STYLE_ASSIGNMENT((#217));
#110=ADVANCED_FACE('',(#218),#219,.T.);
#111=PRESENTATION_STYLE_ASSIGNMENT((#220));
#112=ADVANCED_FACE('',(#221),#222,.T.);
#113=PRESENTATION_STYLE_ASSIGNMENT((#223));
#114=EDGE_CURVE('',#76,#130,#224,.T.);
#115=PRESENTATION_STYLE_ASSIGNMENT((#225));
#116=ADVANCED_FACE('',(#226),#227,.T.);
#117=PRESENTATION_STYLE_ASSIGNMENT((#228));
#118=ADVANCED_FACE('',(#229),#230,.T.);
#119=PRESENTATION_STYLE_ASSIGNMENT((#231));
#120=ADVANCED_FACE('',(#232),#233,.T.);
#121=PRESENTATION_STYLE_ASSIGNMENT((#234));
#122=ADVANCED_FACE('',(#235,#236),#237,.T.);
#123=PRESENTATION_STYLE_ASSIGNMENT((#238));
#124=EDGE_CURVE('',#138,#128,#239,.T.);
#125=PRESENTATION_STYLE_ASSIGNMENT((#240));
#126=EDGE_CURVE('',#106,#138,#241,.T.);
#127=PRESENTATION_STYLE_ASSIGNMENT((#242));
#128=VERTEX_POINT('',#243);
#129=PRESENTATION_STYLE_ASSIGNMENT((#244));
#130=VERTEX_POINT('',#245);
#131=PRESENTATION_STYLE_ASSIGNMENT((#246));
#132=EDGE_CURVE('',#106,#94,#247,.T.);
#133=PRESENTATION_STYLE_ASSIGNMENT((#248));
#134=VERTEX_POINT('',#249);
#135=PRESENTATION_STYLE_ASSIGNMENT((#250));
#136=VERTEX_POINT('',#251);
#137=PRESENTATION_STYLE_ASSIGNMENT((#252));
#138=VERTEX_POINT('',#253);
#139=PRESENTATION_STYLE_ASSIGNMENT((#254));
#140=ADVANCED_FACE('',(#255),#256,.T.);
#141=PRESENTATION_STYLE_ASSIGNMENT((#257));
#142=EDGE_CURVE('',#130,#76,#258,.T.);
#143=PRESENTATION_STYLE_ASSIGNMENT((#259));
#144=MANIFOLD_SOLID_BREP('1',#260);
#145=PRESENTATION_STYLE_ASSIGNMENT((#261));
#146=EDGE_CURVE('',#74,#98,#262,.T.);
#147=PRESENTATION_STYLE_ASSIGNMENT((#263));
#148=EDGE_CURVE('',#136,#92,#264,.T.);
#149=PRESENTATION_STYLE_ASSIGNMENT((#265));
#150=EDGE_CURVE('',#136,#74,#266,.T.);
#151=PRESENTATION_STYLE_ASSIGNMENT((#267));
#152=EDGE_CURVE('',#130,#128,#268,.T.);
#153=PRESENTATION_STYLE_ASSIGNMENT((#269));
#154=EDGE_CURVE('',#138,#76,#270,.T.);
#155=PRODUCT('1','1','PART-1-DESC',(#271));
#156=PRODUCT_DEFINITION('NONE','NONE',#272,#2);
#157=AXIS2_PLACEMENT_3D('',#273,#274,#275);
#160=LENGTH_MEASURE_WITH_UNIT(LENGTH_MEASURE(1.0),#276);
#163=DIMENSIONAL_EXPONENTS(1.0,0.0,0.0,0.0,0.0,0.0,0.0);
#165=DIMENSIONAL_EXPONENTS(0.0,0.0,0.0,0.0,0.0,0.0,0.0);
#171=CURVE_STYLE('',#277,POSITIVE_LENGTH_MEASURE(1.0E-006),#278);
#172=CIRCLE('',#279,6.90063075);
#173=CURVE_STYLE('',#280,POSITIVE_LENGTH_MEASURE(1.0E-006),#281);
#174=LINE('',#282,#283);
#175=CURVE_STYLE('',#284,POSITIVE_LENGTH_MEASURE(1.0E-006),#285);
#176=CIRCLE('',#286,7.47908388626344);
#177=POINT_STYLE(' ',#287,POSITIVE_LENGTH_MEASURE(1.0E-006),#288);
#178=CARTESIAN_POINT('',(0.0,7.874,-101.038025001492));
#179=POINT_STYLE(' ',#289,POSITIVE_LENGTH_MEASURE(1.0E-006),#290);
#180=CARTESIAN_POINT('',(-9.72031293346512E-016,7.9375,-73.0));
#181=CURVE_STYLE('',#291,POSITIVE_LENGTH_MEASURE(1.0E-006),#292);
#182=LINE('',#293,#294);
#183=CURVE_STYLE('',#295,POSITIVE_LENGTH_MEASURE(1.0E-006),#296);
#184=CIRCLE('',#297,7.9375);
#185=SURFACE_STYLE_USAGE(.BOTH.,#298);
#186=FACE_OUTER_BOUND('',#299,.T.);
#187=CYLINDRICAL_SURFACE('',#300,7.9375);
#188=CURVE_STYLE('',#301,POSITIVE_LENGTH_MEASURE(1.0E-006),#302);
#189=CIRCLE('',#303,7.874);
#190=CURVE_STYLE('',#304,POSITIVE_LENGTH_MEASURE(1.0E-006),#305);
#191=CIRCLE('',#306,7.874);
#192=CURVE_STYLE('',#307,POSITIVE_LENGTH_MEASURE(1.0E-006),#308);
#193=LINE('',#309,#310);
#194=SURFACE_STYLE_USAGE(.BOTH.,#311);
#195=FACE_OUTER_BOUND('',#312,.T.);
#196=PLANE('',#313);
#197=POINT_STYLE(' ',#314,POSITIVE_LENGTH_MEASURE(1.0E-006),#315);
#198=CARTESIAN_POINT('',(9.6425504299974E-016,-7.874,-73.0));
#199=POINT_STYLE(' ',#316,POSITIVE_LENGTH_MEASURE(1.0E-006),#317);
#200=CARTESIAN_POINT('',(9.15893364788876E-016,-7.47908388626344,7.105427357601E-015));
#201=SURFACE_STYLE_USAGE(.BOTH.,#318);
#202=FACE_OUTER_BOUND('',#319,.T.);
#203=CYLINDRICAL_SURFACE('',#320,7.9375);
#204=POINT_STYLE(' ',#321,POSITIVE_LENGTH_MEASURE(1.0E-006),#322);
#205=CARTESIAN_POINT('',(0.0,6.90063075,-101.6));
#206=POINT_STYLE(' ',#323,POSITIVE_LENGTH_MEASURE(1.0E-006),#324);
#207=CARTESIAN_POINT('',(9.6425504299974E-016,-7.874,-101.038025001492));
#208=CURVE_STYLE('',#325,POSITIVE_LENGTH_MEASURE(1.0E-006),#326);
#209=CIRCLE('',#327,6.90063075);
#210=CURVE_STYLE('',#328,POSITIVE_LENGTH_MEASURE(1.0E-006),#329);
#211=CIRCLE('',#330,7.874);
#212=POINT_STYLE(' ',#331,POSITIVE_LENGTH_MEASURE(1.0E-006),#332);
#213=CARTESIAN_POINT('',(0.0,7.47908388626344,7.105427357601E-015));
#214=SURFACE_STYLE_USAGE(.BOTH.,#333);
#215=FACE_OUTER_BOUND('',#334,.T.);
#216=CONICAL_SURFACE('',#335,7.387315375,1.0471975511966);
#217=SURFACE_STYLE_USAGE(.BOTH.,#336);
#218=FACE_OUTER_BOUND('',#337,.T.);
#219=PLANE('',#338);
#220=SURFACE_STYLE_USAGE(.BOTH.,#339);
#221=FACE_OUTER_BOUND('',#340,.T.);
#222=CONICAL_SURFACE('',#341,7.70829194313172,0.523598775598301);
#223=CURVE_STYLE('',#342,POSITIVE_LENGTH_MEASURE(1.0E-006),#343);
#224=CIRCLE('',#344,7.9375);
#225=SURFACE_STYLE_USAGE(.BOTH.,#345);
#226=FACE_OUTER_BOUND('',#346,.T.);
#227=CYLINDRICAL_SURFACE('',#347,7.874);
#228=SURFACE_STYLE_USAGE(.BOTH.,#348);
#229=FACE_OUTER_BOUND('',#349,.T.);
#230=CONICAL_SURFACE('',#350,7.70829194313172,0.523598775598301);
#231=SURFACE_STYLE_USAGE(.BOTH.,#351);
#232=FACE_OUTER_BOUND('',#352,.T.);
#233=CONICAL_SURFACE('',#353,7.387315375,1.0471975511966);
#234=SURFACE_STYLE_USAGE(.BOTH.,#354);
#235=FACE_BOUND('',#355,.T.);
#236=FACE_OUTER_BOUND('',#356,.T.);
#237=PLANE('',#357);
#238=CURVE_STYLE('',#358,POSITIVE_LENGTH_MEASURE(1.0E-006),#359);
#239=CIRCLE('',#360,7.9375);
#240=CURVE_STYLE('',#361,POSITIVE_LENGTH_MEASURE(1.0E-006),#362);
#241=LINE('',#363,#364);
#242=POINT_STYLE(' ',#365,POSITIVE_LENGTH_MEASURE(1.0E-006),#366);
#243=CARTESIAN_POINT('',(9.72031293346512E-016,-7.9375,-0.79399999999999));
#244=POINT_STYLE(' ',#367,POSITIVE_LENGTH_MEASURE(1.0E-006),#368);
#245=CARTESIAN_POINT('',(0.0,-7.9375,-73.0));
#246=CURVE_STYLE('',#369,POSITIVE_LENGTH_MEASURE(1.0E-006),#370);
#247=CIRCLE('',#371,7.47908388626344);
#248=POINT_STYLE(' ',#372,POSITIVE_LENGTH_MEASURE(1.0E-006),#373);
#249=CARTESIAN_POINT('',(8.45055626183208E-016,-6.90063075,-101.6));
#250=POINT_STYLE(' ',#374,POSITIVE_LENGTH_MEASURE(1.0E-006),#375);
#251=CARTESIAN_POINT('',(0.0,7.874,-73.0));
#252=POINT_STYLE(' ',#376,POSITIVE_LENGTH_MEASURE(1.0E-006),#377);
#253=CARTESIAN_POINT('',(0.0,7.9375,-0.79399999999999));
#254=SURFACE_STYLE_USAGE(.BOTH.,#378);
#255=FACE_OUTER_BOUND('',#379,.T.);
#256=CYLINDRICAL_SURFACE('',#380,7.874);
#257=CURVE_STYLE('',#381,POSITIVE_LENGTH_MEASURE(1.0E-006),#382);
#258=CIRCLE('',#383,7.9375);
#259=SURFACE_STYLE_USAGE(.BOTH.,#384);
#260=CLOSED_SHELL('',(#96,#118,#120,#140,#116,#108,#122,#110,#112,#82,#90));
#261=CURVE_STYLE('',#385,POSITIVE_LENGTH_MEASURE(1.0E-006),#386);
#262=LINE('',#387,#388);
#263=CURVE_STYLE('',#389,POSITIVE_LENGTH_MEASURE(1.0E-006),#390);
#264=CIRCLE('',#391,7.874);
#265=CURVE_STYLE('',#392,POSITIVE_LENGTH_MEASURE(1.0E-006),#393);
#266=LINE('',#394,#395);
#267=CURVE_STYLE('',#396,POSITIVE_LENGTH_MEASURE(1.0E-006),#397);
#268=LINE('',#398,#399);
#269=CURVE_STYLE('',#400,POSITIVE_LENGTH_MEASURE(1.0E-006),#401);
#270=LINE('',#402,#403);
#271=PRODUCT_CONTEXT('',#54,'mechanical');
#272=PRODUCT_DEFINITION_FORMATION_WITH_SPECIFIED_SOURCE(' ','NONE',#155,.NOT_KNOWN.);
#273=CARTESIAN_POINT('',(0.0,0.0,0.0));
#274=DIRECTION('',(0.0,0.0,1.0));
#275=DIRECTION('',(1.0,0.0,0.0));
#276= (NAMED_UNIT(#163)LENGTH_UNIT()SI_UNIT(.MILLI.,.METRE.));
#277=DRAUGHTING_PRE_DEFINED_CURVE_FONT('continuous');
#278=COLOUR_RGB('',0.498039215803146,0.498039215803146,0.498039215803146);
#279=AXIS2_PLACEMENT_3D('',#405,#406,#407);
#280=DRAUGHTING_PRE_DEFINED_CURVE_FONT('continuous');
#281=COLOUR_RGB('',0.800000011920929,0.800000011920929,0.800000011920929);
#282=CARTESIAN_POINT('',(9.6425504299974E-016,-7.874,-87.0190125007458));
#283=VECTOR('',#408,1.0);
#284=DRAUGHTING_PRE_DEFINED_CURVE_FONT('continuous');
#285=COLOUR_RGB('',0.498039215803146,0.498039215803146,0.498039215803146);
#286=AXIS2_PLACEMENT_3D('',#409,#410,#411);
#287=PRE_DEFINED_MARKER('');
#288=COLOUR_RGB('',0.800000011920929,0.800000011920929,0.800000011920929);
#289=PRE_DEFINED_MARKER('');
#290=COLOUR_RGB('',0.498039215803146,0.498039215803146,0.498039215803146);
#291=DRAUGHTING_PRE_DEFINED_CURVE_FONT('continuous');
#292=COLOUR_RGB('',0.498039215803146,0.498039215803146,0.498039215803146);
#293=CARTESIAN_POINT('',(9.43962329067694E-016,-7.70829194313172,-0.396999999999991));
#294=VECTOR('',#412,1.0);
#295=DRAUGHTING_PRE_DEFINED_CURVE_FONT('continuous');
#296=COLOUR_RGB('',0.498039215803146,0.498039215803146,0.498039215803146);
#297=AXIS2_PLACEMENT_3D('',#413,#414,#415);
#298=SURFACE_SIDE_STYLE('',(#416));
#299=EDGE_LOOP('',(#417,#418,#419,#420));
#300=AXIS2_PLACEMENT_3D('',#421,#422,#423);
#301=DRAUGHTING_PRE_DEFINED_CURVE_FONT('continuous');
#302=COLOUR_RGB('',0.800000011920929,0.800000011920929,0.800000011920929);
#303=AXIS2_PLACEMENT_3D('',#424,#425,#426);
#304=DRAUGHTING_PRE_DEFINED_CURVE_FONT('continuous');
#305=COLOUR_RGB('',0.498039215803146,0.498039215803146,0.498039215803146);
#306=AXIS2_PLACEMENT_3D('',#427,#428,#429);
#307=DRAUGHTING_PRE_DEFINED_CURVE_FONT('continuous');
#308=COLOUR_RGB('',0.800000011920929,0.800000011920929,0.800000011920929);
#309=CARTESIAN_POINT('',(9.04655334591474E-016,-7.387315375,-101.319012500746));
#310=VECTOR('',#430,1.0);
#311=SURFACE_SIDE_STYLE('',(#431));
#312=EDGE_LOOP('',(#432,#433));
#313=AXIS2_PLACEMENT_3D('',#434,#435,#436);
#314=PRE_DEFINED_MARKER('');
#315=COLOUR_RGB('',0.498039215803146,0.498039215803146,0.498039215803146);
#316=PRE_DEFINED_MARKER('');
#317=COLOUR_RGB('',0.498039215803146,0.498039215803146,0.498039215803146);
#318=SURFACE_SIDE_STYLE('',(#437));
#319=EDGE_LOOP('',(#438,#439,#440,#441));
#320=AXIS2_PLACEMENT_3D('',#442,#443,#444);
#321=PRE_DEFINED_MARKER('');
#322=COLOUR_RGB('',0.498039215803146,0.498039215803146,0.498039215803146);
#323=PRE_DEFINED_MARKER('');
#324=COLOUR_RGB('',0.800000011920929,0.800000011920929,0.800000011920929);
#325=DRAUGHTING_PRE_DEFINED_CURVE_FONT('continuous');
#326=COLOUR_RGB('',0.498039215803146,0.498039215803146,0.498039215803146);
#327=AXIS2_PLACEMENT_3D('',#445,#446,#447);
#328=DRAUGHTING_PRE_DEFINED_CURVE_FONT('continuous');
#329=COLOUR_RGB('',0.800000011920929,0.800000011920929,0.800000011920929);
#330=AXIS2_PLACEMENT_3D('',#448,#449,#450);
#331=PRE_DEFINED_MARKER('');
#332=COLOUR_RGB('',0.498039215803146,0.498039215803146,0.498039215803146);
#333=SURFACE_SIDE_STYLE('',(#451));
#334=EDGE_LOOP('',(#452,#453,#454,#455));
#335=AXIS2_PLACEMENT_3D('',#456,#457,#458);
#336=SURFACE_SIDE_STYLE('',(#459));
#337=EDGE_LOOP('',(#460,#461));
#338=AXIS2_PLACEMENT_3D('',#462,#463,#464);
#339=SURFACE_SIDE_STYLE('',(#465));
#340=EDGE_LOOP('',(#466,#467,#468,#469));
#341=AXIS2_PLACEMENT_3D('',#470,#471,#472);
#342=DRAUGHTING_PRE_DEFINED_CURVE_FONT('continuous');
#343=COLOUR_RGB('',0.498039215803146,0.498039215803146,0.498039215803146);
#344=AXIS2_PLACEMENT_3D('',#473,#474,#475);
#345=SURFACE_SIDE_STYLE('',(#476));
#346=EDGE_LOOP('',(#477,#478,#479,#480));
#347=AXIS2_PLACEMENT_3D('',#481,#482,#483);
#348=SURFACE_SIDE_STYLE('',(#484));
#349=EDGE_LOOP('',(#485,#486,#487,#488));
#350=AXIS2_PLACEMENT_3D('',#489,#490,#491);
#351=SURFACE_SIDE_STYLE('',(#492));
#352=EDGE_LOOP('',(#493,#494,#495,#496));
#353=AXIS2_PLACEMENT_3D('',#497,#498,#499);
#354=SURFACE_SIDE_STYLE('',(#500));
#355=EDGE_LOOP('',(#501,#502));
#356=EDGE_LOOP('',(#503,#504));
#357=AXIS2_PLACEMENT_3D('',#505,#506,#507);
#358=DRAUGHTING_PRE_DEFINED_CURVE_FONT('continuous');
#359=COLOUR_RGB('',0.498039215803146,0.498039215803146,0.498039215803146);
#360=AXIS2_PLACEMENT_3D('',#508,#509,#510);
#361=DRAUGHTING_PRE_DEFINED_CURVE_FONT('continuous');
#362=COLOUR_RGB('',0.498039215803146,0.498039215803146,0.498039215803146);
#363=CARTESIAN_POINT('',(-9.43962329067694E-016,7.70829194313172,-0.396999999999991));
#364=VECTOR('',#511,1.0);
#365=PRE_DEFINED_MARKER('');
#366=COLOUR_RGB('',0.498039215803146,0.498039215803146,0.498039215803146);
#367=PRE_DEFINED_MARKER('');
#368=COLOUR_RGB('',0.498039215803146,0.498039215803146,0.498039215803146);
#369=DRAUGHTING_PRE_DEFINED_CURVE_FONT('continuous');
#370=COLOUR_RGB('',0.498039215803146,0.498039215803146,0.498039215803146);
#371=AXIS2_PLACEMENT_3D('',#512,#513,#514);
#372=PRE_DEFINED_MARKER('');
#373=COLOUR_RGB('',0.498039215803146,0.498039215803146,0.498039215803146);
#374=PRE_DEFINED_MARKER('');
#375=COLOUR_RGB('',0.498039215803146,0.498039215803146,0.498039215803146);
#376=PRE_DEFINED_MARKER('');
#377=COLOUR_RGB('',0.498039215803146,0.498039215803146,0.498039215803146);
#378=SURFACE_SIDE_STYLE('',(#515));
#379=EDGE_LOOP('',(#516,#517,#518,#519));
#380=AXIS2_PLACEMENT_3D('',#520,#521,#522);
#381=DRAUGHTING_PRE_DEFINED_CURVE_FONT('continuous');
#382=COLOUR_RGB('',0.498039215803146,0.498039215803146,0.498039215803146);
#383=AXIS2_PLACEMENT_3D('',#523,#524,#525);
#384=SURFACE_SIDE_STYLE('',(#526));
#385=DRAUGHTING_PRE_DEFINED_CURVE_FONT('continuous');
#386=COLOUR_RGB('',0.800000011920929,0.800000011920929,0.800000011920929);
#387=CARTESIAN_POINT('',(-9.04655334591474E-016,7.387315375,-101.319012500746));
#388=VECTOR('',#527,1.0);
#389=DRAUGHTING_PRE_DEFINED_CURVE_FONT('continuous');
#390=COLOUR_RGB('',0.498039215803146,0.498039215803146,0.498039215803146);
#391=AXIS2_PLACEMENT_3D('',#528,#529,#530);
#392=DRAUGHTING_PRE_DEFINED_CURVE_FONT('continuous');
#393=COLOUR_RGB('',0.800000011920929,0.800000011920929,0.800000011920929);
#394=CARTESIAN_POINT('',(-9.6425504299974E-016,7.874,-87.0190125007458));
#395=VECTOR('',#531,1.0);
#396=DRAUGHTING_PRE_DEFINED_CURVE_FONT('continuous');
#397=COLOUR_RGB('',0.498039215803146,0.498039215803146,0.498039215803146);
#398=CARTESIAN_POINT('',(9.72031293346512E-016,-7.9375,-30.197));
#399=VECTOR('',#532,1.0);
#400=DRAUGHTING_PRE_DEFINED_CURVE_FONT('continuous');
#401=COLOUR_RGB('',0.498039215803146,0.498039215803146,0.498039215803146);
#402=CARTESIAN_POINT('',(-9.72031293346512E-016,7.9375,-30.197));
#403=VECTOR('',#533,1.0);
#405=CARTESIAN_POINT('',(0.0,0.0,-101.6));
#406=DIRECTION('',(0.0,0.0,-1.0));
#407=DIRECTION('',(0.0,1.0,0.0));
#408=DIRECTION('',(-0.0,-0.0,1.0));
#409=CARTESIAN_POINT('',(0.0,0.0,7.105427357601E-015));
#410=DIRECTION('',(0.0,0.0,-1.0));
#411=DIRECTION('',(0.0,1.0,0.0));
#412=DIRECTION('',(-6.12303176911191E-017,0.500000000000002,0.866025403784438));
#413=CARTESIAN_POINT('',(0.0,0.0,-0.79399999999999));
#414=DIRECTION('',(0.0,0.0,-1.0));
#415=DIRECTION('',(0.0,1.0,0.0));
#416=SURFACE_STYLE_FILL_AREA(#534);
#417=ORIENTED_EDGE('',*,*,#154,.T.);
#418=ORIENTED_EDGE('',*,*,#142,.F.);
#419=ORIENTED_EDGE('',*,*,#152,.T.);
#420=ORIENTED_EDGE('',*,*,#80,.T.);
#421=CARTESIAN_POINT('',(0.0,0.0,-30.197));
#422=DIRECTION('',(-0.0,-0.0,1.0));
#423=DIRECTION('',(0.0,1.0,0.0));
#424=CARTESIAN_POINT('',(0.0,0.0,-101.038025001492));
#425=DIRECTION('',(0.0,0.0,-1.0));
#426=DIRECTION('',(0.0,1.0,0.0));
#427=CARTESIAN_POINT('',(0.0,0.0,-73.0));
#428=DIRECTION('',(0.0,-0.0,1.0));
#429=DIRECTION('',(0.0,1.0,0.0));
#430=DIRECTION('',(1.06054021204601E-016,-0.866025403784439,0.5));
#431=SURFACE_STYLE_FILL_AREA(#535);
#432=ORIENTED_EDGE('',*,*,#68,.T.);
#433=ORIENTED_EDGE('',*,*,#102,.T.);
#434=CARTESIAN_POINT('',(0.0,3.450315375,-101.6));
#435=DIRECTION('',(0.0,0.0,-1.0));
#436=DIRECTION('',(0.0,1.0,0.0));
#437=SURFACE_STYLE_FILL_AREA(#536);
#438=ORIENTED_EDGE('',*,*,#154,.F.);
#439=ORIENTED_EDGE('',*,*,#124,.T.);
#440=ORIENTED_EDGE('',*,*,#152,.F.);
#441=ORIENTED_EDGE('',*,*,#114,.F.);
#442=CARTESIAN_POINT('',(0.0,0.0,-30.197));
#443=DIRECTION('',(-0.0,-0.0,1.0));
#444=DIRECTION('',(0.0,1.0,0.0));
#445=CARTESIAN_POINT('',(0.0,0.0,-101.6));
#446=DIRECTION('',(0.0,0.0,-1.0));
#447=DIRECTION('',(0.0,1.0,0.0));
#448=CARTESIAN_POINT('',(0.0,0.0,-101.038025001492));
#449=DIRECTION('',(0.0,0.0,-1.0));
#450=DIRECTION('',(0.0,1.0,0.0));
#451=SURFACE_STYLE_FILL_AREA(#537);
#452=ORIENTED_EDGE('',*,*,#146,.T.);
#453=ORIENTED_EDGE('',*,*,#102,.F.);
#454=ORIENTED_EDGE('',*,*,#88,.T.);
#455=ORIENTED_EDGE('',*,*,#104,.T.);
#456=CARTESIAN_POINT('',(0.0,0.0,-101.319012500746));
#457=DIRECTION('',(-0.0,-0.0,1.0));
#458=DIRECTION('',(0.0,1.0,0.0));
#459=SURFACE_STYLE_FILL_AREA(#538);
#460=ORIENTED_EDGE('',*,*,#132,.F.);
#461=ORIENTED_EDGE('',*,*,#72,.F.);
#462=CARTESIAN_POINT('',(0.0,3.73954194313172,7.105427357601E-015));
#463=DIRECTION('',(-0.0,0.0,1.0));
#464=DIRECTION('',(0.0,-1.0,0.0));
#465=SURFACE_STYLE_FILL_AREA(#539);
#466=ORIENTED_EDGE('',*,*,#126,.T.);
#467=ORIENTED_EDGE('',*,*,#80,.F.);
#468=ORIENTED_EDGE('',*,*,#78,.T.);
#469=ORIENTED_EDGE('',*,*,#72,.T.);
#470=CARTESIAN_POINT('',(0.0,0.0,-0.396999999999991));
#471=DIRECTION('',(0.0,-0.0,-1.0));
#472=DIRECTION('',(0.0,1.0,0.0));
#473=CARTESIAN_POINT('',(0.0,0.0,-73.0));
#474=DIRECTION('',(0.0,0.0,-1.0));
#475=DIRECTION('',(0.0,-1.0,0.0));
#476=SURFACE_STYLE_FILL_AREA(#540);
#477=ORIENTED_EDGE('',*,*,#150,.T.);
#478=ORIENTED_EDGE('',*,*,#104,.F.);
#479=ORIENTED_EDGE('',*,*,#70,.T.);
#480=ORIENTED_EDGE('',*,*,#148,.F.);
#481=CARTESIAN_POINT('',(0.0,0.0,-87.0190125007458));
#482=DIRECTION('',(-0.0,-0.0,1.0));
#483=DIRECTION('',(0.0,1.0,0.0));
#484=SURFACE_STYLE_FILL_AREA(#541);
#485=ORIENTED_EDGE('',*,*,#126,.F.);
#486=ORIENTED_EDGE('',*,*,#132,.T.);
#487=ORIENTED_EDGE('',*,*,#78,.F.);
#488=ORIENTED_EDGE('',*,*,#124,.F.);
#489=CARTESIAN_POINT('',(0.0,0.0,-0.396999999999991));
#490=DIRECTION('',(0.0,-0.0,-1.0));
#491=DIRECTION('',(0.0,1.0,0.0));
#492=SURFACE_STYLE_FILL_AREA(#542);
#493=ORIENTED_EDGE('',*,*,#146,.F.);
#494=ORIENTED_EDGE('',*,*,#84,.T.);
#495=ORIENTED_EDGE('',*,*,#88,.F.);
#496=ORIENTED_EDGE('',*,*,#68,.F.);
#497=CARTESIAN_POINT('',(0.0,0.0,-101.319012500746));
#498=DIRECTION('',(-0.0,-0.0,1.0));
#499=DIRECTION('',(0.0,1.0,0.0));
#500=SURFACE_STYLE_FILL_AREA(#543);
#501=ORIENTED_EDGE('',*,*,#148,.T.);
#502=ORIENTED_EDGE('',*,*,#86,.T.);
#503=ORIENTED_EDGE('',*,*,#142,.T.);
#504=ORIENTED_EDGE('',*,*,#114,.T.);
#505=CARTESIAN_POINT('',(0.0,0.0,-73.0));
#506=DIRECTION('',(0.0,0.0,-1.0));
#507=DIRECTION('',(0.0,-1.0,0.0));
#508=CARTESIAN_POINT('',(0.0,0.0,-0.79399999999999));
#509=DIRECTION('',(0.0,0.0,-1.0));
#510=DIRECTION('',(0.0,1.0,0.0));
#511=DIRECTION('',(-6.12303176911191E-017,0.500000000000002,-0.866025403784438));
#512=CARTESIAN_POINT('',(0.0,0.0,7.105427357601E-015));
#513=DIRECTION('',(0.0,0.0,-1.0));
#514=DIRECTION('',(0.0,1.0,0.0));
#515=SURFACE_STYLE_FILL_AREA(#544);
#516=ORIENTED_EDGE('',*,*,#150,.F.);
#517=ORIENTED_EDGE('',*,*,#86,.F.);
#518=ORIENTED_EDGE('',*,*,#70,.F.);
#519=ORIENTED_EDGE('',*,*,#84,.F.);
#520=CARTESIAN_POINT('',(0.0,0.0,-87.0190125007458));
#521=DIRECTION('',(-0.0,-0.0,1.0));
#522=DIRECTION('',(0.0,1.0,0.0));
#523=CARTESIAN_POINT('',(0.0,0.0,-73.0));
#524=DIRECTION('',(0.0,0.0,-1.0));
#525=DIRECTION('',(0.0,-1.0,0.0));
#526=SURFACE_STYLE_FILL_AREA(#545);
#527=DIRECTION('',(1.06054021204601E-016,-0.866025403784439,-0.5));
#528=CARTESIAN_POINT('',(0.0,0.0,-73.0));
#529=DIRECTION('',(0.0,-0.0,1.0));
#530=DIRECTION('',(0.0,1.0,0.0));
#531=DIRECTION('',(0.0,0.0,-1.0));
#532=DIRECTION('',(-0.0,-0.0,1.0));
#533=DIRECTION('',(0.0,0.0,-1.0));
#534=FILL_AREA_STYLE('',(#546));
#535=FILL_AREA_STYLE('',(#547));
#536=FILL_AREA_STYLE('',(#548));
#537=FILL_AREA_STYLE('',(#549));
#538=FILL_AREA_STYLE('',(#550));
#539=FILL_AREA_STYLE('',(#551));
#540=FILL_AREA_STYLE('',(#552));
#541=FILL_AREA_STYLE('',(#553));
#542=FILL_AREA_STYLE('',(#554));
#543=FILL_AREA_STYLE('',(#555));
#544=FILL_AREA_STYLE('',(#556));
#545=FILL_AREA_STYLE('',(#557));
#546=FILL_AREA_STYLE_COLOUR('',#558);
#547=FILL_AREA_STYLE_COLOUR('',#559);
#548=FILL_AREA_STYLE_COLOUR('',#560);
#549=FILL_AREA_STYLE_COLOUR('',#561);
#550=FILL_AREA_STYLE_COLOUR('',#562);
#551=FILL_AREA_STYLE_COLOUR('',#563);
#552=FILL_AREA_STYLE_COLOUR('',#564);
#553=FILL_AREA_STYLE_COLOUR('',#565);
#554=FILL_AREA_STYLE_COLOUR('',#566);
#555=FILL_AREA_STYLE_COLOUR('',#567);
#556=FILL_AREA_STYLE_COLOUR('',#568);
#557=FILL_AREA_STYLE_COLOUR('',#569);
#558=COLOUR_RGB('',0.498039215803146,0.498039215803146,0.498039215803146);
#559=COLOUR_RGB('',0.498039215803146,0.498039215803146,0.498039215803146);
#560=COLOUR_RGB('',0.498039215803146,0.498039215803146,0.498039215803146);
#561=COLOUR_RGB('',0.800000011920929,0.800000011920929,0.800000011920929);
#562=COLOUR_RGB('',0.498039215803146,0.498039215803146,0.498039215803146);
#563=COLOUR_RGB('',0.498039215803146,0.498039215803146,0.498039215803146);
#564=COLOUR_RGB('',0.800000011920929,0.800000011920929,0.800000011920929);
#565=COLOUR_RGB('',0.498039215803146,0.498039215803146,0.498039215803146);
#566=COLOUR_RGB('',0.800000011920929,0.800000011920929,0.800000011920929);
#567=COLOUR_RGB('',0.498039215803146,0.498039215803146,0.498039215803146);
#568=COLOUR_RGB('',0.800000011920929,0.800000011920929,0.800000011920929);
#569=COLOUR_RGB('',0.498039215803146,0.498039215803146,0.498039215803146);
#570=AXIS2_PLACEMENT_3D('PCS',#571,#572,#573);
#571=CARTESIAN_POINT('',(0.0,0.0,0.0));
#572=DIRECTION('',(0.0,0.0,1.0));
#573=DIRECTION('',(1.0,0.0,0.0));
#574=AXIS2_PLACEMENT_3D('CIP',#575,#576,#577);
#575=CARTESIAN_POINT('',(0.0,0.0,-101.6));
#576=DIRECTION('',(0.0,0.0,1.0));
#577=DIRECTION('',(1.0,0.0,0.0));
#578=AXIS2_PLACEMENT_3D('CRP',#579,#580,#581);
#579=CARTESIAN_POINT('',(-7.874,0.0,-101.6));
#580=DIRECTION('',(0.0,0.0,1.0));
#581=DIRECTION('',(1.0,0.0,0.0));
#582=AXIS2_PLACEMENT_3D('MCS',#583,#584,#585);
#583=CARTESIAN_POINT('',(0.0,0.0,-59.6));
#584=DIRECTION('',(0.0,0.0,1.0));
#585=DIRECTION('',(1.0,0.0,0.0));
#586=CONSTRUCTIVE_GEOMETRY_REPRESENTATION_RELATIONSHIP('coordinate systems',$,#58,#587);
#587=CONSTRUCTIVE_GEOMETRY_REPRESENTATION('coordinate systems',(#570,#574,#578,#582),#6);
ENDSEC;
END-ISO-10303-21;
