ISO-10303-21;
HEADER;
FILE_DESCRIPTION(('no description'),'unknown implementation level');
FILE_NAME('solid4vtPdPwAZH_7Uxx0Ea_q6Wic6Hc_1.STP','  ',('CIMSOURCE GmbH'),('CADClick - KiM GmbH - www.kimweb.de'),'unknown preprocess','ACIS','unknown authorization');
FILE_SCHEMA(('automotive_design'));
ENDSEC;
DATA;
#1=MECHANICAL_DESIGN_GEOMETRIC_PRESENTATION_REPRESENTATION(' ',(#10,#11,#12,#13,#14,#15,#16,#17,#18,#19,#20,#21,#22,#23,#24,#25,#26,#27,#28,#29,#30,#31,#32,#33,#34,#35,#36,#37,#38,#39,#40,#41,#42,#43,#44,#45,#46,#47,#48,#49,#50,#51,#52,#53),#6);
#2=PRODUCT_DEFINITION_CONTEXT('',#54,'design');
#3=APPLICATION_PROTOCOL_DEFINITION('INTERNATIONAL STANDARD','automotive_design',1994,#54);
#4=PRODUCT_CATEGORY_RELATIONSHIP('NONE','NONE',#55,#56);
#5=SHAPE_DEFINITION_REPRESENTATION(#57,#58);
#6= (GEOMETRIC_REPRESENTATION_CONTEXT(3)GLOBAL_UNCERTAINTY_ASSIGNED_CONTEXT((#61))GLOBAL_UNIT_ASSIGNED_CONTEXT((#63,#64,#65))REPRESENTATION_CONTEXT('NONE','WORKSPACE'));
#10=STYLED_ITEM('',(#67),#68);
#11=STYLED_ITEM('',(#69),#70);
#12=STYLED_ITEM('',(#71),#72);
#13=STYLED_ITEM('',(#73),#74);
#14=STYLED_ITEM('',(#75),#76);
#15=STYLED_ITEM('',(#77),#78);
#16=STYLED_ITEM('',(#79),#80);
#17=STYLED_ITEM('',(#81),#82);
#18=STYLED_ITEM('',(#83),#84);
#19=STYLED_ITEM('',(#85),#86);
#20=STYLED_ITEM('',(#87),#88);
#21=STYLED_ITEM('',(#89),#90);
#22=STYLED_ITEM('',(#91),#92);
#23=STYLED_ITEM('',(#93),#94);
#24=STYLED_ITEM('',(#95),#96);
#25=STYLED_ITEM('',(#97),#98);
#26=STYLED_ITEM('',(#99),#100);
#27=STYLED_ITEM('',(#101),#102);
#28=STYLED_ITEM('',(#103),#104);
#29=STYLED_ITEM('',(#105),#106);
#30=STYLED_ITEM('',(#107),#108);
#31=STYLED_ITEM('',(#109),#110);
#32=STYLED_ITEM('',(#111),#112);
#33=STYLED_ITEM('',(#113),#114);
#34=STYLED_ITEM('',(#115),#116);
#35=STYLED_ITEM('',(#117),#118);
#36=STYLED_ITEM('',(#119),#120);
#37=STYLED_ITEM('',(#121),#122);
#38=STYLED_ITEM('',(#123),#124);
#39=STYLED_ITEM('',(#125),#126);
#40=STYLED_ITEM('',(#127),#128);
#41=STYLED_ITEM('',(#129),#130);
#42=STYLED_ITEM('',(#131),#132);
#43=STYLED_ITEM('',(#133),#134);
#44=STYLED_ITEM('',(#135),#136);
#45=STYLED_ITEM('',(#137),#138);
#46=STYLED_ITEM('',(#139),#140);
#47=STYLED_ITEM('',(#141),#142);
#48=STYLED_ITEM('',(#143),#144);
#49=STYLED_ITEM('',(#145),#146);
#50=STYLED_ITEM('',(#147),#148);
#51=STYLED_ITEM('',(#149),#150);
#52=STYLED_ITEM('',(#151),#152);
#53=STYLED_ITEM('',(#153),#154);
#54=APPLICATION_CONTEXT(' ');
#55=PRODUCT_CATEGORY('part','NONE');
#56=PRODUCT_RELATED_PRODUCT_CATEGORY('detail',' ',(#155));
#57=PRODUCT_DEFINITION_SHAPE('NONE','NONE',#156);
#58=ADVANCED_BREP_SHAPE_REPRESENTATION('1',(#106,#157),#6);
#61=UNCERTAINTY_MEASURE_WITH_UNIT(LENGTH_MEASURE(1.0E-006),#63,'','');
#63= (CONVERSION_BASED_UNIT('MILLIMETRE',#160)LENGTH_UNIT()NAMED_UNIT(#163));
#64= (NAMED_UNIT(#165)PLANE_ANGLE_UNIT()SI_UNIT($,.RADIAN.));
#65= (NAMED_UNIT(#165)SOLID_ANGLE_UNIT()SI_UNIT($,.STERADIAN.));
#67=PRESENTATION_STYLE_ASSIGNMENT((#171));
#68=EDGE_CURVE('',#110,#102,#172,.T.);
#69=PRESENTATION_STYLE_ASSIGNMENT((#173));
#70=EDGE_CURVE('',#122,#116,#174,.T.);
#71=PRESENTATION_STYLE_ASSIGNMENT((#175));
#72=ADVANCED_FACE('',(#176),#177,.T.);
#73=PRESENTATION_STYLE_ASSIGNMENT((#178));
#74=EDGE_CURVE('',#128,#84,#179,.T.);
#75=PRESENTATION_STYLE_ASSIGNMENT((#180));
#76=VERTEX_POINT('',#181);
#77=PRESENTATION_STYLE_ASSIGNMENT((#182));
#78=EDGE_CURVE('',#76,#126,#183,.T.);
#79=PRESENTATION_STYLE_ASSIGNMENT((#184));
#80=VERTEX_POINT('',#185);
#81=PRESENTATION_STYLE_ASSIGNMENT((#186));
#82=ADVANCED_FACE('',(#187),#188,.T.);
#83=PRESENTATION_STYLE_ASSIGNMENT((#189));
#84=VERTEX_POINT('',#190);
#85=PRESENTATION_STYLE_ASSIGNMENT((#191));
#86=ADVANCED_FACE('',(#192),#193,.T.);
#87=PRESENTATION_STYLE_ASSIGNMENT((#194));
#88=EDGE_CURVE('',#76,#102,#195,.T.);
#89=PRESENTATION_STYLE_ASSIGNMENT((#196));
#90=ADVANCED_FACE('',(#197),#198,.T.);
#91=PRESENTATION_STYLE_ASSIGNMENT((#199));
#92=EDGE_CURVE('',#138,#148,#200,.T.);
#93=PRESENTATION_STYLE_ASSIGNMENT((#201));
#94=EDGE_CURVE('',#128,#116,#202,.T.);
#95=PRESENTATION_STYLE_ASSIGNMENT((#203));
#96=VERTEX_POINT('',#204);
#97=PRESENTATION_STYLE_ASSIGNMENT((#205));
#98=ADVANCED_FACE('',(#206),#207,.T.);
#99=PRESENTATION_STYLE_ASSIGNMENT((#208));
#100=EDGE_CURVE('',#138,#122,#209,.T.);
#101=PRESENTATION_STYLE_ASSIGNMENT((#210));
#102=VERTEX_POINT('',#211);
#103=PRESENTATION_STYLE_ASSIGNMENT((#212));
#104=EDGE_CURVE('',#80,#96,#213,.T.);
#105=PRESENTATION_STYLE_ASSIGNMENT((#214));
#106=MANIFOLD_SOLID_BREP('1',#215);
#107=PRESENTATION_STYLE_ASSIGNMENT((#216));
#108=EDGE_CURVE('',#102,#96,#217,.T.);
#109=PRESENTATION_STYLE_ASSIGNMENT((#218));
#110=VERTEX_POINT('',#219);
#111=PRESENTATION_STYLE_ASSIGNMENT((#220));
#112=EDGE_CURVE('',#80,#110,#221,.T.);
#113=PRESENTATION_STYLE_ASSIGNMENT((#222));
#114=EDGE_CURVE('',#102,#110,#223,.T.);
#115=PRESENTATION_STYLE_ASSIGNMENT((#224));
#116=VERTEX_POINT('',#225);
#117=PRESENTATION_STYLE_ASSIGNMENT((#226));
#118=EDGE_CURVE('',#122,#84,#227,.T.);
#119=PRESENTATION_STYLE_ASSIGNMENT((#228));
#120=ADVANCED_FACE('',(#229),#230,.T.);
#121=PRESENTATION_STYLE_ASSIGNMENT((#231));
#122=VERTEX_POINT('',#232);
#123=PRESENTATION_STYLE_ASSIGNMENT((#233));
#124=EDGE_CURVE('',#84,#122,#234,.T.);
#125=PRESENTATION_STYLE_ASSIGNMENT((#235));
#126=VERTEX_POINT('',#236);
#127=PRESENTATION_STYLE_ASSIGNMENT((#237));
#128=VERTEX_POINT('',#238);
#129=PRESENTATION_STYLE_ASSIGNMENT((#239));
#130=EDGE_CURVE('',#96,#80,#240,.T.);
#131=PRESENTATION_STYLE_ASSIGNMENT((#241));
#132=EDGE_CURVE('',#110,#126,#242,.T.);
#133=PRESENTATION_STYLE_ASSIGNMENT((#243));
#134=ADVANCED_FACE('',(#244,#245),#246,.T.);
#135=PRESENTATION_STYLE_ASSIGNMENT((#247));
#136=ADVANCED_FACE('',(#248),#249,.T.);
#137=PRESENTATION_STYLE_ASSIGNMENT((#250));
#138=VERTEX_POINT('',#251);
#139=PRESENTATION_STYLE_ASSIGNMENT((#252));
#140=ADVANCED_FACE('',(#253),#254,.T.);
#141=PRESENTATION_STYLE_ASSIGNMENT((#255));
#142=EDGE_CURVE('',#148,#138,#256,.T.);
#143=PRESENTATION_STYLE_ASSIGNMENT((#257));
#144=ADVANCED_FACE('',(#258),#259,.T.);
#145=PRESENTATION_STYLE_ASSIGNMENT((#260));
#146=EDGE_CURVE('',#126,#76,#261,.T.);
#147=PRESENTATION_STYLE_ASSIGNMENT((#262));
#148=VERTEX_POINT('',#263);
#149=PRESENTATION_STYLE_ASSIGNMENT((#264));
#150=EDGE_CURVE('',#116,#128,#265,.T.);
#151=PRESENTATION_STYLE_ASSIGNMENT((#266));
#152=EDGE_CURVE('',#84,#148,#267,.T.);
#153=PRESENTATION_STYLE_ASSIGNMENT((#268));
#154=ADVANCED_FACE('',(#269),#270,.T.);
#155=PRODUCT('1','1','PART-1-DESC',(#271));
#156=PRODUCT_DEFINITION('NONE','NONE',#272,#2);
#157=AXIS2_PLACEMENT_3D('',#273,#274,#275);
#160=LENGTH_MEASURE_WITH_UNIT(LENGTH_MEASURE(1.0),#276);
#163=DIMENSIONAL_EXPONENTS(1.0,0.0,0.0,0.0,0.0,0.0,0.0);
#165=DIMENSIONAL_EXPONENTS(0.0,0.0,0.0,0.0,0.0,0.0,0.0);
#171=CURVE_STYLE('',#277,POSITIVE_LENGTH_MEASURE(1.0E-006),#278);
#172=CIRCLE('',#279,9.525);
#173=CURVE_STYLE('',#280,POSITIVE_LENGTH_MEASURE(1.0E-006),#281);
#174=LINE('',#282,#283);
#175=SURFACE_STYLE_USAGE(.BOTH.,#284);
#176=FACE_OUTER_BOUND('',#285,.T.);
#177=CONICAL_SURFACE('',#286,8.596282885,1.0471975511966);
#178=CURVE_STYLE('',#287,POSITIVE_LENGTH_MEASURE(1.0E-006),#288);
#179=LINE('',#289,#290);
#180=POINT_STYLE(' ',#291,POSITIVE_LENGTH_MEASURE(1.0E-006),#292);
#181=CARTESIAN_POINT('',(0.0,8.83737582939516,7.105427357601E-015));
#182=CURVE_STYLE('',#293,POSITIVE_LENGTH_MEASURE(1.0E-006),#294);
#183=CIRCLE('',#295,8.83737582939516);
#184=POINT_STYLE(' ',#296,POSITIVE_LENGTH_MEASURE(1.0E-006),#297);
#185=CARTESIAN_POINT('',(0.0,-9.525,-67.7));
#186=SURFACE_STYLE_USAGE(.BOTH.,#298);
#187=FACE_OUTER_BOUND('',#299,.T.);
#188=CONICAL_SURFACE('',#300,9.18118791469758,0.523598775598298);
#189=POINT_STYLE(' ',#301,POSITIVE_LENGTH_MEASURE(1.0E-006),#302);
#190=CARTESIAN_POINT('',(1.15866130166904E-015,-9.4615,-100.600933331495));
#191=SURFACE_STYLE_USAGE(.BOTH.,#303);
#192=FACE_OUTER_BOUND('',#304,.T.);
#193=CONICAL_SURFACE('',#305,9.18118791469758,0.523598775598298);
#194=CURVE_STYLE('',#306,POSITIVE_LENGTH_MEASURE(1.0E-006),#307);
#195=LINE('',#308,#309);
#196=SURFACE_STYLE_USAGE(.BOTH.,#310);
#197=FACE_OUTER_BOUND('',#311,.T.);
#198=CYLINDRICAL_SURFACE('',#312,9.525);
#199=CURVE_STYLE('',#313,POSITIVE_LENGTH_MEASURE(1.0E-006),#314);
#200=CIRCLE('',#315,9.4615);
#201=CURVE_STYLE('',#316,POSITIVE_LENGTH_MEASURE(1.0E-006),#317);
#202=CIRCLE('',#318,7.73106577);
#203=POINT_STYLE(' ',#319,POSITIVE_LENGTH_MEASURE(1.0E-006),#320);
#204=CARTESIAN_POINT('',(-1.16643755201581E-015,9.525,-67.7));
#205=SURFACE_STYLE_USAGE(.BOTH.,#321);
#206=FACE_OUTER_BOUND('',#322,.T.);
#207=CYLINDRICAL_SURFACE('',#323,9.4615);
#208=CURVE_STYLE('',#324,POSITIVE_LENGTH_MEASURE(1.0E-006),#325);
#209=LINE('',#326,#327);
#210=POINT_STYLE(' ',#328,POSITIVE_LENGTH_MEASURE(1.0E-006),#329);
#211=CARTESIAN_POINT('',(0.0,9.525,-1.191));
#212=CURVE_STYLE('',#330,POSITIVE_LENGTH_MEASURE(1.0E-006),#331);
#213=CIRCLE('',#332,9.525);
#214=SURFACE_STYLE_USAGE(.BOTH.,#333);
#215=CLOSED_SHELL('',(#144,#86,#72,#98,#140,#136,#134,#120,#82,#90,#154));
#216=CURVE_STYLE('',#334,POSITIVE_LENGTH_MEASURE(1.0E-006),#335);
#217=LINE('',#336,#337);
#218=POINT_STYLE(' ',#338,POSITIVE_LENGTH_MEASURE(1.0E-006),#339);
#219=CARTESIAN_POINT('',(1.16643755201581E-015,-9.525,-1.191));
#220=CURVE_STYLE('',#340,POSITIVE_LENGTH_MEASURE(1.0E-006),#341);
#221=LINE('',#342,#343);
#222=CURVE_STYLE('',#344,POSITIVE_LENGTH_MEASURE(1.0E-006),#345);
#223=CIRCLE('',#346,9.525);
#224=POINT_STYLE(' ',#347,POSITIVE_LENGTH_MEASURE(1.0E-006),#348);
#225=CARTESIAN_POINT('',(0.0,7.73106577,-101.6));
#226=CURVE_STYLE('',#349,POSITIVE_LENGTH_MEASURE(1.0E-006),#350);
#227=CIRCLE('',#351,9.4615);
#228=SURFACE_STYLE_USAGE(.BOTH.,#352);
#229=FACE_OUTER_BOUND('',#353,.T.);
#230=PLANE('',#354);
#231=POINT_STYLE(' ',#355,POSITIVE_LENGTH_MEASURE(1.0E-006),#356);
#232=CARTESIAN_POINT('',(0.0,9.4615,-100.600933331495));
#233=CURVE_STYLE('',#357,POSITIVE_LENGTH_MEASURE(1.0E-006),#358);
#234=CIRCLE('',#359,9.4615);
#235=POINT_STYLE(' ',#360,POSITIVE_LENGTH_MEASURE(1.0E-006),#361);
#236=CARTESIAN_POINT('',(1.08223065917936E-015,-8.83737582939516,7.105427357601E-015));
#237=POINT_STYLE(' ',#362,POSITIVE_LENGTH_MEASURE(1.0E-006),#363);
#238=CARTESIAN_POINT('',(9.46751226376069E-016,-7.73106577,-101.6));
#239=CURVE_STYLE('',#364,POSITIVE_LENGTH_MEASURE(1.0E-006),#365);
#240=CIRCLE('',#366,9.525);
#241=CURVE_STYLE('',#367,POSITIVE_LENGTH_MEASURE(1.0E-006),#368);
#242=LINE('',#369,#370);
#243=SURFACE_STYLE_USAGE(.BOTH.,#371);
#244=FACE_BOUND('',#372,.T.);
#245=FACE_OUTER_BOUND('',#373,.T.);
#246=PLANE('',#374);
#247=SURFACE_STYLE_USAGE(.BOTH.,#375);
#248=FACE_OUTER_BOUND('',#376,.T.);
#249=CONICAL_SURFACE('',#377,8.596282885,1.0471975511966);
#250=POINT_STYLE(' ',#378,POSITIVE_LENGTH_MEASURE(1.0E-006),#379);
#251=CARTESIAN_POINT('',(0.0,9.4615,-67.7));
#252=SURFACE_STYLE_USAGE(.BOTH.,#380);
#253=FACE_OUTER_BOUND('',#381,.T.);
#254=CYLINDRICAL_SURFACE('',#382,9.4615);
#255=CURVE_STYLE('',#383,POSITIVE_LENGTH_MEASURE(1.0E-006),#384);
#256=CIRCLE('',#385,9.4615);
#257=SURFACE_STYLE_USAGE(.BOTH.,#386);
#258=FACE_OUTER_BOUND('',#387,.T.);
#259=CYLINDRICAL_SURFACE('',#388,9.525);
#260=CURVE_STYLE('',#389,POSITIVE_LENGTH_MEASURE(1.0E-006),#390);
#261=CIRCLE('',#391,8.83737582939516);
#262=POINT_STYLE(' ',#392,POSITIVE_LENGTH_MEASURE(1.0E-006),#393);
#263=CARTESIAN_POINT('',(1.15866130166904E-015,-9.4615,-67.7));
#264=CURVE_STYLE('',#394,POSITIVE_LENGTH_MEASURE(1.0E-006),#395);
#265=CIRCLE('',#396,7.73106577);
#266=CURVE_STYLE('',#397,POSITIVE_LENGTH_MEASURE(1.0E-006),#398);
#267=LINE('',#399,#400);
#268=SURFACE_STYLE_USAGE(.BOTH.,#401);
#269=FACE_OUTER_BOUND('',#402,.T.);
#270=PLANE('',#403);
#271=PRODUCT_CONTEXT('',#54,'mechanical');
#272=PRODUCT_DEFINITION_FORMATION_WITH_SPECIFIED_SOURCE(' ','NONE',#155,.NOT_KNOWN.);
#273=CARTESIAN_POINT('',(0.0,0.0,0.0));
#274=DIRECTION('',(0.0,0.0,1.0));
#275=DIRECTION('',(1.0,0.0,0.0));
#276= (NAMED_UNIT(#163)LENGTH_UNIT()SI_UNIT(.MILLI.,.METRE.));
#277=DRAUGHTING_PRE_DEFINED_CURVE_FONT('continuous');
#278=COLOUR_RGB('',0.498039215803146,0.498039215803146,0.498039215803146);
#279=AXIS2_PLACEMENT_3D('',#405,#406,#407);
#280=DRAUGHTING_PRE_DEFINED_CURVE_FONT('continuous');
#281=COLOUR_RGB('',0.800000011920929,0.800000011920929,0.800000011920929);
#282=CARTESIAN_POINT('',(-1.05270626402256E-015,8.596282885,-101.100466665747));
#283=VECTOR('',#408,1.0);
#284=SURFACE_SIDE_STYLE('',(#409));
#285=EDGE_LOOP('',(#410,#411,#412,#413));
#286=AXIS2_PLACEMENT_3D('',#414,#415,#416);
#287=DRAUGHTING_PRE_DEFINED_CURVE_FONT('continuous');
#288=COLOUR_RGB('',0.800000011920929,0.800000011920929,0.800000011920929);
#289=CARTESIAN_POINT('',(1.05270626402256E-015,-8.596282885,-101.100466665747));
#290=VECTOR('',#417,1.0);
#291=PRE_DEFINED_MARKER('');
#292=COLOUR_RGB('',0.498039215803146,0.498039215803146,0.498039215803146);
#293=DRAUGHTING_PRE_DEFINED_CURVE_FONT('continuous');
#294=COLOUR_RGB('',0.498039215803146,0.498039215803146,0.498039215803146);
#295=AXIS2_PLACEMENT_3D('',#418,#419,#420);
#296=PRE_DEFINED_MARKER('');
#297=COLOUR_RGB('',0.498039215803146,0.498039215803146,0.498039215803146);
#298=SURFACE_SIDE_STYLE('',(#421));
#299=EDGE_LOOP('',(#422,#423,#424,#425));
#300=AXIS2_PLACEMENT_3D('',#426,#427,#428);
#301=PRE_DEFINED_MARKER('');
#302=COLOUR_RGB('',0.800000011920929,0.800000011920929,0.800000011920929);
#303=SURFACE_SIDE_STYLE('',(#429));
#304=EDGE_LOOP('',(#430,#431,#432,#433));
#305=AXIS2_PLACEMENT_3D('',#434,#435,#436);
#306=DRAUGHTING_PRE_DEFINED_CURVE_FONT('continuous');
#307=COLOUR_RGB('',0.498039215803146,0.498039215803146,0.498039215803146);
#308=CARTESIAN_POINT('',(-1.12433410559759E-015,9.18118791469758,-0.595499999999994));
#309=VECTOR('',#437,1.0);
#310=SURFACE_SIDE_STYLE('',(#438));
#311=EDGE_LOOP('',(#439,#440,#441,#442));
#312=AXIS2_PLACEMENT_3D('',#443,#444,#445);
#313=DRAUGHTING_PRE_DEFINED_CURVE_FONT('continuous');
#314=COLOUR_RGB('',0.498039215803146,0.498039215803146,0.498039215803146);
#315=AXIS2_PLACEMENT_3D('',#446,#447,#448);
#316=DRAUGHTING_PRE_DEFINED_CURVE_FONT('continuous');
#317=COLOUR_RGB('',0.498039215803146,0.498039215803146,0.498039215803146);
#318=AXIS2_PLACEMENT_3D('',#449,#450,#451);
#319=PRE_DEFINED_MARKER('');
#320=COLOUR_RGB('',0.498039215803146,0.498039215803146,0.498039215803146);
#321=SURFACE_SIDE_STYLE('',(#452));
#322=EDGE_LOOP('',(#453,#454,#455,#456));
#323=AXIS2_PLACEMENT_3D('',#457,#458,#459);
#324=DRAUGHTING_PRE_DEFINED_CURVE_FONT('continuous');
#325=COLOUR_RGB('',0.800000011920929,0.800000011920929,0.800000011920929);
#326=CARTESIAN_POINT('',(-1.15866130166904E-015,9.4615,-84.1504666657473));
#327=VECTOR('',#460,1.0);
#328=PRE_DEFINED_MARKER('');
#329=COLOUR_RGB('',0.498039215803146,0.498039215803146,0.498039215803146);
#330=DRAUGHTING_PRE_DEFINED_CURVE_FONT('continuous');
#331=COLOUR_RGB('',0.498039215803146,0.498039215803146,0.498039215803146);
#332=AXIS2_PLACEMENT_3D('',#461,#462,#463);
#333=SURFACE_SIDE_STYLE('',(#464));
#334=DRAUGHTING_PRE_DEFINED_CURVE_FONT('continuous');
#335=COLOUR_RGB('',0.498039215803146,0.498039215803146,0.498039215803146);
#336=CARTESIAN_POINT('',(-1.16643755201581E-015,9.525,-26.3955));
#337=VECTOR('',#465,1.0);
#338=PRE_DEFINED_MARKER('');
#339=COLOUR_RGB('',0.498039215803146,0.498039215803146,0.498039215803146);
#340=DRAUGHTING_PRE_DEFINED_CURVE_FONT('continuous');
#341=COLOUR_RGB('',0.498039215803146,0.498039215803146,0.498039215803146);
#342=CARTESIAN_POINT('',(1.16643755201581E-015,-9.525,-26.3955));
#343=VECTOR('',#466,1.0);
#344=DRAUGHTING_PRE_DEFINED_CURVE_FONT('continuous');
#345=COLOUR_RGB('',0.498039215803146,0.498039215803146,0.498039215803146);
#346=AXIS2_PLACEMENT_3D('',#467,#468,#469);
#347=PRE_DEFINED_MARKER('');
#348=COLOUR_RGB('',0.498039215803146,0.498039215803146,0.498039215803146);
#349=DRAUGHTING_PRE_DEFINED_CURVE_FONT('continuous');
#350=COLOUR_RGB('',0.800000011920929,0.800000011920929,0.800000011920929);
#351=AXIS2_PLACEMENT_3D('',#470,#471,#472);
#352=SURFACE_SIDE_STYLE('',(#473));
#353=EDGE_LOOP('',(#474,#475));
#354=AXIS2_PLACEMENT_3D('',#476,#477,#478);
#355=PRE_DEFINED_MARKER('');
#356=COLOUR_RGB('',0.800000011920929,0.800000011920929,0.800000011920929);
#357=DRAUGHTING_PRE_DEFINED_CURVE_FONT('continuous');
#358=COLOUR_RGB('',0.800000011920929,0.800000011920929,0.800000011920929);
#359=AXIS2_PLACEMENT_3D('',#479,#480,#481);
#360=PRE_DEFINED_MARKER('');
#361=COLOUR_RGB('',0.498039215803146,0.498039215803146,0.498039215803146);
#362=PRE_DEFINED_MARKER('');
#363=COLOUR_RGB('',0.498039215803146,0.498039215803146,0.498039215803146);
#364=DRAUGHTING_PRE_DEFINED_CURVE_FONT('continuous');
#365=COLOUR_RGB('',0.498039215803146,0.498039215803146,0.498039215803146);
#366=AXIS2_PLACEMENT_3D('',#482,#483,#484);
#367=DRAUGHTING_PRE_DEFINED_CURVE_FONT('continuous');
#368=COLOUR_RGB('',0.498039215803146,0.498039215803146,0.498039215803146);
#369=CARTESIAN_POINT('',(1.12433410559759E-015,-9.18118791469758,-0.595499999999994));
#370=VECTOR('',#485,1.0);
#371=SURFACE_SIDE_STYLE('',(#486));
#372=EDGE_LOOP('',(#487,#488));
#373=EDGE_LOOP('',(#489,#490));
#374=AXIS2_PLACEMENT_3D('',#491,#492,#493);
#375=SURFACE_SIDE_STYLE('',(#494));
#376=EDGE_LOOP('',(#495,#496,#497,#498));
#377=AXIS2_PLACEMENT_3D('',#499,#500,#501);
#378=PRE_DEFINED_MARKER('');
#379=COLOUR_RGB('',0.498039215803146,0.498039215803146,0.498039215803146);
#380=SURFACE_SIDE_STYLE('',(#502));
#381=EDGE_LOOP('',(#503,#504,#505,#506));
#382=AXIS2_PLACEMENT_3D('',#507,#508,#509);
#383=DRAUGHTING_PRE_DEFINED_CURVE_FONT('continuous');
#384=COLOUR_RGB('',0.498039215803146,0.498039215803146,0.498039215803146);
#385=AXIS2_PLACEMENT_3D('',#510,#511,#512);
#386=SURFACE_SIDE_STYLE('',(#513));
#387=EDGE_LOOP('',(#514,#515,#516,#517));
#388=AXIS2_PLACEMENT_3D('',#518,#519,#520);
#389=DRAUGHTING_PRE_DEFINED_CURVE_FONT('continuous');
#390=COLOUR_RGB('',0.498039215803146,0.498039215803146,0.498039215803146);
#391=AXIS2_PLACEMENT_3D('',#521,#522,#523);
#392=PRE_DEFINED_MARKER('');
#393=COLOUR_RGB('',0.498039215803146,0.498039215803146,0.498039215803146);
#394=DRAUGHTING_PRE_DEFINED_CURVE_FONT('continuous');
#395=COLOUR_RGB('',0.498039215803146,0.498039215803146,0.498039215803146);
#396=AXIS2_PLACEMENT_3D('',#524,#525,#526);
#397=DRAUGHTING_PRE_DEFINED_CURVE_FONT('continuous');
#398=COLOUR_RGB('',0.800000011920929,0.800000011920929,0.800000011920929);
#399=CARTESIAN_POINT('',(1.15866130166904E-015,-9.4615,-84.1504666657473));
#400=VECTOR('',#527,1.0);
#401=SURFACE_SIDE_STYLE('',(#528));
#402=EDGE_LOOP('',(#529,#530));
#403=AXIS2_PLACEMENT_3D('',#531,#532,#533);
#405=CARTESIAN_POINT('',(0.0,0.0,-1.191));
#406=DIRECTION('',(0.0,0.0,-1.0));
#407=DIRECTION('',(0.0,1.0,0.0));
#408=DIRECTION('',(1.06054021204601E-016,-0.866025403784439,-0.5));
#409=SURFACE_STYLE_FILL_AREA(#534);
#410=ORIENTED_EDGE('',*,*,#70,.F.);
#411=ORIENTED_EDGE('',*,*,#118,.T.);
#412=ORIENTED_EDGE('',*,*,#74,.F.);
#413=ORIENTED_EDGE('',*,*,#150,.F.);
#414=CARTESIAN_POINT('',(0.0,0.0,-101.100466665747));
#415=DIRECTION('',(-0.0,-0.0,1.0));
#416=DIRECTION('',(0.0,1.0,0.0));
#417=DIRECTION('',(1.06054021204601E-016,-0.866025403784439,0.5));
#418=CARTESIAN_POINT('',(0.0,0.0,7.105427357601E-015));
#419=DIRECTION('',(0.0,0.0,-1.0));
#420=DIRECTION('',(0.0,1.0,0.0));
#421=SURFACE_STYLE_FILL_AREA(#535);
#422=ORIENTED_EDGE('',*,*,#88,.T.);
#423=ORIENTED_EDGE('',*,*,#68,.F.);
#424=ORIENTED_EDGE('',*,*,#132,.T.);
#425=ORIENTED_EDGE('',*,*,#146,.T.);
#426=CARTESIAN_POINT('',(0.0,0.0,-0.595499999999994));
#427=DIRECTION('',(0.0,-0.0,-1.0));
#428=DIRECTION('',(0.0,1.0,0.0));
#429=SURFACE_STYLE_FILL_AREA(#536);
#430=ORIENTED_EDGE('',*,*,#88,.F.);
#431=ORIENTED_EDGE('',*,*,#78,.T.);
#432=ORIENTED_EDGE('',*,*,#132,.F.);
#433=ORIENTED_EDGE('',*,*,#114,.F.);
#434=CARTESIAN_POINT('',(0.0,0.0,-0.595499999999994));
#435=DIRECTION('',(0.0,-0.0,-1.0));
#436=DIRECTION('',(0.0,1.0,0.0));
#437=DIRECTION('',(-6.12303176911187E-017,0.499999999999999,-0.866025403784439));
#438=SURFACE_STYLE_FILL_AREA(#537);
#439=ORIENTED_EDGE('',*,*,#108,.T.);
#440=ORIENTED_EDGE('',*,*,#104,.F.);
#441=ORIENTED_EDGE('',*,*,#112,.T.);
#442=ORIENTED_EDGE('',*,*,#68,.T.);
#443=CARTESIAN_POINT('',(0.0,0.0,-26.3955));
#444=DIRECTION('',(-0.0,-0.0,1.0));
#445=DIRECTION('',(0.0,1.0,0.0));
#446=CARTESIAN_POINT('',(0.0,0.0,-67.7));
#447=DIRECTION('',(0.0,-0.0,1.0));
#448=DIRECTION('',(0.0,1.0,0.0));
#449=CARTESIAN_POINT('',(0.0,0.0,-101.6));
#450=DIRECTION('',(0.0,0.0,-1.0));
#451=DIRECTION('',(0.0,1.0,0.0));
#452=SURFACE_STYLE_FILL_AREA(#538);
#453=ORIENTED_EDGE('',*,*,#100,.F.);
#454=ORIENTED_EDGE('',*,*,#142,.F.);
#455=ORIENTED_EDGE('',*,*,#152,.F.);
#456=ORIENTED_EDGE('',*,*,#118,.F.);
#457=CARTESIAN_POINT('',(0.0,0.0,-84.1504666657473));
#458=DIRECTION('',(-0.0,-0.0,1.0));
#459=DIRECTION('',(0.0,1.0,0.0));
#460=DIRECTION('',(0.0,0.0,-1.0));
#461=CARTESIAN_POINT('',(0.0,0.0,-67.7));
#462=DIRECTION('',(0.0,0.0,-1.0));
#463=DIRECTION('',(0.0,-1.0,0.0));
#464=SURFACE_STYLE_FILL_AREA(#539);
#465=DIRECTION('',(0.0,0.0,-1.0));
#466=DIRECTION('',(-0.0,-0.0,1.0));
#467=CARTESIAN_POINT('',(0.0,0.0,-1.191));
#468=DIRECTION('',(0.0,0.0,-1.0));
#469=DIRECTION('',(0.0,1.0,0.0));
#470=CARTESIAN_POINT('',(0.0,0.0,-100.600933331495));
#471=DIRECTION('',(0.0,0.0,-1.0));
#472=DIRECTION('',(0.0,1.0,0.0));
#473=SURFACE_STYLE_FILL_AREA(#540);
#474=ORIENTED_EDGE('',*,*,#78,.F.);
#475=ORIENTED_EDGE('',*,*,#146,.F.);
#476=CARTESIAN_POINT('',(0.0,4.41868791469758,7.105427357601E-015));
#477=DIRECTION('',(-0.0,0.0,1.0));
#478=DIRECTION('',(0.0,-1.0,0.0));
#479=CARTESIAN_POINT('',(0.0,0.0,-100.600933331495));
#480=DIRECTION('',(0.0,0.0,-1.0));
#481=DIRECTION('',(0.0,1.0,0.0));
#482=CARTESIAN_POINT('',(0.0,0.0,-67.7));
#483=DIRECTION('',(0.0,0.0,-1.0));
#484=DIRECTION('',(0.0,-1.0,0.0));
#485=DIRECTION('',(-6.12303176911187E-017,0.499999999999999,0.866025403784439));
#486=SURFACE_STYLE_FILL_AREA(#541);
#487=ORIENTED_EDGE('',*,*,#92,.T.);
#488=ORIENTED_EDGE('',*,*,#142,.T.);
#489=ORIENTED_EDGE('',*,*,#104,.T.);
#490=ORIENTED_EDGE('',*,*,#130,.T.);
#491=CARTESIAN_POINT('',(0.0,0.0,-67.7));
#492=DIRECTION('',(0.0,0.0,-1.0));
#493=DIRECTION('',(0.0,-1.0,0.0));
#494=SURFACE_STYLE_FILL_AREA(#542);
#495=ORIENTED_EDGE('',*,*,#70,.T.);
#496=ORIENTED_EDGE('',*,*,#94,.F.);
#497=ORIENTED_EDGE('',*,*,#74,.T.);
#498=ORIENTED_EDGE('',*,*,#124,.T.);
#499=CARTESIAN_POINT('',(0.0,0.0,-101.100466665747));
#500=DIRECTION('',(-0.0,-0.0,1.0));
#501=DIRECTION('',(0.0,1.0,0.0));
#502=SURFACE_STYLE_FILL_AREA(#543);
#503=ORIENTED_EDGE('',*,*,#100,.T.);
#504=ORIENTED_EDGE('',*,*,#124,.F.);
#505=ORIENTED_EDGE('',*,*,#152,.T.);
#506=ORIENTED_EDGE('',*,*,#92,.F.);
#507=CARTESIAN_POINT('',(0.0,0.0,-84.1504666657473));
#508=DIRECTION('',(-0.0,-0.0,1.0));
#509=DIRECTION('',(0.0,1.0,0.0));
#510=CARTESIAN_POINT('',(0.0,0.0,-67.7));
#511=DIRECTION('',(0.0,-0.0,1.0));
#512=DIRECTION('',(0.0,1.0,0.0));
#513=SURFACE_STYLE_FILL_AREA(#544);
#514=ORIENTED_EDGE('',*,*,#108,.F.);
#515=ORIENTED_EDGE('',*,*,#114,.T.);
#516=ORIENTED_EDGE('',*,*,#112,.F.);
#517=ORIENTED_EDGE('',*,*,#130,.F.);
#518=CARTESIAN_POINT('',(0.0,0.0,-26.3955));
#519=DIRECTION('',(-0.0,-0.0,1.0));
#520=DIRECTION('',(0.0,1.0,0.0));
#521=CARTESIAN_POINT('',(0.0,0.0,7.105427357601E-015));
#522=DIRECTION('',(0.0,0.0,-1.0));
#523=DIRECTION('',(0.0,1.0,0.0));
#524=CARTESIAN_POINT('',(0.0,0.0,-101.6));
#525=DIRECTION('',(0.0,0.0,-1.0));
#526=DIRECTION('',(0.0,1.0,0.0));
#527=DIRECTION('',(-0.0,-0.0,1.0));
#528=SURFACE_STYLE_FILL_AREA(#545);
#529=ORIENTED_EDGE('',*,*,#150,.T.);
#530=ORIENTED_EDGE('',*,*,#94,.T.);
#531=CARTESIAN_POINT('',(0.0,3.865532885,-101.6));
#532=DIRECTION('',(0.0,0.0,-1.0));
#533=DIRECTION('',(0.0,1.0,0.0));
#534=FILL_AREA_STYLE('',(#546));
#535=FILL_AREA_STYLE('',(#547));
#536=FILL_AREA_STYLE('',(#548));
#537=FILL_AREA_STYLE('',(#549));
#538=FILL_AREA_STYLE('',(#550));
#539=FILL_AREA_STYLE('',(#551));
#540=FILL_AREA_STYLE('',(#552));
#541=FILL_AREA_STYLE('',(#553));
#542=FILL_AREA_STYLE('',(#554));
#543=FILL_AREA_STYLE('',(#555));
#544=FILL_AREA_STYLE('',(#556));
#545=FILL_AREA_STYLE('',(#557));
#546=FILL_AREA_STYLE_COLOUR('',#558);
#547=FILL_AREA_STYLE_COLOUR('',#559);
#548=FILL_AREA_STYLE_COLOUR('',#560);
#549=FILL_AREA_STYLE_COLOUR('',#561);
#550=FILL_AREA_STYLE_COLOUR('',#562);
#551=FILL_AREA_STYLE_COLOUR('',#563);
#552=FILL_AREA_STYLE_COLOUR('',#564);
#553=FILL_AREA_STYLE_COLOUR('',#565);
#554=FILL_AREA_STYLE_COLOUR('',#566);
#555=FILL_AREA_STYLE_COLOUR('',#567);
#556=FILL_AREA_STYLE_COLOUR('',#568);
#557=FILL_AREA_STYLE_COLOUR('',#569);
#558=COLOUR_RGB('',0.800000011920929,0.800000011920929,0.800000011920929);
#559=COLOUR_RGB('',0.498039215803146,0.498039215803146,0.498039215803146);
#560=COLOUR_RGB('',0.498039215803146,0.498039215803146,0.498039215803146);
#561=COLOUR_RGB('',0.498039215803146,0.498039215803146,0.498039215803146);
#562=COLOUR_RGB('',0.800000011920929,0.800000011920929,0.800000011920929);
#563=COLOUR_RGB('',0.498039215803146,0.498039215803146,0.498039215803146);
#564=COLOUR_RGB('',0.498039215803146,0.498039215803146,0.498039215803146);
#565=COLOUR_RGB('',0.498039215803146,0.498039215803146,0.498039215803146);
#566=COLOUR_RGB('',0.800000011920929,0.800000011920929,0.800000011920929);
#567=COLOUR_RGB('',0.800000011920929,0.800000011920929,0.800000011920929);
#568=COLOUR_RGB('',0.498039215803146,0.498039215803146,0.498039215803146);
#569=COLOUR_RGB('',0.498039215803146,0.498039215803146,0.498039215803146);
#570=AXIS2_PLACEMENT_3D('PCS',#571,#572,#573);
#571=CARTESIAN_POINT('',(0.0,0.0,0.0));
#572=DIRECTION('',(0.0,0.0,1.0));
#573=DIRECTION('',(1.0,0.0,0.0));
#574=AXIS2_PLACEMENT_3D('CIP',#575,#576,#577);
#575=CARTESIAN_POINT('',(0.0,0.0,-101.6));
#576=DIRECTION('',(0.0,0.0,1.0));
#577=DIRECTION('',(1.0,0.0,0.0));
#578=AXIS2_PLACEMENT_3D('CRP',#579,#580,#581);
#579=CARTESIAN_POINT('',(-9.4615,0.0,-101.6));
#580=DIRECTION('',(0.0,0.0,1.0));
#581=DIRECTION('',(1.0,0.0,0.0));
#582=AXIS2_PLACEMENT_3D('MCS',#583,#584,#585);
#583=CARTESIAN_POINT('',(0.0,0.0,-51.6));
#584=DIRECTION('',(0.0,0.0,1.0));
#585=DIRECTION('',(1.0,0.0,0.0));
#586=CONSTRUCTIVE_GEOMETRY_REPRESENTATION_RELATIONSHIP('coordinate systems',$,#58,#587);
#587=CONSTRUCTIVE_GEOMETRY_REPRESENTATION('coordinate systems',(#570,#574,#578,#582),#6);
ENDSEC;
END-ISO-10303-21;
