ISO-10303-21;
HEADER;
FILE_DESCRIPTION(('no description'),'unknown implementation level');
FILE_NAME('solid6IJqtPZoinsI4Oy40uketjyzvFo_1.STP','  ',('CIMSOURCE GmbH'),('CADClick - KiM GmbH - www.kimweb.de'),'unknown preprocess','ACIS','unknown authorization');
FILE_SCHEMA(('automotive_design'));
ENDSEC;
DATA;
#1=MECHANICAL_DESIGN_GEOMETRIC_PRESENTATION_REPRESENTATION(' ',(#10,#11,#12,#13,#14,#15,#16,#17,#18,#19,#20,#21,#22,#23,#24,#25,#26,#27,#28,#29,#30,#31,#32,#33,#34,#35,#36,#37,#38,#39,#40,#41,#42,#43,#44,#45,#46,#47,#48,#49,#50,#51,#52,#53),#6);
#2=PRODUCT_DEFINITION_CONTEXT('',#54,'design');
#3=APPLICATION_PROTOCOL_DEFINITION('INTERNATIONAL STANDARD','automotive_design',1994,#54);
#4=PRODUCT_CATEGORY_RELATIONSHIP('NONE','NONE',#55,#56);
#5=SHAPE_DEFINITION_REPRESENTATION(#57,#58);
#6= (GEOMETRIC_REPRESENTATION_CONTEXT(3)GLOBAL_UNCERTAINTY_ASSIGNED_CONTEXT((#61))GLOBAL_UNIT_ASSIGNED_CONTEXT((#63,#64,#65))REPRESENTATION_CONTEXT('NONE','WORKSPACE'));
#10=STYLED_ITEM('',(#67),#68);
#11=STYLED_ITEM('',(#69),#70);
#12=STYLED_ITEM('',(#71),#72);
#13=STYLED_ITEM('',(#73),#74);
#14=STYLED_ITEM('',(#75),#76);
#15=STYLED_ITEM('',(#77),#78);
#16=STYLED_ITEM('',(#79),#80);
#17=STYLED_ITEM('',(#81),#82);
#18=STYLED_ITEM('',(#83),#84);
#19=STYLED_ITEM('',(#85),#86);
#20=STYLED_ITEM('',(#87),#88);
#21=STYLED_ITEM('',(#89),#90);
#22=STYLED_ITEM('',(#91),#92);
#23=STYLED_ITEM('',(#93),#94);
#24=STYLED_ITEM('',(#95),#96);
#25=STYLED_ITEM('',(#97),#98);
#26=STYLED_ITEM('',(#99),#100);
#27=STYLED_ITEM('',(#101),#102);
#28=STYLED_ITEM('',(#103),#104);
#29=STYLED_ITEM('',(#105),#106);
#30=STYLED_ITEM('',(#107),#108);
#31=STYLED_ITEM('',(#109),#110);
#32=STYLED_ITEM('',(#111),#112);
#33=STYLED_ITEM('',(#113),#114);
#34=STYLED_ITEM('',(#115),#116);
#35=STYLED_ITEM('',(#117),#118);
#36=STYLED_ITEM('',(#119),#120);
#37=STYLED_ITEM('',(#121),#122);
#38=STYLED_ITEM('',(#123),#124);
#39=STYLED_ITEM('',(#125),#126);
#40=STYLED_ITEM('',(#127),#128);
#41=STYLED_ITEM('',(#129),#130);
#42=STYLED_ITEM('',(#131),#132);
#43=STYLED_ITEM('',(#133),#134);
#44=STYLED_ITEM('',(#135),#136);
#45=STYLED_ITEM('',(#137),#138);
#46=STYLED_ITEM('',(#139),#140);
#47=STYLED_ITEM('',(#141),#142);
#48=STYLED_ITEM('',(#143),#144);
#49=STYLED_ITEM('',(#145),#146);
#50=STYLED_ITEM('',(#147),#148);
#51=STYLED_ITEM('',(#149),#150);
#52=STYLED_ITEM('',(#151),#152);
#53=STYLED_ITEM('',(#153),#154);
#54=APPLICATION_CONTEXT(' ');
#55=PRODUCT_CATEGORY('part','NONE');
#56=PRODUCT_RELATED_PRODUCT_CATEGORY('detail',' ',(#155));
#57=PRODUCT_DEFINITION_SHAPE('NONE','NONE',#156);
#58=ADVANCED_BREP_SHAPE_REPRESENTATION('1',(#104,#157),#6);
#61=UNCERTAINTY_MEASURE_WITH_UNIT(LENGTH_MEASURE(1.0E-006),#63,'','');
#63= (CONVERSION_BASED_UNIT('MILLIMETRE',#160)LENGTH_UNIT()NAMED_UNIT(#163));
#64= (NAMED_UNIT(#165)PLANE_ANGLE_UNIT()SI_UNIT($,.RADIAN.));
#65= (NAMED_UNIT(#165)SOLID_ANGLE_UNIT()SI_UNIT($,.STERADIAN.));
#67=PRESENTATION_STYLE_ASSIGNMENT((#171));
#68=EDGE_CURVE('',#96,#144,#172,.T.);
#69=PRESENTATION_STYLE_ASSIGNMENT((#173));
#70=EDGE_CURVE('',#128,#132,#174,.T.);
#71=PRESENTATION_STYLE_ASSIGNMENT((#175));
#72=EDGE_CURVE('',#144,#148,#176,.T.);
#73=PRESENTATION_STYLE_ASSIGNMENT((#177));
#74=EDGE_CURVE('',#84,#96,#178,.T.);
#75=PRESENTATION_STYLE_ASSIGNMENT((#179));
#76=EDGE_CURVE('',#128,#138,#180,.T.);
#77=PRESENTATION_STYLE_ASSIGNMENT((#181));
#78=EDGE_CURVE('',#98,#142,#182,.T.);
#79=PRESENTATION_STYLE_ASSIGNMENT((#183));
#80=ADVANCED_FACE('',(#184),#185,.T.);
#81=PRESENTATION_STYLE_ASSIGNMENT((#186));
#82=ADVANCED_FACE('',(#187,#188),#189,.T.);
#83=PRESENTATION_STYLE_ASSIGNMENT((#190));
#84=VERTEX_POINT('',#191);
#85=PRESENTATION_STYLE_ASSIGNMENT((#192));
#86=EDGE_CURVE('',#108,#146,#193,.T.);
#87=PRESENTATION_STYLE_ASSIGNMENT((#194));
#88=EDGE_CURVE('',#106,#132,#195,.T.);
#89=PRESENTATION_STYLE_ASSIGNMENT((#196));
#90=EDGE_CURVE('',#146,#108,#197,.T.);
#91=PRESENTATION_STYLE_ASSIGNMENT((#198));
#92=EDGE_CURVE('',#84,#142,#199,.T.);
#93=PRESENTATION_STYLE_ASSIGNMENT((#200));
#94=EDGE_CURVE('',#146,#106,#201,.T.);
#95=PRESENTATION_STYLE_ASSIGNMENT((#202));
#96=VERTEX_POINT('',#203);
#97=PRESENTATION_STYLE_ASSIGNMENT((#204));
#98=VERTEX_POINT('',#205);
#99=PRESENTATION_STYLE_ASSIGNMENT((#206));
#100=EDGE_CURVE('',#106,#138,#207,.T.);
#101=PRESENTATION_STYLE_ASSIGNMENT((#208));
#102=EDGE_CURVE('',#142,#98,#209,.T.);
#103=PRESENTATION_STYLE_ASSIGNMENT((#210));
#104=MANIFOLD_SOLID_BREP('1',#211);
#105=PRESENTATION_STYLE_ASSIGNMENT((#212));
#106=VERTEX_POINT('',#213);
#107=PRESENTATION_STYLE_ASSIGNMENT((#214));
#108=VERTEX_POINT('',#215);
#109=PRESENTATION_STYLE_ASSIGNMENT((#216));
#110=EDGE_CURVE('',#132,#106,#217,.T.);
#111=PRESENTATION_STYLE_ASSIGNMENT((#218));
#112=ADVANCED_FACE('',(#219),#220,.T.);
#113=PRESENTATION_STYLE_ASSIGNMENT((#221));
#114=EDGE_CURVE('',#148,#144,#222,.T.);
#115=PRESENTATION_STYLE_ASSIGNMENT((#223));
#116=ADVANCED_FACE('',(#224),#225,.T.);
#117=PRESENTATION_STYLE_ASSIGNMENT((#226));
#118=ADVANCED_FACE('',(#227),#228,.T.);
#119=PRESENTATION_STYLE_ASSIGNMENT((#229));
#120=ADVANCED_FACE('',(#230),#231,.T.);
#121=PRESENTATION_STYLE_ASSIGNMENT((#232));
#122=ADVANCED_FACE('',(#233),#234,.T.);
#123=PRESENTATION_STYLE_ASSIGNMENT((#235));
#124=ADVANCED_FACE('',(#236),#237,.T.);
#125=PRESENTATION_STYLE_ASSIGNMENT((#238));
#126=ADVANCED_FACE('',(#239),#240,.T.);
#127=PRESENTATION_STYLE_ASSIGNMENT((#241));
#128=VERTEX_POINT('',#242);
#129=PRESENTATION_STYLE_ASSIGNMENT((#243));
#130=EDGE_CURVE('',#148,#84,#244,.T.);
#131=PRESENTATION_STYLE_ASSIGNMENT((#245));
#132=VERTEX_POINT('',#246);
#133=PRESENTATION_STYLE_ASSIGNMENT((#247));
#134=ADVANCED_FACE('',(#248),#249,.T.);
#135=PRESENTATION_STYLE_ASSIGNMENT((#250));
#136=ADVANCED_FACE('',(#251),#252,.T.);
#137=PRESENTATION_STYLE_ASSIGNMENT((#253));
#138=VERTEX_POINT('',#254);
#139=PRESENTATION_STYLE_ASSIGNMENT((#255));
#140=EDGE_CURVE('',#138,#128,#256,.T.);
#141=PRESENTATION_STYLE_ASSIGNMENT((#257));
#142=VERTEX_POINT('',#258);
#143=PRESENTATION_STYLE_ASSIGNMENT((#259));
#144=VERTEX_POINT('',#260);
#145=PRESENTATION_STYLE_ASSIGNMENT((#261));
#146=VERTEX_POINT('',#262);
#147=PRESENTATION_STYLE_ASSIGNMENT((#263));
#148=VERTEX_POINT('',#264);
#149=PRESENTATION_STYLE_ASSIGNMENT((#265));
#150=EDGE_CURVE('',#98,#96,#266,.T.);
#151=PRESENTATION_STYLE_ASSIGNMENT((#267));
#152=EDGE_CURVE('',#132,#108,#268,.T.);
#153=PRESENTATION_STYLE_ASSIGNMENT((#269));
#154=EDGE_CURVE('',#96,#84,#270,.T.);
#155=PRODUCT('1','1','PART-1-DESC',(#271));
#156=PRODUCT_DEFINITION('NONE','NONE',#272,#2);
#157=AXIS2_PLACEMENT_3D('',#273,#274,#275);
#160=LENGTH_MEASURE_WITH_UNIT(LENGTH_MEASURE(1.0),#276);
#163=DIMENSIONAL_EXPONENTS(1.0,0.0,0.0,0.0,0.0,0.0,0.0);
#165=DIMENSIONAL_EXPONENTS(0.0,0.0,0.0,0.0,0.0,0.0,0.0);
#171=CURVE_STYLE('',#277,POSITIVE_LENGTH_MEASURE(1.0E-006),#278);
#172=LINE('',#279,#280);
#173=CURVE_STYLE('',#281,POSITIVE_LENGTH_MEASURE(1.0E-006),#282);
#174=LINE('',#283,#284);
#175=CURVE_STYLE('',#285,POSITIVE_LENGTH_MEASURE(1.0E-006),#286);
#176=CIRCLE('',#287,8.83737582939516);
#177=CURVE_STYLE('',#288,POSITIVE_LENGTH_MEASURE(1.0E-006),#289);
#178=CIRCLE('',#290,9.525);
#179=CURVE_STYLE('',#291,POSITIVE_LENGTH_MEASURE(1.0E-006),#292);
#180=CIRCLE('',#293,8.349078);
#181=CURVE_STYLE('',#294,POSITIVE_LENGTH_MEASURE(1.0E-006),#295);
#182=CIRCLE('',#296,9.525);
#183=SURFACE_STYLE_USAGE(.BOTH.,#297);
#184=FACE_OUTER_BOUND('',#298,.T.);
#185=CYLINDRICAL_SURFACE('',#299,9.525);
#186=SURFACE_STYLE_USAGE(.BOTH.,#300);
#187=FACE_BOUND('',#301,.T.);
#188=FACE_OUTER_BOUND('',#302,.T.);
#189=PLANE('',#303);
#190=POINT_STYLE(' ',#304,POSITIVE_LENGTH_MEASURE(1.0E-006),#305);
#191=CARTESIAN_POINT('',(0.0,9.525,-1.191));
#192=CURVE_STYLE('',#306,POSITIVE_LENGTH_MEASURE(1.0E-006),#307);
#193=CIRCLE('',#308,9.4615);
#194=CURVE_STYLE('',#309,POSITIVE_LENGTH_MEASURE(1.0E-006),#310);
#195=CIRCLE('',#311,9.4615);
#196=CURVE_STYLE('',#312,POSITIVE_LENGTH_MEASURE(1.0E-006),#313);
#197=CIRCLE('',#314,9.4615);
#198=CURVE_STYLE('',#315,POSITIVE_LENGTH_MEASURE(1.0E-006),#316);
#199=LINE('',#317,#318);
#200=CURVE_STYLE('',#319,POSITIVE_LENGTH_MEASURE(1.0E-006),#320);
#201=LINE('',#321,#322);
#202=POINT_STYLE(' ',#323,POSITIVE_LENGTH_MEASURE(1.0E-006),#324);
#203=CARTESIAN_POINT('',(1.16643755201581E-015,-9.525,-1.191));
#204=POINT_STYLE(' ',#325,POSITIVE_LENGTH_MEASURE(1.0E-006),#326);
#205=CARTESIAN_POINT('',(0.0,-9.525,-67.1));
#206=CURVE_STYLE('',#327,POSITIVE_LENGTH_MEASURE(1.0E-006),#328);
#207=LINE('',#329,#330);
#208=CURVE_STYLE('',#331,POSITIVE_LENGTH_MEASURE(1.0E-006),#332);
#209=CIRCLE('',#333,9.525);
#210=SURFACE_STYLE_USAGE(.BOTH.,#334);
#211=CLOSED_SHELL('',(#80,#116,#118,#120,#126,#134,#82,#122,#124,#112,#136));
#212=POINT_STYLE(' ',#335,POSITIVE_LENGTH_MEASURE(1.0E-006),#336);
#213=CARTESIAN_POINT('',(0.0,9.4615,-100.957742858848));
#214=POINT_STYLE(' ',#337,POSITIVE_LENGTH_MEASURE(1.0E-006),#338);
#215=CARTESIAN_POINT('',(1.15866130166904E-015,-9.4615,-67.1));
#216=CURVE_STYLE('',#339,POSITIVE_LENGTH_MEASURE(1.0E-006),#340);
#217=CIRCLE('',#341,9.4615);
#218=SURFACE_STYLE_USAGE(.BOTH.,#342);
#219=FACE_OUTER_BOUND('',#343,.T.);
#220=CYLINDRICAL_SURFACE('',#344,9.525);
#221=CURVE_STYLE('',#345,POSITIVE_LENGTH_MEASURE(1.0E-006),#346);
#222=CIRCLE('',#347,8.83737582939516);
#223=SURFACE_STYLE_USAGE(.BOTH.,#348);
#224=FACE_OUTER_BOUND('',#349,.T.);
#225=CONICAL_SURFACE('',#350,9.18118791469758,0.523598775598298);
#226=SURFACE_STYLE_USAGE(.BOTH.,#351);
#227=FACE_OUTER_BOUND('',#352,.T.);
#228=CONICAL_SURFACE('',#353,8.905289,1.0471975511966);
#229=SURFACE_STYLE_USAGE(.BOTH.,#354);
#230=FACE_OUTER_BOUND('',#355,.T.);
#231=CYLINDRICAL_SURFACE('',#356,9.4615);
#232=SURFACE_STYLE_USAGE(.BOTH.,#357);
#233=FACE_OUTER_BOUND('',#358,.T.);
#234=PLANE('',#359);
#235=SURFACE_STYLE_USAGE(.BOTH.,#360);
#236=FACE_OUTER_BOUND('',#361,.T.);
#237=CONICAL_SURFACE('',#362,9.18118791469758,0.523598775598298);
#238=SURFACE_STYLE_USAGE(.BOTH.,#363);
#239=FACE_OUTER_BOUND('',#364,.T.);
#240=CYLINDRICAL_SURFACE('',#365,9.4615);
#241=POINT_STYLE(' ',#366,POSITIVE_LENGTH_MEASURE(1.0E-006),#367);
#242=CARTESIAN_POINT('',(1.02243339673586E-015,-8.349078,-101.6));
#243=CURVE_STYLE('',#368,POSITIVE_LENGTH_MEASURE(1.0E-006),#369);
#244=LINE('',#370,#371);
#245=POINT_STYLE(' ',#372,POSITIVE_LENGTH_MEASURE(1.0E-006),#373);
#246=CARTESIAN_POINT('',(1.15866130166904E-015,-9.4615,-100.957742858848));
#247=SURFACE_STYLE_USAGE(.BOTH.,#374);
#248=FACE_OUTER_BOUND('',#375,.T.);
#249=CONICAL_SURFACE('',#376,8.905289,1.0471975511966);
#250=SURFACE_STYLE_USAGE(.BOTH.,#377);
#251=FACE_OUTER_BOUND('',#378,.T.);
#252=PLANE('',#379);
#253=POINT_STYLE(' ',#380,POSITIVE_LENGTH_MEASURE(1.0E-006),#381);
#254=CARTESIAN_POINT('',(0.0,8.349078,-101.6));
#255=CURVE_STYLE('',#382,POSITIVE_LENGTH_MEASURE(1.0E-006),#383);
#256=CIRCLE('',#384,8.349078);
#257=POINT_STYLE(' ',#385,POSITIVE_LENGTH_MEASURE(1.0E-006),#386);
#258=CARTESIAN_POINT('',(-1.16643755201581E-015,9.525,-67.1));
#259=POINT_STYLE(' ',#387,POSITIVE_LENGTH_MEASURE(1.0E-006),#388);
#260=CARTESIAN_POINT('',(1.08223065917936E-015,-8.83737582939516,7.105427357601E-015));
#261=POINT_STYLE(' ',#389,POSITIVE_LENGTH_MEASURE(1.0E-006),#390);
#262=CARTESIAN_POINT('',(0.0,9.4615,-67.1));
#263=POINT_STYLE(' ',#391,POSITIVE_LENGTH_MEASURE(1.0E-006),#392);
#264=CARTESIAN_POINT('',(0.0,8.83737582939516,7.105427357601E-015));
#265=CURVE_STYLE('',#393,POSITIVE_LENGTH_MEASURE(1.0E-006),#394);
#266=LINE('',#395,#396);
#267=CURVE_STYLE('',#397,POSITIVE_LENGTH_MEASURE(1.0E-006),#398);
#268=LINE('',#399,#400);
#269=CURVE_STYLE('',#401,POSITIVE_LENGTH_MEASURE(1.0E-006),#402);
#270=CIRCLE('',#403,9.525);
#271=PRODUCT_CONTEXT('',#54,'mechanical');
#272=PRODUCT_DEFINITION_FORMATION_WITH_SPECIFIED_SOURCE(' ','NONE',#155,.NOT_KNOWN.);
#273=CARTESIAN_POINT('',(0.0,0.0,0.0));
#274=DIRECTION('',(0.0,0.0,1.0));
#275=DIRECTION('',(1.0,0.0,0.0));
#276= (NAMED_UNIT(#163)LENGTH_UNIT()SI_UNIT(.MILLI.,.METRE.));
#277=DRAUGHTING_PRE_DEFINED_CURVE_FONT('continuous');
#278=COLOUR_RGB('',0.498039215803146,0.498039215803146,0.498039215803146);
#279=CARTESIAN_POINT('',(1.12433410559759E-015,-9.18118791469758,-0.595499999999994));
#280=VECTOR('',#405,1.0);
#281=DRAUGHTING_PRE_DEFINED_CURVE_FONT('continuous');
#282=COLOUR_RGB('',0.800000011920929,0.800000011920929,0.800000011920929);
#283=CARTESIAN_POINT('',(1.09054734920245E-015,-8.905289,-101.278871429424));
#284=VECTOR('',#406,1.0);
#285=DRAUGHTING_PRE_DEFINED_CURVE_FONT('continuous');
#286=COLOUR_RGB('',0.498039215803146,0.498039215803146,0.498039215803146);
#287=AXIS2_PLACEMENT_3D('',#407,#408,#409);
#288=DRAUGHTING_PRE_DEFINED_CURVE_FONT('continuous');
#289=COLOUR_RGB('',0.498039215803146,0.498039215803146,0.498039215803146);
#290=AXIS2_PLACEMENT_3D('',#410,#411,#412);
#291=DRAUGHTING_PRE_DEFINED_CURVE_FONT('continuous');
#292=COLOUR_RGB('',0.498039215803146,0.498039215803146,0.498039215803146);
#293=AXIS2_PLACEMENT_3D('',#413,#414,#415);
#294=DRAUGHTING_PRE_DEFINED_CURVE_FONT('continuous');
#295=COLOUR_RGB('',0.498039215803146,0.498039215803146,0.498039215803146);
#296=AXIS2_PLACEMENT_3D('',#416,#417,#418);
#297=SURFACE_SIDE_STYLE('',(#419));
#298=EDGE_LOOP('',(#420,#421,#422,#423));
#299=AXIS2_PLACEMENT_3D('',#424,#425,#426);
#300=SURFACE_SIDE_STYLE('',(#427));
#301=EDGE_LOOP('',(#428,#429));
#302=EDGE_LOOP('',(#430,#431));
#303=AXIS2_PLACEMENT_3D('',#432,#433,#434);
#304=PRE_DEFINED_MARKER('');
#305=COLOUR_RGB('',0.498039215803146,0.498039215803146,0.498039215803146);
#306=DRAUGHTING_PRE_DEFINED_CURVE_FONT('continuous');
#307=COLOUR_RGB('',0.498039215803146,0.498039215803146,0.498039215803146);
#308=AXIS2_PLACEMENT_3D('',#435,#436,#437);
#309=DRAUGHTING_PRE_DEFINED_CURVE_FONT('continuous');
#310=COLOUR_RGB('',0.800000011920929,0.800000011920929,0.800000011920929);
#311=AXIS2_PLACEMENT_3D('',#438,#439,#440);
#312=DRAUGHTING_PRE_DEFINED_CURVE_FONT('continuous');
#313=COLOUR_RGB('',0.498039215803146,0.498039215803146,0.498039215803146);
#314=AXIS2_PLACEMENT_3D('',#441,#442,#443);
#315=DRAUGHTING_PRE_DEFINED_CURVE_FONT('continuous');
#316=COLOUR_RGB('',0.498039215803146,0.498039215803146,0.498039215803146);
#317=CARTESIAN_POINT('',(-1.16643755201581E-015,9.525,-26.3955));
#318=VECTOR('',#444,1.0);
#319=DRAUGHTING_PRE_DEFINED_CURVE_FONT('continuous');
#320=COLOUR_RGB('',0.800000011920929,0.800000011920929,0.800000011920929);
#321=CARTESIAN_POINT('',(-1.15866130166904E-015,9.4615,-84.0288714294238));
#322=VECTOR('',#445,1.0);
#323=PRE_DEFINED_MARKER('');
#324=COLOUR_RGB('',0.498039215803146,0.498039215803146,0.498039215803146);
#325=PRE_DEFINED_MARKER('');
#326=COLOUR_RGB('',0.498039215803146,0.498039215803146,0.498039215803146);
#327=DRAUGHTING_PRE_DEFINED_CURVE_FONT('continuous');
#328=COLOUR_RGB('',0.800000011920929,0.800000011920929,0.800000011920929);
#329=CARTESIAN_POINT('',(-1.09054734920245E-015,8.905289,-101.278871429424));
#330=VECTOR('',#446,1.0);
#331=DRAUGHTING_PRE_DEFINED_CURVE_FONT('continuous');
#332=COLOUR_RGB('',0.498039215803146,0.498039215803146,0.498039215803146);
#333=AXIS2_PLACEMENT_3D('',#447,#448,#449);
#334=SURFACE_SIDE_STYLE('',(#450));
#335=PRE_DEFINED_MARKER('');
#336=COLOUR_RGB('',0.800000011920929,0.800000011920929,0.800000011920929);
#337=PRE_DEFINED_MARKER('');
#338=COLOUR_RGB('',0.498039215803146,0.498039215803146,0.498039215803146);
#339=DRAUGHTING_PRE_DEFINED_CURVE_FONT('continuous');
#340=COLOUR_RGB('',0.800000011920929,0.800000011920929,0.800000011920929);
#341=AXIS2_PLACEMENT_3D('',#451,#452,#453);
#342=SURFACE_SIDE_STYLE('',(#454));
#343=EDGE_LOOP('',(#455,#456,#457,#458));
#344=AXIS2_PLACEMENT_3D('',#459,#460,#461);
#345=DRAUGHTING_PRE_DEFINED_CURVE_FONT('continuous');
#346=COLOUR_RGB('',0.498039215803146,0.498039215803146,0.498039215803146);
#347=AXIS2_PLACEMENT_3D('',#462,#463,#464);
#348=SURFACE_SIDE_STYLE('',(#465));
#349=EDGE_LOOP('',(#466,#467,#468,#469));
#350=AXIS2_PLACEMENT_3D('',#470,#471,#472);
#351=SURFACE_SIDE_STYLE('',(#473));
#352=EDGE_LOOP('',(#474,#475,#476,#477));
#353=AXIS2_PLACEMENT_3D('',#478,#479,#480);
#354=SURFACE_SIDE_STYLE('',(#481));
#355=EDGE_LOOP('',(#482,#483,#484,#485));
#356=AXIS2_PLACEMENT_3D('',#486,#487,#488);
#357=SURFACE_SIDE_STYLE('',(#489));
#358=EDGE_LOOP('',(#490,#491));
#359=AXIS2_PLACEMENT_3D('',#492,#493,#494);
#360=SURFACE_SIDE_STYLE('',(#495));
#361=EDGE_LOOP('',(#496,#497,#498,#499));
#362=AXIS2_PLACEMENT_3D('',#500,#501,#502);
#363=SURFACE_SIDE_STYLE('',(#503));
#364=EDGE_LOOP('',(#504,#505,#506,#507));
#365=AXIS2_PLACEMENT_3D('',#508,#509,#510);
#366=PRE_DEFINED_MARKER('');
#367=COLOUR_RGB('',0.498039215803146,0.498039215803146,0.498039215803146);
#368=DRAUGHTING_PRE_DEFINED_CURVE_FONT('continuous');
#369=COLOUR_RGB('',0.498039215803146,0.498039215803146,0.498039215803146);
#370=CARTESIAN_POINT('',(-1.12433410559759E-015,9.18118791469758,-0.595499999999994));
#371=VECTOR('',#511,1.0);
#372=PRE_DEFINED_MARKER('');
#373=COLOUR_RGB('',0.800000011920929,0.800000011920929,0.800000011920929);
#374=SURFACE_SIDE_STYLE('',(#512));
#375=EDGE_LOOP('',(#513,#514,#515,#516));
#376=AXIS2_PLACEMENT_3D('',#517,#518,#519);
#377=SURFACE_SIDE_STYLE('',(#520));
#378=EDGE_LOOP('',(#521,#522));
#379=AXIS2_PLACEMENT_3D('',#523,#524,#525);
#380=PRE_DEFINED_MARKER('');
#381=COLOUR_RGB('',0.498039215803146,0.498039215803146,0.498039215803146);
#382=DRAUGHTING_PRE_DEFINED_CURVE_FONT('continuous');
#383=COLOUR_RGB('',0.498039215803146,0.498039215803146,0.498039215803146);
#384=AXIS2_PLACEMENT_3D('',#526,#527,#528);
#385=PRE_DEFINED_MARKER('');
#386=COLOUR_RGB('',0.498039215803146,0.498039215803146,0.498039215803146);
#387=PRE_DEFINED_MARKER('');
#388=COLOUR_RGB('',0.498039215803146,0.498039215803146,0.498039215803146);
#389=PRE_DEFINED_MARKER('');
#390=COLOUR_RGB('',0.498039215803146,0.498039215803146,0.498039215803146);
#391=PRE_DEFINED_MARKER('');
#392=COLOUR_RGB('',0.498039215803146,0.498039215803146,0.498039215803146);
#393=DRAUGHTING_PRE_DEFINED_CURVE_FONT('continuous');
#394=COLOUR_RGB('',0.498039215803146,0.498039215803146,0.498039215803146);
#395=CARTESIAN_POINT('',(1.16643755201581E-015,-9.525,-26.3955));
#396=VECTOR('',#529,1.0);
#397=DRAUGHTING_PRE_DEFINED_CURVE_FONT('continuous');
#398=COLOUR_RGB('',0.800000011920929,0.800000011920929,0.800000011920929);
#399=CARTESIAN_POINT('',(1.15866130166904E-015,-9.4615,-84.0288714294238));
#400=VECTOR('',#530,1.0);
#401=DRAUGHTING_PRE_DEFINED_CURVE_FONT('continuous');
#402=COLOUR_RGB('',0.498039215803146,0.498039215803146,0.498039215803146);
#403=AXIS2_PLACEMENT_3D('',#531,#532,#533);
#405=DIRECTION('',(-6.12303176911187E-017,0.499999999999999,0.866025403784439));
#406=DIRECTION('',(1.06054021204601E-016,-0.866025403784438,0.5));
#407=CARTESIAN_POINT('',(0.0,0.0,7.105427357601E-015));
#408=DIRECTION('',(0.0,0.0,-1.0));
#409=DIRECTION('',(0.0,1.0,0.0));
#410=CARTESIAN_POINT('',(0.0,0.0,-1.191));
#411=DIRECTION('',(0.0,0.0,-1.0));
#412=DIRECTION('',(0.0,1.0,0.0));
#413=CARTESIAN_POINT('',(0.0,0.0,-101.6));
#414=DIRECTION('',(0.0,0.0,-1.0));
#415=DIRECTION('',(0.0,1.0,0.0));
#416=CARTESIAN_POINT('',(0.0,0.0,-67.1));
#417=DIRECTION('',(0.0,0.0,-1.0));
#418=DIRECTION('',(0.0,-1.0,0.0));
#419=SURFACE_STYLE_FILL_AREA(#534);
#420=ORIENTED_EDGE('',*,*,#92,.F.);
#421=ORIENTED_EDGE('',*,*,#74,.T.);
#422=ORIENTED_EDGE('',*,*,#150,.F.);
#423=ORIENTED_EDGE('',*,*,#102,.F.);
#424=CARTESIAN_POINT('',(0.0,0.0,-26.3955));
#425=DIRECTION('',(-0.0,-0.0,1.0));
#426=DIRECTION('',(0.0,1.0,0.0));
#427=SURFACE_STYLE_FILL_AREA(#535);
#428=ORIENTED_EDGE('',*,*,#90,.T.);
#429=ORIENTED_EDGE('',*,*,#86,.T.);
#430=ORIENTED_EDGE('',*,*,#78,.T.);
#431=ORIENTED_EDGE('',*,*,#102,.T.);
#432=CARTESIAN_POINT('',(0.0,0.0,-67.1));
#433=DIRECTION('',(0.0,0.0,-1.0));
#434=DIRECTION('',(0.0,-1.0,0.0));
#435=CARTESIAN_POINT('',(0.0,0.0,-67.1));
#436=DIRECTION('',(0.0,-0.0,1.0));
#437=DIRECTION('',(0.0,1.0,0.0));
#438=CARTESIAN_POINT('',(0.0,0.0,-100.957742858848));
#439=DIRECTION('',(0.0,0.0,-1.0));
#440=DIRECTION('',(0.0,1.0,0.0));
#441=CARTESIAN_POINT('',(0.0,0.0,-67.1));
#442=DIRECTION('',(0.0,-0.0,1.0));
#443=DIRECTION('',(0.0,1.0,0.0));
#444=DIRECTION('',(0.0,0.0,-1.0));
#445=DIRECTION('',(0.0,0.0,-1.0));
#446=DIRECTION('',(1.06054021204601E-016,-0.866025403784438,-0.5));
#447=CARTESIAN_POINT('',(0.0,0.0,-67.1));
#448=DIRECTION('',(0.0,0.0,-1.0));
#449=DIRECTION('',(0.0,-1.0,0.0));
#450=SURFACE_STYLE_FILL_AREA(#536);
#451=CARTESIAN_POINT('',(0.0,0.0,-100.957742858848));
#452=DIRECTION('',(0.0,0.0,-1.0));
#453=DIRECTION('',(0.0,1.0,0.0));
#454=SURFACE_STYLE_FILL_AREA(#537);
#455=ORIENTED_EDGE('',*,*,#92,.T.);
#456=ORIENTED_EDGE('',*,*,#78,.F.);
#457=ORIENTED_EDGE('',*,*,#150,.T.);
#458=ORIENTED_EDGE('',*,*,#154,.T.);
#459=CARTESIAN_POINT('',(0.0,0.0,-26.3955));
#460=DIRECTION('',(-0.0,-0.0,1.0));
#461=DIRECTION('',(0.0,1.0,0.0));
#462=CARTESIAN_POINT('',(0.0,0.0,7.105427357601E-015));
#463=DIRECTION('',(0.0,0.0,-1.0));
#464=DIRECTION('',(0.0,1.0,0.0));
#465=SURFACE_STYLE_FILL_AREA(#538);
#466=ORIENTED_EDGE('',*,*,#130,.F.);
#467=ORIENTED_EDGE('',*,*,#114,.T.);
#468=ORIENTED_EDGE('',*,*,#68,.F.);
#469=ORIENTED_EDGE('',*,*,#74,.F.);
#470=CARTESIAN_POINT('',(0.0,0.0,-0.595499999999994));
#471=DIRECTION('',(0.0,-0.0,-1.0));
#472=DIRECTION('',(0.0,1.0,0.0));
#473=SURFACE_STYLE_FILL_AREA(#539);
#474=ORIENTED_EDGE('',*,*,#100,.F.);
#475=ORIENTED_EDGE('',*,*,#88,.T.);
#476=ORIENTED_EDGE('',*,*,#70,.F.);
#477=ORIENTED_EDGE('',*,*,#140,.F.);
#478=CARTESIAN_POINT('',(0.0,0.0,-101.278871429424));
#479=DIRECTION('',(-0.0,-0.0,1.0));
#480=DIRECTION('',(0.0,1.0,0.0));
#481=SURFACE_STYLE_FILL_AREA(#540);
#482=ORIENTED_EDGE('',*,*,#94,.F.);
#483=ORIENTED_EDGE('',*,*,#86,.F.);
#484=ORIENTED_EDGE('',*,*,#152,.F.);
#485=ORIENTED_EDGE('',*,*,#88,.F.);
#486=CARTESIAN_POINT('',(0.0,0.0,-84.0288714294238));
#487=DIRECTION('',(-0.0,-0.0,1.0));
#488=DIRECTION('',(0.0,1.0,0.0));
#489=SURFACE_STYLE_FILL_AREA(#541);
#490=ORIENTED_EDGE('',*,*,#114,.F.);
#491=ORIENTED_EDGE('',*,*,#72,.F.);
#492=CARTESIAN_POINT('',(0.0,4.41868791469758,7.105427357601E-015));
#493=DIRECTION('',(-0.0,0.0,1.0));
#494=DIRECTION('',(0.0,-1.0,0.0));
#495=SURFACE_STYLE_FILL_AREA(#542);
#496=ORIENTED_EDGE('',*,*,#130,.T.);
#497=ORIENTED_EDGE('',*,*,#154,.F.);
#498=ORIENTED_EDGE('',*,*,#68,.T.);
#499=ORIENTED_EDGE('',*,*,#72,.T.);
#500=CARTESIAN_POINT('',(0.0,0.0,-0.595499999999994));
#501=DIRECTION('',(0.0,-0.0,-1.0));
#502=DIRECTION('',(0.0,1.0,0.0));
#503=SURFACE_STYLE_FILL_AREA(#543);
#504=ORIENTED_EDGE('',*,*,#94,.T.);
#505=ORIENTED_EDGE('',*,*,#110,.F.);
#506=ORIENTED_EDGE('',*,*,#152,.T.);
#507=ORIENTED_EDGE('',*,*,#90,.F.);
#508=CARTESIAN_POINT('',(0.0,0.0,-84.0288714294238));
#509=DIRECTION('',(-0.0,-0.0,1.0));
#510=DIRECTION('',(0.0,1.0,0.0));
#511=DIRECTION('',(-6.12303176911187E-017,0.499999999999999,-0.866025403784439));
#512=SURFACE_STYLE_FILL_AREA(#544);
#513=ORIENTED_EDGE('',*,*,#100,.T.);
#514=ORIENTED_EDGE('',*,*,#76,.F.);
#515=ORIENTED_EDGE('',*,*,#70,.T.);
#516=ORIENTED_EDGE('',*,*,#110,.T.);
#517=CARTESIAN_POINT('',(0.0,0.0,-101.278871429424));
#518=DIRECTION('',(-0.0,-0.0,1.0));
#519=DIRECTION('',(0.0,1.0,0.0));
#520=SURFACE_STYLE_FILL_AREA(#545);
#521=ORIENTED_EDGE('',*,*,#140,.T.);
#522=ORIENTED_EDGE('',*,*,#76,.T.);
#523=CARTESIAN_POINT('',(0.0,4.174539,-101.6));
#524=DIRECTION('',(0.0,0.0,-1.0));
#525=DIRECTION('',(0.0,1.0,0.0));
#526=CARTESIAN_POINT('',(0.0,0.0,-101.6));
#527=DIRECTION('',(0.0,0.0,-1.0));
#528=DIRECTION('',(0.0,1.0,0.0));
#529=DIRECTION('',(-0.0,-0.0,1.0));
#530=DIRECTION('',(-0.0,-0.0,1.0));
#531=CARTESIAN_POINT('',(0.0,0.0,-1.191));
#532=DIRECTION('',(0.0,0.0,-1.0));
#533=DIRECTION('',(0.0,1.0,0.0));
#534=FILL_AREA_STYLE('',(#546));
#535=FILL_AREA_STYLE('',(#547));
#536=FILL_AREA_STYLE('',(#548));
#537=FILL_AREA_STYLE('',(#549));
#538=FILL_AREA_STYLE('',(#550));
#539=FILL_AREA_STYLE('',(#551));
#540=FILL_AREA_STYLE('',(#552));
#541=FILL_AREA_STYLE('',(#553));
#542=FILL_AREA_STYLE('',(#554));
#543=FILL_AREA_STYLE('',(#555));
#544=FILL_AREA_STYLE('',(#556));
#545=FILL_AREA_STYLE('',(#557));
#546=FILL_AREA_STYLE_COLOUR('',#558);
#547=FILL_AREA_STYLE_COLOUR('',#559);
#548=FILL_AREA_STYLE_COLOUR('',#560);
#549=FILL_AREA_STYLE_COLOUR('',#561);
#550=FILL_AREA_STYLE_COLOUR('',#562);
#551=FILL_AREA_STYLE_COLOUR('',#563);
#552=FILL_AREA_STYLE_COLOUR('',#564);
#553=FILL_AREA_STYLE_COLOUR('',#565);
#554=FILL_AREA_STYLE_COLOUR('',#566);
#555=FILL_AREA_STYLE_COLOUR('',#567);
#556=FILL_AREA_STYLE_COLOUR('',#568);
#557=FILL_AREA_STYLE_COLOUR('',#569);
#558=COLOUR_RGB('',0.498039215803146,0.498039215803146,0.498039215803146);
#559=COLOUR_RGB('',0.498039215803146,0.498039215803146,0.498039215803146);
#560=COLOUR_RGB('',0.498039215803146,0.498039215803146,0.498039215803146);
#561=COLOUR_RGB('',0.498039215803146,0.498039215803146,0.498039215803146);
#562=COLOUR_RGB('',0.498039215803146,0.498039215803146,0.498039215803146);
#563=COLOUR_RGB('',0.800000011920929,0.800000011920929,0.800000011920929);
#564=COLOUR_RGB('',0.800000011920929,0.800000011920929,0.800000011920929);
#565=COLOUR_RGB('',0.498039215803146,0.498039215803146,0.498039215803146);
#566=COLOUR_RGB('',0.498039215803146,0.498039215803146,0.498039215803146);
#567=COLOUR_RGB('',0.800000011920929,0.800000011920929,0.800000011920929);
#568=COLOUR_RGB('',0.800000011920929,0.800000011920929,0.800000011920929);
#569=COLOUR_RGB('',0.498039215803146,0.498039215803146,0.498039215803146);
#570=AXIS2_PLACEMENT_3D('PCS',#571,#572,#573);
#571=CARTESIAN_POINT('',(0.0,0.0,0.0));
#572=DIRECTION('',(0.0,0.0,1.0));
#573=DIRECTION('',(1.0,0.0,0.0));
#574=AXIS2_PLACEMENT_3D('CIP',#575,#576,#577);
#575=CARTESIAN_POINT('',(0.0,0.0,-101.6));
#576=DIRECTION('',(0.0,0.0,1.0));
#577=DIRECTION('',(1.0,0.0,0.0));
#578=AXIS2_PLACEMENT_3D('CRP',#579,#580,#581);
#579=CARTESIAN_POINT('',(-9.4615,0.0,-101.6));
#580=DIRECTION('',(0.0,0.0,1.0));
#581=DIRECTION('',(1.0,0.0,0.0));
#582=AXIS2_PLACEMENT_3D('MCS',#583,#584,#585);
#583=CARTESIAN_POINT('',(0.0,0.0,-51.6));
#584=DIRECTION('',(0.0,0.0,1.0));
#585=DIRECTION('',(1.0,0.0,0.0));
#586=CONSTRUCTIVE_GEOMETRY_REPRESENTATION_RELATIONSHIP('coordinate systems',$,#58,#587);
#587=CONSTRUCTIVE_GEOMETRY_REPRESENTATION('coordinate systems',(#570,#574,#578,#582),#6);
ENDSEC;
END-ISO-10303-21;
