ISO-10303-21;
HEADER;
FILE_DESCRIPTION(('no description'),'unknown implementation level');
FILE_NAME('solidiHOHJF2oNyxPnIJ7UUgPoMVP3bs_1.STP','  ',('CIMSOURCE GmbH'),('CADClick - KiM GmbH - www.kimweb.de'),'unknown preprocess','ACIS','unknown authorization');
FILE_SCHEMA(('automotive_design'));
ENDSEC;
DATA;
#1=MECHANICAL_DESIGN_GEOMETRIC_PRESENTATION_REPRESENTATION(' ',(#10,#11,#12,#13,#14,#15,#16,#17,#18,#19,#20,#21,#22,#23,#24,#25,#26,#27,#28,#29,#30,#31,#32,#33,#34,#35,#36,#37,#38,#39,#40,#41,#42,#43,#44,#45,#46,#47,#48,#49,#50,#51,#52,#53),#6);
#2=PRODUCT_DEFINITION_CONTEXT('',#54,'design');
#3=APPLICATION_PROTOCOL_DEFINITION('INTERNATIONAL STANDARD','automotive_design',1994,#54);
#4=PRODUCT_CATEGORY_RELATIONSHIP('NONE','NONE',#55,#56);
#5=SHAPE_DEFINITION_REPRESENTATION(#57,#58);
#6= (GEOMETRIC_REPRESENTATION_CONTEXT(3)GLOBAL_UNCERTAINTY_ASSIGNED_CONTEXT((#61))GLOBAL_UNIT_ASSIGNED_CONTEXT((#63,#64,#65))REPRESENTATION_CONTEXT('NONE','WORKSPACE'));
#10=STYLED_ITEM('',(#67),#68);
#11=STYLED_ITEM('',(#69),#70);
#12=STYLED_ITEM('',(#71),#72);
#13=STYLED_ITEM('',(#73),#74);
#14=STYLED_ITEM('',(#75),#76);
#15=STYLED_ITEM('',(#77),#78);
#16=STYLED_ITEM('',(#79),#80);
#17=STYLED_ITEM('',(#81),#82);
#18=STYLED_ITEM('',(#83),#84);
#19=STYLED_ITEM('',(#85),#86);
#20=STYLED_ITEM('',(#87),#88);
#21=STYLED_ITEM('',(#89),#90);
#22=STYLED_ITEM('',(#91),#92);
#23=STYLED_ITEM('',(#93),#94);
#24=STYLED_ITEM('',(#95),#96);
#25=STYLED_ITEM('',(#97),#98);
#26=STYLED_ITEM('',(#99),#100);
#27=STYLED_ITEM('',(#101),#102);
#28=STYLED_ITEM('',(#103),#104);
#29=STYLED_ITEM('',(#105),#106);
#30=STYLED_ITEM('',(#107),#108);
#31=STYLED_ITEM('',(#109),#110);
#32=STYLED_ITEM('',(#111),#112);
#33=STYLED_ITEM('',(#113),#114);
#34=STYLED_ITEM('',(#115),#116);
#35=STYLED_ITEM('',(#117),#118);
#36=STYLED_ITEM('',(#119),#120);
#37=STYLED_ITEM('',(#121),#122);
#38=STYLED_ITEM('',(#123),#124);
#39=STYLED_ITEM('',(#125),#126);
#40=STYLED_ITEM('',(#127),#128);
#41=STYLED_ITEM('',(#129),#130);
#42=STYLED_ITEM('',(#131),#132);
#43=STYLED_ITEM('',(#133),#134);
#44=STYLED_ITEM('',(#135),#136);
#45=STYLED_ITEM('',(#137),#138);
#46=STYLED_ITEM('',(#139),#140);
#47=STYLED_ITEM('',(#141),#142);
#48=STYLED_ITEM('',(#143),#144);
#49=STYLED_ITEM('',(#145),#146);
#50=STYLED_ITEM('',(#147),#148);
#51=STYLED_ITEM('',(#149),#150);
#52=STYLED_ITEM('',(#151),#152);
#53=STYLED_ITEM('',(#153),#154);
#54=APPLICATION_CONTEXT(' ');
#55=PRODUCT_CATEGORY('part','NONE');
#56=PRODUCT_RELATED_PRODUCT_CATEGORY('detail',' ',(#155));
#57=PRODUCT_DEFINITION_SHAPE('NONE','NONE',#156);
#58=ADVANCED_BREP_SHAPE_REPRESENTATION('1',(#98,#157),#6);
#61=UNCERTAINTY_MEASURE_WITH_UNIT(LENGTH_MEASURE(1.0E-006),#63,'','');
#63= (CONVERSION_BASED_UNIT('MILLIMETRE',#160)LENGTH_UNIT()NAMED_UNIT(#163));
#64= (NAMED_UNIT(#165)PLANE_ANGLE_UNIT()SI_UNIT($,.RADIAN.));
#65= (NAMED_UNIT(#165)SOLID_ANGLE_UNIT()SI_UNIT($,.STERADIAN.));
#67=PRESENTATION_STYLE_ASSIGNMENT((#171));
#68=ADVANCED_FACE('',(#172),#173,.T.);
#69=PRESENTATION_STYLE_ASSIGNMENT((#174));
#70=EDGE_CURVE('',#152,#146,#175,.T.);
#71=PRESENTATION_STYLE_ASSIGNMENT((#176));
#72=ADVANCED_FACE('',(#177),#178,.T.);
#73=PRESENTATION_STYLE_ASSIGNMENT((#179));
#74=ADVANCED_FACE('',(#180),#181,.T.);
#75=PRESENTATION_STYLE_ASSIGNMENT((#182));
#76=VERTEX_POINT('',#183);
#77=PRESENTATION_STYLE_ASSIGNMENT((#184));
#78=VERTEX_POINT('',#185);
#79=PRESENTATION_STYLE_ASSIGNMENT((#186));
#80=VERTEX_POINT('',#187);
#81=PRESENTATION_STYLE_ASSIGNMENT((#188));
#82=VERTEX_POINT('',#189);
#83=PRESENTATION_STYLE_ASSIGNMENT((#190));
#84=VERTEX_POINT('',#191);
#85=PRESENTATION_STYLE_ASSIGNMENT((#192));
#86=EDGE_CURVE('',#90,#96,#193,.T.);
#87=PRESENTATION_STYLE_ASSIGNMENT((#194));
#88=EDGE_CURVE('',#110,#80,#195,.T.);
#89=PRESENTATION_STYLE_ASSIGNMENT((#196));
#90=VERTEX_POINT('',#197);
#91=PRESENTATION_STYLE_ASSIGNMENT((#198));
#92=ADVANCED_FACE('',(#199),#200,.T.);
#93=PRESENTATION_STYLE_ASSIGNMENT((#201));
#94=EDGE_CURVE('',#76,#84,#202,.T.);
#95=PRESENTATION_STYLE_ASSIGNMENT((#203));
#96=VERTEX_POINT('',#204);
#97=PRESENTATION_STYLE_ASSIGNMENT((#205));
#98=MANIFOLD_SOLID_BREP('1',#206);
#99=PRESENTATION_STYLE_ASSIGNMENT((#207));
#100=EDGE_CURVE('',#80,#110,#208,.T.);
#101=PRESENTATION_STYLE_ASSIGNMENT((#209));
#102=ADVANCED_FACE('',(#210,#211),#212,.T.);
#103=PRESENTATION_STYLE_ASSIGNMENT((#213));
#104=EDGE_CURVE('',#96,#132,#214,.T.);
#105=PRESENTATION_STYLE_ASSIGNMENT((#215));
#106=ADVANCED_FACE('',(#216),#217,.T.);
#107=PRESENTATION_STYLE_ASSIGNMENT((#218));
#108=ADVANCED_FACE('',(#219),#220,.T.);
#109=PRESENTATION_STYLE_ASSIGNMENT((#221));
#110=VERTEX_POINT('',#222);
#111=PRESENTATION_STYLE_ASSIGNMENT((#223));
#112=EDGE_CURVE('',#140,#146,#224,.T.);
#113=PRESENTATION_STYLE_ASSIGNMENT((#225));
#114=EDGE_CURVE('',#96,#90,#226,.T.);
#115=PRESENTATION_STYLE_ASSIGNMENT((#227));
#116=EDGE_CURVE('',#78,#76,#228,.T.);
#117=PRESENTATION_STYLE_ASSIGNMENT((#229));
#118=ADVANCED_FACE('',(#230),#231,.T.);
#119=PRESENTATION_STYLE_ASSIGNMENT((#232));
#120=EDGE_CURVE('',#146,#152,#233,.T.);
#121=PRESENTATION_STYLE_ASSIGNMENT((#234));
#122=ADVANCED_FACE('',(#235),#236,.T.);
#123=PRESENTATION_STYLE_ASSIGNMENT((#237));
#124=EDGE_CURVE('',#76,#78,#238,.T.);
#125=PRESENTATION_STYLE_ASSIGNMENT((#239));
#126=EDGE_CURVE('',#84,#90,#240,.T.);
#127=PRESENTATION_STYLE_ASSIGNMENT((#241));
#128=EDGE_CURVE('',#132,#78,#242,.T.);
#129=PRESENTATION_STYLE_ASSIGNMENT((#243));
#130=ADVANCED_FACE('',(#244),#245,.T.);
#131=PRESENTATION_STYLE_ASSIGNMENT((#246));
#132=VERTEX_POINT('',#247);
#133=PRESENTATION_STYLE_ASSIGNMENT((#248));
#134=EDGE_CURVE('',#82,#110,#249,.T.);
#135=PRESENTATION_STYLE_ASSIGNMENT((#250));
#136=EDGE_CURVE('',#152,#82,#251,.T.);
#137=PRESENTATION_STYLE_ASSIGNMENT((#252));
#138=EDGE_CURVE('',#132,#84,#253,.T.);
#139=PRESENTATION_STYLE_ASSIGNMENT((#254));
#140=VERTEX_POINT('',#255);
#141=PRESENTATION_STYLE_ASSIGNMENT((#256));
#142=EDGE_CURVE('',#80,#140,#257,.T.);
#143=PRESENTATION_STYLE_ASSIGNMENT((#258));
#144=ADVANCED_FACE('',(#259),#260,.T.);
#145=PRESENTATION_STYLE_ASSIGNMENT((#261));
#146=VERTEX_POINT('',#262);
#147=PRESENTATION_STYLE_ASSIGNMENT((#263));
#148=EDGE_CURVE('',#84,#132,#264,.T.);
#149=PRESENTATION_STYLE_ASSIGNMENT((#265));
#150=EDGE_CURVE('',#82,#140,#266,.T.);
#151=PRESENTATION_STYLE_ASSIGNMENT((#267));
#152=VERTEX_POINT('',#268);
#153=PRESENTATION_STYLE_ASSIGNMENT((#269));
#154=EDGE_CURVE('',#140,#82,#270,.T.);
#155=PRODUCT('1','1','PART-1-DESC',(#271));
#156=PRODUCT_DEFINITION('NONE','NONE',#272,#2);
#157=AXIS2_PLACEMENT_3D('',#273,#274,#275);
#160=LENGTH_MEASURE_WITH_UNIT(LENGTH_MEASURE(1.0),#276);
#163=DIMENSIONAL_EXPONENTS(1.0,0.0,0.0,0.0,0.0,0.0,0.0);
#165=DIMENSIONAL_EXPONENTS(0.0,0.0,0.0,0.0,0.0,0.0,0.0);
#171=SURFACE_STYLE_USAGE(.BOTH.,#277);
#172=FACE_OUTER_BOUND('',#278,.T.);
#173=CONICAL_SURFACE('',#279,8.488130745,1.0471975511966);
#174=CURVE_STYLE('',#280,POSITIVE_LENGTH_MEASURE(1.0E-006),#281);
#175=CIRCLE('',#282,9.4615);
#176=SURFACE_STYLE_USAGE(.BOTH.,#283);
#177=FACE_OUTER_BOUND('',#284,.T.);
#178=CYLINDRICAL_SURFACE('',#285,9.525);
#179=SURFACE_STYLE_USAGE(.BOTH.,#286);
#180=FACE_OUTER_BOUND('',#287,.T.);
#181=CYLINDRICAL_SURFACE('',#288,9.4615);
#182=POINT_STYLE(' ',#289,POSITIVE_LENGTH_MEASURE(1.0E-006),#290);
#183=CARTESIAN_POINT('',(0.0,8.83737582939516,7.105427357601E-015));
#184=POINT_STYLE(' ',#291,POSITIVE_LENGTH_MEASURE(1.0E-006),#292);
#185=CARTESIAN_POINT('',(1.08223065917936E-015,-8.83737582939516,7.105427357601E-015));
#186=POINT_STYLE(' ',#293,POSITIVE_LENGTH_MEASURE(1.0E-006),#294);
#187=CARTESIAN_POINT('',(9.20262466811371E-016,-7.51476149,-101.6));
#188=POINT_STYLE(' ',#295,POSITIVE_LENGTH_MEASURE(1.0E-006),#296);
#189=CARTESIAN_POINT('',(0.0,9.4615,-100.47604999721));
#190=POINT_STYLE(' ',#297,POSITIVE_LENGTH_MEASURE(1.0E-006),#298);
#191=CARTESIAN_POINT('',(0.0,9.525,-1.191));
#192=CURVE_STYLE('',#299,POSITIVE_LENGTH_MEASURE(1.0E-006),#300);
#193=CIRCLE('',#301,9.525);
#194=CURVE_STYLE('',#302,POSITIVE_LENGTH_MEASURE(1.0E-006),#303);
#195=CIRCLE('',#304,7.51476149);
#196=POINT_STYLE(' ',#305,POSITIVE_LENGTH_MEASURE(1.0E-006),#306);
#197=CARTESIAN_POINT('',(-1.16643755201581E-015,9.525,-60.3));
#198=SURFACE_STYLE_USAGE(.BOTH.,#307);
#199=FACE_OUTER_BOUND('',#308,.T.);
#200=CYLINDRICAL_SURFACE('',#309,9.4615);
#201=CURVE_STYLE('',#310,POSITIVE_LENGTH_MEASURE(1.0E-006),#311);
#202=LINE('',#312,#313);
#203=POINT_STYLE(' ',#314,POSITIVE_LENGTH_MEASURE(1.0E-006),#315);
#204=CARTESIAN_POINT('',(0.0,-9.525,-60.3));
#205=SURFACE_STYLE_USAGE(.BOTH.,#316);
#206=CLOSED_SHELL('',(#72,#106,#122,#92,#74,#68,#102,#144,#108,#130,#118));
#207=CURVE_STYLE('',#317,POSITIVE_LENGTH_MEASURE(1.0E-006),#318);
#208=CIRCLE('',#319,7.51476149);
#209=SURFACE_STYLE_USAGE(.BOTH.,#320);
#210=FACE_BOUND('',#321,.T.);
#211=FACE_OUTER_BOUND('',#322,.T.);
#212=PLANE('',#323);
#213=CURVE_STYLE('',#324,POSITIVE_LENGTH_MEASURE(1.0E-006),#325);
#214=LINE('',#326,#327);
#215=SURFACE_STYLE_USAGE(.BOTH.,#328);
#216=FACE_OUTER_BOUND('',#329,.T.);
#217=CONICAL_SURFACE('',#330,9.18118791469758,0.523598775598298);
#218=SURFACE_STYLE_USAGE(.BOTH.,#331);
#219=FACE_OUTER_BOUND('',#332,.T.);
#220=CONICAL_SURFACE('',#333,9.18118791469758,0.523598775598298);
#221=POINT_STYLE(' ',#334,POSITIVE_LENGTH_MEASURE(1.0E-006),#335);
#222=CARTESIAN_POINT('',(0.0,7.51476149,-101.6));
#223=CURVE_STYLE('',#336,POSITIVE_LENGTH_MEASURE(1.0E-006),#337);
#224=LINE('',#338,#339);
#225=CURVE_STYLE('',#340,POSITIVE_LENGTH_MEASURE(1.0E-006),#341);
#226=CIRCLE('',#342,9.525);
#227=CURVE_STYLE('',#343,POSITIVE_LENGTH_MEASURE(1.0E-006),#344);
#228=CIRCLE('',#345,8.83737582939516);
#229=SURFACE_STYLE_USAGE(.BOTH.,#346);
#230=FACE_OUTER_BOUND('',#347,.T.);
#231=PLANE('',#348);
#232=CURVE_STYLE('',#349,POSITIVE_LENGTH_MEASURE(1.0E-006),#350);
#233=CIRCLE('',#351,9.4615);
#234=SURFACE_STYLE_USAGE(.BOTH.,#352);
#235=FACE_OUTER_BOUND('',#353,.T.);
#236=CONICAL_SURFACE('',#354,8.488130745,1.0471975511966);
#237=CURVE_STYLE('',#355,POSITIVE_LENGTH_MEASURE(1.0E-006),#356);
#238=CIRCLE('',#357,8.83737582939516);
#239=CURVE_STYLE('',#358,POSITIVE_LENGTH_MEASURE(1.0E-006),#359);
#240=LINE('',#360,#361);
#241=CURVE_STYLE('',#362,POSITIVE_LENGTH_MEASURE(1.0E-006),#363);
#242=LINE('',#364,#365);
#243=SURFACE_STYLE_USAGE(.BOTH.,#366);
#244=FACE_OUTER_BOUND('',#367,.T.);
#245=CYLINDRICAL_SURFACE('',#368,9.525);
#246=POINT_STYLE(' ',#369,POSITIVE_LENGTH_MEASURE(1.0E-006),#370);
#247=CARTESIAN_POINT('',(1.16643755201581E-015,-9.525,-1.191));
#248=CURVE_STYLE('',#371,POSITIVE_LENGTH_MEASURE(1.0E-006),#372);
#249=LINE('',#373,#374);
#250=CURVE_STYLE('',#375,POSITIVE_LENGTH_MEASURE(1.0E-006),#376);
#251=LINE('',#377,#378);
#252=CURVE_STYLE('',#379,POSITIVE_LENGTH_MEASURE(1.0E-006),#380);
#253=CIRCLE('',#381,9.525);
#254=POINT_STYLE(' ',#382,POSITIVE_LENGTH_MEASURE(1.0E-006),#383);
#255=CARTESIAN_POINT('',(1.15866130166904E-015,-9.4615,-100.47604999721));
#256=CURVE_STYLE('',#384,POSITIVE_LENGTH_MEASURE(1.0E-006),#385);
#257=LINE('',#386,#387);
#258=SURFACE_STYLE_USAGE(.BOTH.,#388);
#259=FACE_OUTER_BOUND('',#389,.T.);
#260=PLANE('',#390);
#261=POINT_STYLE(' ',#391,POSITIVE_LENGTH_MEASURE(1.0E-006),#392);
#262=CARTESIAN_POINT('',(1.15866130166904E-015,-9.4615,-60.3));
#263=CURVE_STYLE('',#393,POSITIVE_LENGTH_MEASURE(1.0E-006),#394);
#264=CIRCLE('',#395,9.525);
#265=CURVE_STYLE('',#396,POSITIVE_LENGTH_MEASURE(1.0E-006),#397);
#266=CIRCLE('',#398,9.4615);
#267=POINT_STYLE(' ',#399,POSITIVE_LENGTH_MEASURE(1.0E-006),#400);
#268=CARTESIAN_POINT('',(0.0,9.4615,-60.3));
#269=CURVE_STYLE('',#401,POSITIVE_LENGTH_MEASURE(1.0E-006),#402);
#270=CIRCLE('',#403,9.4615);
#271=PRODUCT_CONTEXT('',#54,'mechanical');
#272=PRODUCT_DEFINITION_FORMATION_WITH_SPECIFIED_SOURCE(' ','NONE',#155,.NOT_KNOWN.);
#273=CARTESIAN_POINT('',(0.0,0.0,0.0));
#274=DIRECTION('',(0.0,0.0,1.0));
#275=DIRECTION('',(1.0,0.0,0.0));
#276= (NAMED_UNIT(#163)LENGTH_UNIT()SI_UNIT(.MILLI.,.METRE.));
#277=SURFACE_SIDE_STYLE('',(#405));
#278=EDGE_LOOP('',(#406,#407,#408,#409));
#279=AXIS2_PLACEMENT_3D('',#410,#411,#412);
#280=DRAUGHTING_PRE_DEFINED_CURVE_FONT('continuous');
#281=COLOUR_RGB('',0.498039215803146,0.498039215803146,0.498039215803146);
#282=AXIS2_PLACEMENT_3D('',#413,#414,#415);
#283=SURFACE_SIDE_STYLE('',(#416));
#284=EDGE_LOOP('',(#417,#418,#419,#420));
#285=AXIS2_PLACEMENT_3D('',#421,#422,#423);
#286=SURFACE_SIDE_STYLE('',(#424));
#287=EDGE_LOOP('',(#425,#426,#427,#428));
#288=AXIS2_PLACEMENT_3D('',#429,#430,#431);
#289=PRE_DEFINED_MARKER('');
#290=COLOUR_RGB('',0.498039215803146,0.498039215803146,0.498039215803146);
#291=PRE_DEFINED_MARKER('');
#292=COLOUR_RGB('',0.498039215803146,0.498039215803146,0.498039215803146);
#293=PRE_DEFINED_MARKER('');
#294=COLOUR_RGB('',0.498039215803146,0.498039215803146,0.498039215803146);
#295=PRE_DEFINED_MARKER('');
#296=COLOUR_RGB('',0.800000011920929,0.800000011920929,0.800000011920929);
#297=PRE_DEFINED_MARKER('');
#298=COLOUR_RGB('',0.498039215803146,0.498039215803146,0.498039215803146);
#299=DRAUGHTING_PRE_DEFINED_CURVE_FONT('continuous');
#300=COLOUR_RGB('',0.498039215803146,0.498039215803146,0.498039215803146);
#301=AXIS2_PLACEMENT_3D('',#432,#433,#434);
#302=DRAUGHTING_PRE_DEFINED_CURVE_FONT('continuous');
#303=COLOUR_RGB('',0.498039215803146,0.498039215803146,0.498039215803146);
#304=AXIS2_PLACEMENT_3D('',#435,#436,#437);
#305=PRE_DEFINED_MARKER('');
#306=COLOUR_RGB('',0.498039215803146,0.498039215803146,0.498039215803146);
#307=SURFACE_SIDE_STYLE('',(#438));
#308=EDGE_LOOP('',(#439,#440,#441,#442));
#309=AXIS2_PLACEMENT_3D('',#443,#444,#445);
#310=DRAUGHTING_PRE_DEFINED_CURVE_FONT('continuous');
#311=COLOUR_RGB('',0.498039215803146,0.498039215803146,0.498039215803146);
#312=CARTESIAN_POINT('',(-1.12433410559759E-015,9.18118791469758,-0.595499999999994));
#313=VECTOR('',#446,1.0);
#314=PRE_DEFINED_MARKER('');
#315=COLOUR_RGB('',0.498039215803146,0.498039215803146,0.498039215803146);
#316=SURFACE_SIDE_STYLE('',(#447));
#317=DRAUGHTING_PRE_DEFINED_CURVE_FONT('continuous');
#318=COLOUR_RGB('',0.498039215803146,0.498039215803146,0.498039215803146);
#319=AXIS2_PLACEMENT_3D('',#448,#449,#450);
#320=SURFACE_SIDE_STYLE('',(#451));
#321=EDGE_LOOP('',(#452,#453));
#322=EDGE_LOOP('',(#454,#455));
#323=AXIS2_PLACEMENT_3D('',#456,#457,#458);
#324=DRAUGHTING_PRE_DEFINED_CURVE_FONT('continuous');
#325=COLOUR_RGB('',0.498039215803146,0.498039215803146,0.498039215803146);
#326=CARTESIAN_POINT('',(1.16643755201581E-015,-9.525,-22.6455));
#327=VECTOR('',#459,1.0);
#328=SURFACE_SIDE_STYLE('',(#460));
#329=EDGE_LOOP('',(#461,#462,#463,#464));
#330=AXIS2_PLACEMENT_3D('',#465,#466,#467);
#331=SURFACE_SIDE_STYLE('',(#468));
#332=EDGE_LOOP('',(#469,#470,#471,#472));
#333=AXIS2_PLACEMENT_3D('',#473,#474,#475);
#334=PRE_DEFINED_MARKER('');
#335=COLOUR_RGB('',0.498039215803146,0.498039215803146,0.498039215803146);
#336=DRAUGHTING_PRE_DEFINED_CURVE_FONT('continuous');
#337=COLOUR_RGB('',0.800000011920929,0.800000011920929,0.800000011920929);
#338=CARTESIAN_POINT('',(1.15866130166904E-015,-9.4615,-80.3880249986048));
#339=VECTOR('',#476,1.0);
#340=DRAUGHTING_PRE_DEFINED_CURVE_FONT('continuous');
#341=COLOUR_RGB('',0.498039215803146,0.498039215803146,0.498039215803146);
#342=AXIS2_PLACEMENT_3D('',#477,#478,#479);
#343=DRAUGHTING_PRE_DEFINED_CURVE_FONT('continuous');
#344=COLOUR_RGB('',0.498039215803146,0.498039215803146,0.498039215803146);
#345=AXIS2_PLACEMENT_3D('',#480,#481,#482);
#346=SURFACE_SIDE_STYLE('',(#483));
#347=EDGE_LOOP('',(#484,#485));
#348=AXIS2_PLACEMENT_3D('',#486,#487,#488);
#349=DRAUGHTING_PRE_DEFINED_CURVE_FONT('continuous');
#350=COLOUR_RGB('',0.498039215803146,0.498039215803146,0.498039215803146);
#351=AXIS2_PLACEMENT_3D('',#489,#490,#491);
#352=SURFACE_SIDE_STYLE('',(#492));
#353=EDGE_LOOP('',(#493,#494,#495,#496));
#354=AXIS2_PLACEMENT_3D('',#497,#498,#499);
#355=DRAUGHTING_PRE_DEFINED_CURVE_FONT('continuous');
#356=COLOUR_RGB('',0.498039215803146,0.498039215803146,0.498039215803146);
#357=AXIS2_PLACEMENT_3D('',#500,#501,#502);
#358=DRAUGHTING_PRE_DEFINED_CURVE_FONT('continuous');
#359=COLOUR_RGB('',0.498039215803146,0.498039215803146,0.498039215803146);
#360=CARTESIAN_POINT('',(-1.16643755201581E-015,9.525,-22.6455));
#361=VECTOR('',#503,1.0);
#362=DRAUGHTING_PRE_DEFINED_CURVE_FONT('continuous');
#363=COLOUR_RGB('',0.498039215803146,0.498039215803146,0.498039215803146);
#364=CARTESIAN_POINT('',(1.12433410559759E-015,-9.18118791469758,-0.595499999999994));
#365=VECTOR('',#504,1.0);
#366=SURFACE_SIDE_STYLE('',(#505));
#367=EDGE_LOOP('',(#506,#507,#508,#509));
#368=AXIS2_PLACEMENT_3D('',#510,#511,#512);
#369=PRE_DEFINED_MARKER('');
#370=COLOUR_RGB('',0.498039215803146,0.498039215803146,0.498039215803146);
#371=DRAUGHTING_PRE_DEFINED_CURVE_FONT('continuous');
#372=COLOUR_RGB('',0.800000011920929,0.800000011920929,0.800000011920929);
#373=CARTESIAN_POINT('',(-1.03946188424021E-015,8.488130745,-101.038024998605));
#374=VECTOR('',#513,1.0);
#375=DRAUGHTING_PRE_DEFINED_CURVE_FONT('continuous');
#376=COLOUR_RGB('',0.800000011920929,0.800000011920929,0.800000011920929);
#377=CARTESIAN_POINT('',(-1.15866130166904E-015,9.4615,-80.3880249986048));
#378=VECTOR('',#514,1.0);
#379=DRAUGHTING_PRE_DEFINED_CURVE_FONT('continuous');
#380=COLOUR_RGB('',0.498039215803146,0.498039215803146,0.498039215803146);
#381=AXIS2_PLACEMENT_3D('',#515,#516,#517);
#382=PRE_DEFINED_MARKER('');
#383=COLOUR_RGB('',0.800000011920929,0.800000011920929,0.800000011920929);
#384=DRAUGHTING_PRE_DEFINED_CURVE_FONT('continuous');
#385=COLOUR_RGB('',0.800000011920929,0.800000011920929,0.800000011920929);
#386=CARTESIAN_POINT('',(1.03946188424021E-015,-8.488130745,-101.038024998605));
#387=VECTOR('',#518,1.0);
#388=SURFACE_SIDE_STYLE('',(#519));
#389=EDGE_LOOP('',(#520,#521));
#390=AXIS2_PLACEMENT_3D('',#522,#523,#524);
#391=PRE_DEFINED_MARKER('');
#392=COLOUR_RGB('',0.498039215803146,0.498039215803146,0.498039215803146);
#393=DRAUGHTING_PRE_DEFINED_CURVE_FONT('continuous');
#394=COLOUR_RGB('',0.498039215803146,0.498039215803146,0.498039215803146);
#395=AXIS2_PLACEMENT_3D('',#525,#526,#527);
#396=DRAUGHTING_PRE_DEFINED_CURVE_FONT('continuous');
#397=COLOUR_RGB('',0.800000011920929,0.800000011920929,0.800000011920929);
#398=AXIS2_PLACEMENT_3D('',#528,#529,#530);
#399=PRE_DEFINED_MARKER('');
#400=COLOUR_RGB('',0.498039215803146,0.498039215803146,0.498039215803146);
#401=DRAUGHTING_PRE_DEFINED_CURVE_FONT('continuous');
#402=COLOUR_RGB('',0.800000011920929,0.800000011920929,0.800000011920929);
#403=AXIS2_PLACEMENT_3D('',#531,#532,#533);
#405=SURFACE_STYLE_FILL_AREA(#534);
#406=ORIENTED_EDGE('',*,*,#134,.T.);
#407=ORIENTED_EDGE('',*,*,#100,.F.);
#408=ORIENTED_EDGE('',*,*,#142,.T.);
#409=ORIENTED_EDGE('',*,*,#154,.T.);
#410=CARTESIAN_POINT('',(0.0,0.0,-101.038024998605));
#411=DIRECTION('',(-0.0,-0.0,1.0));
#412=DIRECTION('',(0.0,1.0,0.0));
#413=CARTESIAN_POINT('',(0.0,0.0,-60.3));
#414=DIRECTION('',(0.0,-0.0,1.0));
#415=DIRECTION('',(0.0,1.0,0.0));
#416=SURFACE_STYLE_FILL_AREA(#535);
#417=ORIENTED_EDGE('',*,*,#126,.F.);
#418=ORIENTED_EDGE('',*,*,#148,.T.);
#419=ORIENTED_EDGE('',*,*,#104,.F.);
#420=ORIENTED_EDGE('',*,*,#86,.F.);
#421=CARTESIAN_POINT('',(0.0,0.0,-22.6455));
#422=DIRECTION('',(-0.0,-0.0,1.0));
#423=DIRECTION('',(0.0,1.0,0.0));
#424=SURFACE_STYLE_FILL_AREA(#536);
#425=ORIENTED_EDGE('',*,*,#136,.T.);
#426=ORIENTED_EDGE('',*,*,#154,.F.);
#427=ORIENTED_EDGE('',*,*,#112,.T.);
#428=ORIENTED_EDGE('',*,*,#70,.F.);
#429=CARTESIAN_POINT('',(0.0,0.0,-80.3880249986048));
#430=DIRECTION('',(-0.0,-0.0,1.0));
#431=DIRECTION('',(0.0,1.0,0.0));
#432=CARTESIAN_POINT('',(0.0,0.0,-60.3));
#433=DIRECTION('',(0.0,0.0,-1.0));
#434=DIRECTION('',(0.0,-1.0,0.0));
#435=CARTESIAN_POINT('',(0.0,0.0,-101.6));
#436=DIRECTION('',(0.0,0.0,-1.0));
#437=DIRECTION('',(0.0,1.0,0.0));
#438=SURFACE_STYLE_FILL_AREA(#537);
#439=ORIENTED_EDGE('',*,*,#136,.F.);
#440=ORIENTED_EDGE('',*,*,#120,.F.);
#441=ORIENTED_EDGE('',*,*,#112,.F.);
#442=ORIENTED_EDGE('',*,*,#150,.F.);
#443=CARTESIAN_POINT('',(0.0,0.0,-80.3880249986048));
#444=DIRECTION('',(-0.0,-0.0,1.0));
#445=DIRECTION('',(0.0,1.0,0.0));
#446=DIRECTION('',(-6.12303176911187E-017,0.499999999999999,-0.866025403784439));
#447=SURFACE_STYLE_FILL_AREA(#538);
#448=CARTESIAN_POINT('',(0.0,0.0,-101.6));
#449=DIRECTION('',(0.0,0.0,-1.0));
#450=DIRECTION('',(0.0,1.0,0.0));
#451=SURFACE_STYLE_FILL_AREA(#539);
#452=ORIENTED_EDGE('',*,*,#70,.T.);
#453=ORIENTED_EDGE('',*,*,#120,.T.);
#454=ORIENTED_EDGE('',*,*,#114,.T.);
#455=ORIENTED_EDGE('',*,*,#86,.T.);
#456=CARTESIAN_POINT('',(0.0,0.0,-60.3));
#457=DIRECTION('',(0.0,0.0,-1.0));
#458=DIRECTION('',(0.0,-1.0,0.0));
#459=DIRECTION('',(-0.0,-0.0,1.0));
#460=SURFACE_STYLE_FILL_AREA(#540);
#461=ORIENTED_EDGE('',*,*,#94,.F.);
#462=ORIENTED_EDGE('',*,*,#124,.T.);
#463=ORIENTED_EDGE('',*,*,#128,.F.);
#464=ORIENTED_EDGE('',*,*,#148,.F.);
#465=CARTESIAN_POINT('',(0.0,0.0,-0.595499999999994));
#466=DIRECTION('',(0.0,-0.0,-1.0));
#467=DIRECTION('',(0.0,1.0,0.0));
#468=SURFACE_STYLE_FILL_AREA(#541);
#469=ORIENTED_EDGE('',*,*,#94,.T.);
#470=ORIENTED_EDGE('',*,*,#138,.F.);
#471=ORIENTED_EDGE('',*,*,#128,.T.);
#472=ORIENTED_EDGE('',*,*,#116,.T.);
#473=CARTESIAN_POINT('',(0.0,0.0,-0.595499999999994));
#474=DIRECTION('',(0.0,-0.0,-1.0));
#475=DIRECTION('',(0.0,1.0,0.0));
#476=DIRECTION('',(-0.0,-0.0,1.0));
#477=CARTESIAN_POINT('',(0.0,0.0,-60.3));
#478=DIRECTION('',(0.0,0.0,-1.0));
#479=DIRECTION('',(0.0,-1.0,0.0));
#480=CARTESIAN_POINT('',(0.0,0.0,7.105427357601E-015));
#481=DIRECTION('',(0.0,0.0,-1.0));
#482=DIRECTION('',(0.0,1.0,0.0));
#483=SURFACE_STYLE_FILL_AREA(#542);
#484=ORIENTED_EDGE('',*,*,#88,.T.);
#485=ORIENTED_EDGE('',*,*,#100,.T.);
#486=CARTESIAN_POINT('',(0.0,3.757380745,-101.6));
#487=DIRECTION('',(0.0,0.0,-1.0));
#488=DIRECTION('',(0.0,1.0,0.0));
#489=CARTESIAN_POINT('',(0.0,0.0,-60.3));
#490=DIRECTION('',(0.0,-0.0,1.0));
#491=DIRECTION('',(0.0,1.0,0.0));
#492=SURFACE_STYLE_FILL_AREA(#543);
#493=ORIENTED_EDGE('',*,*,#134,.F.);
#494=ORIENTED_EDGE('',*,*,#150,.T.);
#495=ORIENTED_EDGE('',*,*,#142,.F.);
#496=ORIENTED_EDGE('',*,*,#88,.F.);
#497=CARTESIAN_POINT('',(0.0,0.0,-101.038024998605));
#498=DIRECTION('',(-0.0,-0.0,1.0));
#499=DIRECTION('',(0.0,1.0,0.0));
#500=CARTESIAN_POINT('',(0.0,0.0,7.105427357601E-015));
#501=DIRECTION('',(0.0,0.0,-1.0));
#502=DIRECTION('',(0.0,1.0,0.0));
#503=DIRECTION('',(0.0,0.0,-1.0));
#504=DIRECTION('',(-6.12303176911187E-017,0.499999999999999,0.866025403784439));
#505=SURFACE_STYLE_FILL_AREA(#544);
#506=ORIENTED_EDGE('',*,*,#126,.T.);
#507=ORIENTED_EDGE('',*,*,#114,.F.);
#508=ORIENTED_EDGE('',*,*,#104,.T.);
#509=ORIENTED_EDGE('',*,*,#138,.T.);
#510=CARTESIAN_POINT('',(0.0,0.0,-22.6455));
#511=DIRECTION('',(-0.0,-0.0,1.0));
#512=DIRECTION('',(0.0,1.0,0.0));
#513=DIRECTION('',(1.06054021204601E-016,-0.866025403784439,-0.499999999999999));
#514=DIRECTION('',(0.0,0.0,-1.0));
#515=CARTESIAN_POINT('',(0.0,0.0,-1.191));
#516=DIRECTION('',(0.0,0.0,-1.0));
#517=DIRECTION('',(0.0,1.0,0.0));
#518=DIRECTION('',(1.06054021204601E-016,-0.866025403784439,0.499999999999999));
#519=SURFACE_STYLE_FILL_AREA(#545);
#520=ORIENTED_EDGE('',*,*,#124,.F.);
#521=ORIENTED_EDGE('',*,*,#116,.F.);
#522=CARTESIAN_POINT('',(0.0,4.41868791469758,7.105427357601E-015));
#523=DIRECTION('',(-0.0,0.0,1.0));
#524=DIRECTION('',(0.0,-1.0,0.0));
#525=CARTESIAN_POINT('',(0.0,0.0,-1.191));
#526=DIRECTION('',(0.0,0.0,-1.0));
#527=DIRECTION('',(0.0,1.0,0.0));
#528=CARTESIAN_POINT('',(0.0,0.0,-100.47604999721));
#529=DIRECTION('',(0.0,0.0,-1.0));
#530=DIRECTION('',(0.0,1.0,0.0));
#531=CARTESIAN_POINT('',(0.0,0.0,-100.47604999721));
#532=DIRECTION('',(0.0,0.0,-1.0));
#533=DIRECTION('',(0.0,1.0,0.0));
#534=FILL_AREA_STYLE('',(#546));
#535=FILL_AREA_STYLE('',(#547));
#536=FILL_AREA_STYLE('',(#548));
#537=FILL_AREA_STYLE('',(#549));
#538=FILL_AREA_STYLE('',(#550));
#539=FILL_AREA_STYLE('',(#551));
#540=FILL_AREA_STYLE('',(#552));
#541=FILL_AREA_STYLE('',(#553));
#542=FILL_AREA_STYLE('',(#554));
#543=FILL_AREA_STYLE('',(#555));
#544=FILL_AREA_STYLE('',(#556));
#545=FILL_AREA_STYLE('',(#557));
#546=FILL_AREA_STYLE_COLOUR('',#558);
#547=FILL_AREA_STYLE_COLOUR('',#559);
#548=FILL_AREA_STYLE_COLOUR('',#560);
#549=FILL_AREA_STYLE_COLOUR('',#561);
#550=FILL_AREA_STYLE_COLOUR('',#562);
#551=FILL_AREA_STYLE_COLOUR('',#563);
#552=FILL_AREA_STYLE_COLOUR('',#564);
#553=FILL_AREA_STYLE_COLOUR('',#565);
#554=FILL_AREA_STYLE_COLOUR('',#566);
#555=FILL_AREA_STYLE_COLOUR('',#567);
#556=FILL_AREA_STYLE_COLOUR('',#568);
#557=FILL_AREA_STYLE_COLOUR('',#569);
#558=COLOUR_RGB('',0.800000011920929,0.800000011920929,0.800000011920929);
#559=COLOUR_RGB('',0.498039215803146,0.498039215803146,0.498039215803146);
#560=COLOUR_RGB('',0.800000011920929,0.800000011920929,0.800000011920929);
#561=COLOUR_RGB('',0.800000011920929,0.800000011920929,0.800000011920929);
#562=COLOUR_RGB('',0.498039215803146,0.498039215803146,0.498039215803146);
#563=COLOUR_RGB('',0.498039215803146,0.498039215803146,0.498039215803146);
#564=COLOUR_RGB('',0.498039215803146,0.498039215803146,0.498039215803146);
#565=COLOUR_RGB('',0.498039215803146,0.498039215803146,0.498039215803146);
#566=COLOUR_RGB('',0.498039215803146,0.498039215803146,0.498039215803146);
#567=COLOUR_RGB('',0.800000011920929,0.800000011920929,0.800000011920929);
#568=COLOUR_RGB('',0.498039215803146,0.498039215803146,0.498039215803146);
#569=COLOUR_RGB('',0.498039215803146,0.498039215803146,0.498039215803146);
#570=AXIS2_PLACEMENT_3D('PCS',#571,#572,#573);
#571=CARTESIAN_POINT('',(0.0,0.0,0.0));
#572=DIRECTION('',(0.0,0.0,1.0));
#573=DIRECTION('',(1.0,0.0,0.0));
#574=AXIS2_PLACEMENT_3D('CIP',#575,#576,#577);
#575=CARTESIAN_POINT('',(0.0,0.0,-101.6));
#576=DIRECTION('',(0.0,0.0,1.0));
#577=DIRECTION('',(1.0,0.0,0.0));
#578=AXIS2_PLACEMENT_3D('CRP',#579,#580,#581);
#579=CARTESIAN_POINT('',(-9.4615,0.0,-101.6));
#580=DIRECTION('',(0.0,0.0,1.0));
#581=DIRECTION('',(1.0,0.0,0.0));
#582=AXIS2_PLACEMENT_3D('MCS',#583,#584,#585);
#583=CARTESIAN_POINT('',(0.0,0.0,-44.1));
#584=DIRECTION('',(0.0,0.0,1.0));
#585=DIRECTION('',(1.0,0.0,0.0));
#586=CONSTRUCTIVE_GEOMETRY_REPRESENTATION_RELATIONSHIP('coordinate systems',$,#58,#587);
#587=CONSTRUCTIVE_GEOMETRY_REPRESENTATION('coordinate systems',(#570,#574,#578,#582),#6);
ENDSEC;
END-ISO-10303-21;
