ISO-10303-21;
HEADER;
FILE_DESCRIPTION(('no description'),'unknown implementation level');
FILE_NAME('solid7UuAzAIfRFCDUHdQl_5Nyw7S2XY_1.STP','  ',('CIMSOURCE GmbH'),('CADClick - KiM GmbH - www.kimweb.de'),'unknown preprocess','ACIS','unknown authorization');
FILE_SCHEMA(('automotive_design'));
ENDSEC;
DATA;
#1=MECHANICAL_DESIGN_GEOMETRIC_PRESENTATION_REPRESENTATION(' ',(#10,#11,#12,#13,#14,#15,#16,#17,#18,#19,#20,#21,#22,#23,#24,#25,#26,#27,#28,#29,#30,#31,#32,#33,#34,#35,#36,#37,#38,#39,#40,#41,#42,#43,#44,#45,#46,#47,#48,#49,#50,#51,#52,#53),#6);
#2=PRODUCT_DEFINITION_CONTEXT('',#54,'design');
#3=APPLICATION_PROTOCOL_DEFINITION('INTERNATIONAL STANDARD','automotive_design',1994,#54);
#4=PRODUCT_CATEGORY_RELATIONSHIP('NONE','NONE',#55,#56);
#5=SHAPE_DEFINITION_REPRESENTATION(#57,#58);
#6= (GEOMETRIC_REPRESENTATION_CONTEXT(3)GLOBAL_UNCERTAINTY_ASSIGNED_CONTEXT((#61))GLOBAL_UNIT_ASSIGNED_CONTEXT((#63,#64,#65))REPRESENTATION_CONTEXT('NONE','WORKSPACE'));
#10=STYLED_ITEM('',(#67),#68);
#11=STYLED_ITEM('',(#69),#70);
#12=STYLED_ITEM('',(#71),#72);
#13=STYLED_ITEM('',(#73),#74);
#14=STYLED_ITEM('',(#75),#76);
#15=STYLED_ITEM('',(#77),#78);
#16=STYLED_ITEM('',(#79),#80);
#17=STYLED_ITEM('',(#81),#82);
#18=STYLED_ITEM('',(#83),#84);
#19=STYLED_ITEM('',(#85),#86);
#20=STYLED_ITEM('',(#87),#88);
#21=STYLED_ITEM('',(#89),#90);
#22=STYLED_ITEM('',(#91),#92);
#23=STYLED_ITEM('',(#93),#94);
#24=STYLED_ITEM('',(#95),#96);
#25=STYLED_ITEM('',(#97),#98);
#26=STYLED_ITEM('',(#99),#100);
#27=STYLED_ITEM('',(#101),#102);
#28=STYLED_ITEM('',(#103),#104);
#29=STYLED_ITEM('',(#105),#106);
#30=STYLED_ITEM('',(#107),#108);
#31=STYLED_ITEM('',(#109),#110);
#32=STYLED_ITEM('',(#111),#112);
#33=STYLED_ITEM('',(#113),#114);
#34=STYLED_ITEM('',(#115),#116);
#35=STYLED_ITEM('',(#117),#118);
#36=STYLED_ITEM('',(#119),#120);
#37=STYLED_ITEM('',(#121),#122);
#38=STYLED_ITEM('',(#123),#124);
#39=STYLED_ITEM('',(#125),#126);
#40=STYLED_ITEM('',(#127),#128);
#41=STYLED_ITEM('',(#129),#130);
#42=STYLED_ITEM('',(#131),#132);
#43=STYLED_ITEM('',(#133),#134);
#44=STYLED_ITEM('',(#135),#136);
#45=STYLED_ITEM('',(#137),#138);
#46=STYLED_ITEM('',(#139),#140);
#47=STYLED_ITEM('',(#141),#142);
#48=STYLED_ITEM('',(#143),#144);
#49=STYLED_ITEM('',(#145),#146);
#50=STYLED_ITEM('',(#147),#148);
#51=STYLED_ITEM('',(#149),#150);
#52=STYLED_ITEM('',(#151),#152);
#53=STYLED_ITEM('',(#153),#154);
#54=APPLICATION_CONTEXT(' ');
#55=PRODUCT_CATEGORY('part','NONE');
#56=PRODUCT_RELATED_PRODUCT_CATEGORY('detail',' ',(#155));
#57=PRODUCT_DEFINITION_SHAPE('NONE','NONE',#156);
#58=ADVANCED_BREP_SHAPE_REPRESENTATION('1',(#128,#157),#6);
#61=UNCERTAINTY_MEASURE_WITH_UNIT(LENGTH_MEASURE(1.0E-006),#63,'','');
#63= (CONVERSION_BASED_UNIT('MILLIMETRE',#160)LENGTH_UNIT()NAMED_UNIT(#163));
#64= (NAMED_UNIT(#165)PLANE_ANGLE_UNIT()SI_UNIT($,.RADIAN.));
#65= (NAMED_UNIT(#165)SOLID_ANGLE_UNIT()SI_UNIT($,.STERADIAN.));
#67=PRESENTATION_STYLE_ASSIGNMENT((#171));
#68=EDGE_CURVE('',#94,#148,#172,.T.);
#69=PRESENTATION_STYLE_ASSIGNMENT((#173));
#70=EDGE_CURVE('',#92,#96,#174,.T.);
#71=PRESENTATION_STYLE_ASSIGNMENT((#175));
#72=ADVANCED_FACE('',(#176),#177,.T.);
#73=PRESENTATION_STYLE_ASSIGNMENT((#178));
#74=EDGE_CURVE('',#96,#92,#179,.T.);
#75=PRESENTATION_STYLE_ASSIGNMENT((#180));
#76=EDGE_CURVE('',#78,#94,#181,.T.);
#77=PRESENTATION_STYLE_ASSIGNMENT((#182));
#78=VERTEX_POINT('',#183);
#79=PRESENTATION_STYLE_ASSIGNMENT((#184));
#80=EDGE_CURVE('',#92,#148,#185,.T.);
#81=PRESENTATION_STYLE_ASSIGNMENT((#186));
#82=EDGE_CURVE('',#106,#126,#187,.T.);
#83=PRESENTATION_STYLE_ASSIGNMENT((#188));
#84=ADVANCED_FACE('',(#189),#190,.T.);
#85=PRESENTATION_STYLE_ASSIGNMENT((#191));
#86=ADVANCED_FACE('',(#192),#193,.T.);
#87=PRESENTATION_STYLE_ASSIGNMENT((#194));
#88=ADVANCED_FACE('',(#195),#196,.T.);
#89=PRESENTATION_STYLE_ASSIGNMENT((#197));
#90=EDGE_CURVE('',#140,#78,#198,.T.);
#91=PRESENTATION_STYLE_ASSIGNMENT((#199));
#92=VERTEX_POINT('',#200);
#93=PRESENTATION_STYLE_ASSIGNMENT((#201));
#94=VERTEX_POINT('',#202);
#95=PRESENTATION_STYLE_ASSIGNMENT((#203));
#96=VERTEX_POINT('',#204);
#97=PRESENTATION_STYLE_ASSIGNMENT((#205));
#98=ADVANCED_FACE('',(#206),#207,.T.);
#99=PRESENTATION_STYLE_ASSIGNMENT((#208));
#100=EDGE_CURVE('',#150,#116,#209,.T.);
#101=PRESENTATION_STYLE_ASSIGNMENT((#210));
#102=ADVANCED_FACE('',(#211),#212,.T.);
#103=PRESENTATION_STYLE_ASSIGNMENT((#213));
#104=EDGE_CURVE('',#78,#140,#214,.T.);
#105=PRESENTATION_STYLE_ASSIGNMENT((#215));
#106=VERTEX_POINT('',#216);
#107=PRESENTATION_STYLE_ASSIGNMENT((#217));
#108=EDGE_CURVE('',#110,#132,#218,.T.);
#109=PRESENTATION_STYLE_ASSIGNMENT((#219));
#110=VERTEX_POINT('',#220);
#111=PRESENTATION_STYLE_ASSIGNMENT((#221));
#112=ADVANCED_FACE('',(#222,#223),#224,.T.);
#113=PRESENTATION_STYLE_ASSIGNMENT((#225));
#114=ADVANCED_FACE('',(#226),#227,.T.);
#115=PRESENTATION_STYLE_ASSIGNMENT((#228));
#116=VERTEX_POINT('',#229);
#117=PRESENTATION_STYLE_ASSIGNMENT((#230));
#118=ADVANCED_FACE('',(#231),#232,.T.);
#119=PRESENTATION_STYLE_ASSIGNMENT((#233));
#120=EDGE_CURVE('',#94,#96,#234,.T.);
#121=PRESENTATION_STYLE_ASSIGNMENT((#235));
#122=EDGE_CURVE('',#116,#150,#236,.T.);
#123=PRESENTATION_STYLE_ASSIGNMENT((#237));
#124=ADVANCED_FACE('',(#238),#239,.T.);
#125=PRESENTATION_STYLE_ASSIGNMENT((#240));
#126=VERTEX_POINT('',#241);
#127=PRESENTATION_STYLE_ASSIGNMENT((#242));
#128=MANIFOLD_SOLID_BREP('1',#243);
#129=PRESENTATION_STYLE_ASSIGNMENT((#244));
#130=EDGE_CURVE('',#150,#132,#245,.T.);
#131=PRESENTATION_STYLE_ASSIGNMENT((#246));
#132=VERTEX_POINT('',#247);
#133=PRESENTATION_STYLE_ASSIGNMENT((#248));
#134=ADVANCED_FACE('',(#249),#250,.T.);
#135=PRESENTATION_STYLE_ASSIGNMENT((#251));
#136=EDGE_CURVE('',#126,#106,#252,.T.);
#137=PRESENTATION_STYLE_ASSIGNMENT((#253));
#138=EDGE_CURVE('',#132,#126,#254,.T.);
#139=PRESENTATION_STYLE_ASSIGNMENT((#255));
#140=VERTEX_POINT('',#256);
#141=PRESENTATION_STYLE_ASSIGNMENT((#257));
#142=EDGE_CURVE('',#106,#110,#258,.T.);
#143=PRESENTATION_STYLE_ASSIGNMENT((#259));
#144=EDGE_CURVE('',#148,#140,#260,.T.);
#145=PRESENTATION_STYLE_ASSIGNMENT((#261));
#146=EDGE_CURVE('',#110,#116,#262,.T.);
#147=PRESENTATION_STYLE_ASSIGNMENT((#263));
#148=VERTEX_POINT('',#264);
#149=PRESENTATION_STYLE_ASSIGNMENT((#265));
#150=VERTEX_POINT('',#266);
#151=PRESENTATION_STYLE_ASSIGNMENT((#267));
#152=EDGE_CURVE('',#132,#110,#268,.T.);
#153=PRESENTATION_STYLE_ASSIGNMENT((#269));
#154=EDGE_CURVE('',#148,#94,#270,.T.);
#155=PRODUCT('1','1','PART-1-DESC',(#271));
#156=PRODUCT_DEFINITION('NONE','NONE',#272,#2);
#157=AXIS2_PLACEMENT_3D('',#273,#274,#275);
#160=LENGTH_MEASURE_WITH_UNIT(LENGTH_MEASURE(1.0),#276);
#163=DIMENSIONAL_EXPONENTS(1.0,0.0,0.0,0.0,0.0,0.0,0.0);
#165=DIMENSIONAL_EXPONENTS(0.0,0.0,0.0,0.0,0.0,0.0,0.0);
#171=CURVE_STYLE('',#277,POSITIVE_LENGTH_MEASURE(1.0E-006),#278);
#172=CIRCLE('',#279,9.525);
#173=CURVE_STYLE('',#280,POSITIVE_LENGTH_MEASURE(1.0E-006),#281);
#174=CIRCLE('',#282,9.525);
#175=SURFACE_STYLE_USAGE(.BOTH.,#283);
#176=FACE_OUTER_BOUND('',#284,.T.);
#177=PLANE('',#285);
#178=CURVE_STYLE('',#286,POSITIVE_LENGTH_MEASURE(1.0E-006),#287);
#179=CIRCLE('',#288,9.525);
#180=CURVE_STYLE('',#289,POSITIVE_LENGTH_MEASURE(1.0E-006),#290);
#181=LINE('',#291,#292);
#182=POINT_STYLE(' ',#293,POSITIVE_LENGTH_MEASURE(1.0E-006),#294);
#183=CARTESIAN_POINT('',(0.0,8.83737582939516,7.105427357601E-015));
#184=CURVE_STYLE('',#295,POSITIVE_LENGTH_MEASURE(1.0E-006),#296);
#185=LINE('',#297,#298);
#186=CURVE_STYLE('',#299,POSITIVE_LENGTH_MEASURE(1.0E-006),#300);
#187=CIRCLE('',#301,9.4615);
#188=SURFACE_STYLE_USAGE(.BOTH.,#302);
#189=FACE_OUTER_BOUND('',#303,.T.);
#190=CYLINDRICAL_SURFACE('',#304,9.525);
#191=SURFACE_STYLE_USAGE(.BOTH.,#305);
#192=FACE_OUTER_BOUND('',#306,.T.);
#193=CONICAL_SURFACE('',#307,8.812587165,1.0471975511966);
#194=SURFACE_STYLE_USAGE(.BOTH.,#308);
#195=FACE_OUTER_BOUND('',#309,.T.);
#196=CYLINDRICAL_SURFACE('',#310,9.4615);
#197=CURVE_STYLE('',#311,POSITIVE_LENGTH_MEASURE(1.0E-006),#312);
#198=CIRCLE('',#313,8.83737582939516);
#199=POINT_STYLE(' ',#314,POSITIVE_LENGTH_MEASURE(1.0E-006),#315);
#200=CARTESIAN_POINT('',(0.0,-9.525,-61.4));
#201=POINT_STYLE(' ',#316,POSITIVE_LENGTH_MEASURE(1.0E-006),#317);
#202=CARTESIAN_POINT('',(0.0,9.525,-1.191));
#203=POINT_STYLE(' ',#318,POSITIVE_LENGTH_MEASURE(1.0E-006),#319);
#204=CARTESIAN_POINT('',(-1.16643755201581E-015,9.525,-61.4));
#205=SURFACE_STYLE_USAGE(.BOTH.,#320);
#206=FACE_OUTER_BOUND('',#321,.T.);
#207=CONICAL_SURFACE('',#322,8.812587165,1.0471975511966);
#208=CURVE_STYLE('',#323,POSITIVE_LENGTH_MEASURE(1.0E-006),#324);
#209=CIRCLE('',#325,8.16367433);
#210=SURFACE_STYLE_USAGE(.BOTH.,#326);
#211=FACE_OUTER_BOUND('',#327,.T.);
#212=CYLINDRICAL_SURFACE('',#328,9.4615);
#213=CURVE_STYLE('',#329,POSITIVE_LENGTH_MEASURE(1.0E-006),#330);
#214=CIRCLE('',#331,8.83737582939516);
#215=POINT_STYLE(' ',#332,POSITIVE_LENGTH_MEASURE(1.0E-006),#333);
#216=CARTESIAN_POINT('',(0.0,9.4615,-61.4));
#217=CURVE_STYLE('',#334,POSITIVE_LENGTH_MEASURE(1.0E-006),#335);
#218=CIRCLE('',#336,9.4615);
#219=POINT_STYLE(' ',#337,POSITIVE_LENGTH_MEASURE(1.0E-006),#338);
#220=CARTESIAN_POINT('',(0.0,9.4615,-100.850700000064));
#221=SURFACE_STYLE_USAGE(.BOTH.,#339);
#222=FACE_BOUND('',#340,.T.);
#223=FACE_OUTER_BOUND('',#341,.T.);
#224=PLANE('',#342);
#225=SURFACE_STYLE_USAGE(.BOTH.,#343);
#226=FACE_OUTER_BOUND('',#344,.T.);
#227=PLANE('',#345);
#228=POINT_STYLE(' ',#346,POSITIVE_LENGTH_MEASURE(1.0E-006),#347);
#229=CARTESIAN_POINT('',(0.0,8.16367433,-101.6));
#230=SURFACE_STYLE_USAGE(.BOTH.,#348);
#231=FACE_OUTER_BOUND('',#349,.T.);
#232=CYLINDRICAL_SURFACE('',#350,9.525);
#233=CURVE_STYLE('',#351,POSITIVE_LENGTH_MEASURE(1.0E-006),#352);
#234=LINE('',#353,#354);
#235=CURVE_STYLE('',#355,POSITIVE_LENGTH_MEASURE(1.0E-006),#356);
#236=CIRCLE('',#357,8.16367433);
#237=SURFACE_STYLE_USAGE(.BOTH.,#358);
#238=FACE_OUTER_BOUND('',#359,.T.);
#239=CONICAL_SURFACE('',#360,9.18118791469758,0.523598775598298);
#240=POINT_STYLE(' ',#361,POSITIVE_LENGTH_MEASURE(1.0E-006),#362);
#241=CARTESIAN_POINT('',(1.15866130166904E-015,-9.4615,-61.4));
#242=SURFACE_STYLE_USAGE(.BOTH.,#363);
#243=CLOSED_SHELL('',(#118,#124,#98,#88,#102,#86,#112,#114,#134,#84,#72));
#244=CURVE_STYLE('',#364,POSITIVE_LENGTH_MEASURE(1.0E-006),#365);
#245=LINE('',#366,#367);
#246=POINT_STYLE(' ',#368,POSITIVE_LENGTH_MEASURE(1.0E-006),#369);
#247=CARTESIAN_POINT('',(1.15866130166904E-015,-9.4615,-100.850700000064));
#248=SURFACE_STYLE_USAGE(.BOTH.,#370);
#249=FACE_OUTER_BOUND('',#371,.T.);
#250=CONICAL_SURFACE('',#372,9.18118791469758,0.523598775598298);
#251=CURVE_STYLE('',#373,POSITIVE_LENGTH_MEASURE(1.0E-006),#374);
#252=CIRCLE('',#375,9.4615);
#253=CURVE_STYLE('',#376,POSITIVE_LENGTH_MEASURE(1.0E-006),#377);
#254=LINE('',#378,#379);
#255=POINT_STYLE(' ',#380,POSITIVE_LENGTH_MEASURE(1.0E-006),#381);
#256=CARTESIAN_POINT('',(1.08223065917936E-015,-8.83737582939516,7.105427357601E-015));
#257=CURVE_STYLE('',#382,POSITIVE_LENGTH_MEASURE(1.0E-006),#383);
#258=LINE('',#384,#385);
#259=CURVE_STYLE('',#386,POSITIVE_LENGTH_MEASURE(1.0E-006),#387);
#260=LINE('',#388,#389);
#261=CURVE_STYLE('',#390,POSITIVE_LENGTH_MEASURE(1.0E-006),#391);
#262=LINE('',#392,#393);
#263=POINT_STYLE(' ',#394,POSITIVE_LENGTH_MEASURE(1.0E-006),#395);
#264=CARTESIAN_POINT('',(1.16643755201581E-015,-9.525,-1.191));
#265=POINT_STYLE(' ',#396,POSITIVE_LENGTH_MEASURE(1.0E-006),#397);
#266=CARTESIAN_POINT('',(9.99728745505464E-016,-8.16367433,-101.6));
#267=CURVE_STYLE('',#398,POSITIVE_LENGTH_MEASURE(1.0E-006),#399);
#268=CIRCLE('',#400,9.4615);
#269=CURVE_STYLE('',#401,POSITIVE_LENGTH_MEASURE(1.0E-006),#402);
#270=CIRCLE('',#403,9.525);
#271=PRODUCT_CONTEXT('',#54,'mechanical');
#272=PRODUCT_DEFINITION_FORMATION_WITH_SPECIFIED_SOURCE(' ','NONE',#155,.NOT_KNOWN.);
#273=CARTESIAN_POINT('',(0.0,0.0,0.0));
#274=DIRECTION('',(0.0,0.0,1.0));
#275=DIRECTION('',(1.0,0.0,0.0));
#276= (NAMED_UNIT(#163)LENGTH_UNIT()SI_UNIT(.MILLI.,.METRE.));
#277=DRAUGHTING_PRE_DEFINED_CURVE_FONT('continuous');
#278=COLOUR_RGB('',0.498039215803146,0.498039215803146,0.498039215803146);
#279=AXIS2_PLACEMENT_3D('',#405,#406,#407);
#280=DRAUGHTING_PRE_DEFINED_CURVE_FONT('continuous');
#281=COLOUR_RGB('',0.498039215803146,0.498039215803146,0.498039215803146);
#282=AXIS2_PLACEMENT_3D('',#408,#409,#410);
#283=SURFACE_SIDE_STYLE('',(#411));
#284=EDGE_LOOP('',(#412,#413));
#285=AXIS2_PLACEMENT_3D('',#414,#415,#416);
#286=DRAUGHTING_PRE_DEFINED_CURVE_FONT('continuous');
#287=COLOUR_RGB('',0.498039215803146,0.498039215803146,0.498039215803146);
#288=AXIS2_PLACEMENT_3D('',#417,#418,#419);
#289=DRAUGHTING_PRE_DEFINED_CURVE_FONT('continuous');
#290=COLOUR_RGB('',0.498039215803146,0.498039215803146,0.498039215803146);
#291=CARTESIAN_POINT('',(-1.12433410559759E-015,9.18118791469758,-0.595499999999994));
#292=VECTOR('',#420,1.0);
#293=PRE_DEFINED_MARKER('');
#294=COLOUR_RGB('',0.498039215803146,0.498039215803146,0.498039215803146);
#295=DRAUGHTING_PRE_DEFINED_CURVE_FONT('continuous');
#296=COLOUR_RGB('',0.498039215803146,0.498039215803146,0.498039215803146);
#297=CARTESIAN_POINT('',(1.16643755201581E-015,-9.525,-23.1455));
#298=VECTOR('',#421,1.0);
#299=DRAUGHTING_PRE_DEFINED_CURVE_FONT('continuous');
#300=COLOUR_RGB('',0.498039215803146,0.498039215803146,0.498039215803146);
#301=AXIS2_PLACEMENT_3D('',#422,#423,#424);
#302=SURFACE_SIDE_STYLE('',(#425));
#303=EDGE_LOOP('',(#426,#427,#428,#429));
#304=AXIS2_PLACEMENT_3D('',#430,#431,#432);
#305=SURFACE_SIDE_STYLE('',(#433));
#306=EDGE_LOOP('',(#434,#435,#436,#437));
#307=AXIS2_PLACEMENT_3D('',#438,#439,#440);
#308=SURFACE_SIDE_STYLE('',(#441));
#309=EDGE_LOOP('',(#442,#443,#444,#445));
#310=AXIS2_PLACEMENT_3D('',#446,#447,#448);
#311=DRAUGHTING_PRE_DEFINED_CURVE_FONT('continuous');
#312=COLOUR_RGB('',0.498039215803146,0.498039215803146,0.498039215803146);
#313=AXIS2_PLACEMENT_3D('',#449,#450,#451);
#314=PRE_DEFINED_MARKER('');
#315=COLOUR_RGB('',0.498039215803146,0.498039215803146,0.498039215803146);
#316=PRE_DEFINED_MARKER('');
#317=COLOUR_RGB('',0.498039215803146,0.498039215803146,0.498039215803146);
#318=PRE_DEFINED_MARKER('');
#319=COLOUR_RGB('',0.498039215803146,0.498039215803146,0.498039215803146);
#320=SURFACE_SIDE_STYLE('',(#452));
#321=EDGE_LOOP('',(#453,#454,#455,#456));
#322=AXIS2_PLACEMENT_3D('',#457,#458,#459);
#323=DRAUGHTING_PRE_DEFINED_CURVE_FONT('continuous');
#324=COLOUR_RGB('',0.498039215803146,0.498039215803146,0.498039215803146);
#325=AXIS2_PLACEMENT_3D('',#460,#461,#462);
#326=SURFACE_SIDE_STYLE('',(#463));
#327=EDGE_LOOP('',(#464,#465,#466,#467));
#328=AXIS2_PLACEMENT_3D('',#468,#469,#470);
#329=DRAUGHTING_PRE_DEFINED_CURVE_FONT('continuous');
#330=COLOUR_RGB('',0.498039215803146,0.498039215803146,0.498039215803146);
#331=AXIS2_PLACEMENT_3D('',#471,#472,#473);
#332=PRE_DEFINED_MARKER('');
#333=COLOUR_RGB('',0.498039215803146,0.498039215803146,0.498039215803146);
#334=DRAUGHTING_PRE_DEFINED_CURVE_FONT('continuous');
#335=COLOUR_RGB('',0.800000011920929,0.800000011920929,0.800000011920929);
#336=AXIS2_PLACEMENT_3D('',#474,#475,#476);
#337=PRE_DEFINED_MARKER('');
#338=COLOUR_RGB('',0.800000011920929,0.800000011920929,0.800000011920929);
#339=SURFACE_SIDE_STYLE('',(#477));
#340=EDGE_LOOP('',(#478,#479));
#341=EDGE_LOOP('',(#480,#481));
#342=AXIS2_PLACEMENT_3D('',#482,#483,#484);
#343=SURFACE_SIDE_STYLE('',(#485));
#344=EDGE_LOOP('',(#486,#487));
#345=AXIS2_PLACEMENT_3D('',#488,#489,#490);
#346=PRE_DEFINED_MARKER('');
#347=COLOUR_RGB('',0.498039215803146,0.498039215803146,0.498039215803146);
#348=SURFACE_SIDE_STYLE('',(#491));
#349=EDGE_LOOP('',(#492,#493,#494,#495));
#350=AXIS2_PLACEMENT_3D('',#496,#497,#498);
#351=DRAUGHTING_PRE_DEFINED_CURVE_FONT('continuous');
#352=COLOUR_RGB('',0.498039215803146,0.498039215803146,0.498039215803146);
#353=CARTESIAN_POINT('',(-1.16643755201581E-015,9.525,-23.1455));
#354=VECTOR('',#499,1.0);
#355=DRAUGHTING_PRE_DEFINED_CURVE_FONT('continuous');
#356=COLOUR_RGB('',0.498039215803146,0.498039215803146,0.498039215803146);
#357=AXIS2_PLACEMENT_3D('',#500,#501,#502);
#358=SURFACE_SIDE_STYLE('',(#503));
#359=EDGE_LOOP('',(#504,#505,#506,#507));
#360=AXIS2_PLACEMENT_3D('',#508,#509,#510);
#361=PRE_DEFINED_MARKER('');
#362=COLOUR_RGB('',0.498039215803146,0.498039215803146,0.498039215803146);
#363=SURFACE_SIDE_STYLE('',(#511));
#364=DRAUGHTING_PRE_DEFINED_CURVE_FONT('continuous');
#365=COLOUR_RGB('',0.800000011920929,0.800000011920929,0.800000011920929);
#366=CARTESIAN_POINT('',(1.07919502358725E-015,-8.812587165,-101.225350000032));
#367=VECTOR('',#512,1.0);
#368=PRE_DEFINED_MARKER('');
#369=COLOUR_RGB('',0.800000011920929,0.800000011920929,0.800000011920929);
#370=SURFACE_SIDE_STYLE('',(#513));
#371=EDGE_LOOP('',(#514,#515,#516,#517));
#372=AXIS2_PLACEMENT_3D('',#518,#519,#520);
#373=DRAUGHTING_PRE_DEFINED_CURVE_FONT('continuous');
#374=COLOUR_RGB('',0.498039215803146,0.498039215803146,0.498039215803146);
#375=AXIS2_PLACEMENT_3D('',#521,#522,#523);
#376=DRAUGHTING_PRE_DEFINED_CURVE_FONT('continuous');
#377=COLOUR_RGB('',0.800000011920929,0.800000011920929,0.800000011920929);
#378=CARTESIAN_POINT('',(1.15866130166904E-015,-9.4615,-81.1253500000321));
#379=VECTOR('',#524,1.0);
#380=PRE_DEFINED_MARKER('');
#381=COLOUR_RGB('',0.498039215803146,0.498039215803146,0.498039215803146);
#382=DRAUGHTING_PRE_DEFINED_CURVE_FONT('continuous');
#383=COLOUR_RGB('',0.800000011920929,0.800000011920929,0.800000011920929);
#384=CARTESIAN_POINT('',(-1.15866130166904E-015,9.4615,-81.1253500000321));
#385=VECTOR('',#525,1.0);
#386=DRAUGHTING_PRE_DEFINED_CURVE_FONT('continuous');
#387=COLOUR_RGB('',0.498039215803146,0.498039215803146,0.498039215803146);
#388=CARTESIAN_POINT('',(1.12433410559759E-015,-9.18118791469758,-0.595499999999994));
#389=VECTOR('',#526,1.0);
#390=DRAUGHTING_PRE_DEFINED_CURVE_FONT('continuous');
#391=COLOUR_RGB('',0.800000011920929,0.800000011920929,0.800000011920929);
#392=CARTESIAN_POINT('',(-1.07919502358725E-015,8.812587165,-101.225350000032));
#393=VECTOR('',#527,1.0);
#394=PRE_DEFINED_MARKER('');
#395=COLOUR_RGB('',0.498039215803146,0.498039215803146,0.498039215803146);
#396=PRE_DEFINED_MARKER('');
#397=COLOUR_RGB('',0.498039215803146,0.498039215803146,0.498039215803146);
#398=DRAUGHTING_PRE_DEFINED_CURVE_FONT('continuous');
#399=COLOUR_RGB('',0.800000011920929,0.800000011920929,0.800000011920929);
#400=AXIS2_PLACEMENT_3D('',#528,#529,#530);
#401=DRAUGHTING_PRE_DEFINED_CURVE_FONT('continuous');
#402=COLOUR_RGB('',0.498039215803146,0.498039215803146,0.498039215803146);
#403=AXIS2_PLACEMENT_3D('',#531,#532,#533);
#405=CARTESIAN_POINT('',(0.0,0.0,-1.191));
#406=DIRECTION('',(0.0,0.0,-1.0));
#407=DIRECTION('',(0.0,1.0,0.0));
#408=CARTESIAN_POINT('',(0.0,0.0,-61.4));
#409=DIRECTION('',(0.0,0.0,-1.0));
#410=DIRECTION('',(0.0,-1.0,0.0));
#411=SURFACE_STYLE_FILL_AREA(#534);
#412=ORIENTED_EDGE('',*,*,#122,.T.);
#413=ORIENTED_EDGE('',*,*,#100,.T.);
#414=CARTESIAN_POINT('',(0.0,4.081837165,-101.6));
#415=DIRECTION('',(0.0,0.0,-1.0));
#416=DIRECTION('',(0.0,1.0,0.0));
#417=CARTESIAN_POINT('',(0.0,0.0,-61.4));
#418=DIRECTION('',(0.0,0.0,-1.0));
#419=DIRECTION('',(0.0,-1.0,0.0));
#420=DIRECTION('',(-6.12303176911187E-017,0.499999999999999,-0.866025403784439));
#421=DIRECTION('',(-0.0,-0.0,1.0));
#422=CARTESIAN_POINT('',(0.0,0.0,-61.4));
#423=DIRECTION('',(0.0,-0.0,1.0));
#424=DIRECTION('',(0.0,1.0,0.0));
#425=SURFACE_STYLE_FILL_AREA(#535);
#426=ORIENTED_EDGE('',*,*,#120,.T.);
#427=ORIENTED_EDGE('',*,*,#70,.F.);
#428=ORIENTED_EDGE('',*,*,#80,.T.);
#429=ORIENTED_EDGE('',*,*,#154,.T.);
#430=CARTESIAN_POINT('',(0.0,0.0,-23.1455));
#431=DIRECTION('',(-0.0,-0.0,1.0));
#432=DIRECTION('',(0.0,1.0,0.0));
#433=SURFACE_STYLE_FILL_AREA(#536);
#434=ORIENTED_EDGE('',*,*,#146,.T.);
#435=ORIENTED_EDGE('',*,*,#100,.F.);
#436=ORIENTED_EDGE('',*,*,#130,.T.);
#437=ORIENTED_EDGE('',*,*,#152,.T.);
#438=CARTESIAN_POINT('',(0.0,0.0,-101.225350000032));
#439=DIRECTION('',(-0.0,-0.0,1.0));
#440=DIRECTION('',(0.0,1.0,0.0));
#441=SURFACE_STYLE_FILL_AREA(#537);
#442=ORIENTED_EDGE('',*,*,#142,.F.);
#443=ORIENTED_EDGE('',*,*,#136,.F.);
#444=ORIENTED_EDGE('',*,*,#138,.F.);
#445=ORIENTED_EDGE('',*,*,#108,.F.);
#446=CARTESIAN_POINT('',(0.0,0.0,-81.1253500000321));
#447=DIRECTION('',(-0.0,-0.0,1.0));
#448=DIRECTION('',(0.0,1.0,0.0));
#449=CARTESIAN_POINT('',(0.0,0.0,7.105427357601E-015));
#450=DIRECTION('',(0.0,0.0,-1.0));
#451=DIRECTION('',(0.0,1.0,0.0));
#452=SURFACE_STYLE_FILL_AREA(#538);
#453=ORIENTED_EDGE('',*,*,#146,.F.);
#454=ORIENTED_EDGE('',*,*,#108,.T.);
#455=ORIENTED_EDGE('',*,*,#130,.F.);
#456=ORIENTED_EDGE('',*,*,#122,.F.);
#457=CARTESIAN_POINT('',(0.0,0.0,-101.225350000032));
#458=DIRECTION('',(-0.0,-0.0,1.0));
#459=DIRECTION('',(0.0,1.0,0.0));
#460=CARTESIAN_POINT('',(0.0,0.0,-101.6));
#461=DIRECTION('',(0.0,0.0,-1.0));
#462=DIRECTION('',(0.0,1.0,0.0));
#463=SURFACE_STYLE_FILL_AREA(#539);
#464=ORIENTED_EDGE('',*,*,#142,.T.);
#465=ORIENTED_EDGE('',*,*,#152,.F.);
#466=ORIENTED_EDGE('',*,*,#138,.T.);
#467=ORIENTED_EDGE('',*,*,#82,.F.);
#468=CARTESIAN_POINT('',(0.0,0.0,-81.1253500000321));
#469=DIRECTION('',(-0.0,-0.0,1.0));
#470=DIRECTION('',(0.0,1.0,0.0));
#471=CARTESIAN_POINT('',(0.0,0.0,7.105427357601E-015));
#472=DIRECTION('',(0.0,0.0,-1.0));
#473=DIRECTION('',(0.0,1.0,0.0));
#474=CARTESIAN_POINT('',(0.0,0.0,-100.850700000064));
#475=DIRECTION('',(0.0,0.0,-1.0));
#476=DIRECTION('',(0.0,1.0,0.0));
#477=SURFACE_STYLE_FILL_AREA(#540);
#478=ORIENTED_EDGE('',*,*,#82,.T.);
#479=ORIENTED_EDGE('',*,*,#136,.T.);
#480=ORIENTED_EDGE('',*,*,#70,.T.);
#481=ORIENTED_EDGE('',*,*,#74,.T.);
#482=CARTESIAN_POINT('',(0.0,0.0,-61.4));
#483=DIRECTION('',(0.0,0.0,-1.0));
#484=DIRECTION('',(0.0,-1.0,0.0));
#485=SURFACE_STYLE_FILL_AREA(#541);
#486=ORIENTED_EDGE('',*,*,#104,.F.);
#487=ORIENTED_EDGE('',*,*,#90,.F.);
#488=CARTESIAN_POINT('',(0.0,4.41868791469758,7.105427357601E-015));
#489=DIRECTION('',(-0.0,0.0,1.0));
#490=DIRECTION('',(0.0,-1.0,0.0));
#491=SURFACE_STYLE_FILL_AREA(#542);
#492=ORIENTED_EDGE('',*,*,#120,.F.);
#493=ORIENTED_EDGE('',*,*,#68,.T.);
#494=ORIENTED_EDGE('',*,*,#80,.F.);
#495=ORIENTED_EDGE('',*,*,#74,.F.);
#496=CARTESIAN_POINT('',(0.0,0.0,-23.1455));
#497=DIRECTION('',(-0.0,-0.0,1.0));
#498=DIRECTION('',(0.0,1.0,0.0));
#499=DIRECTION('',(0.0,0.0,-1.0));
#500=CARTESIAN_POINT('',(0.0,0.0,-101.6));
#501=DIRECTION('',(0.0,0.0,-1.0));
#502=DIRECTION('',(0.0,1.0,0.0));
#503=SURFACE_STYLE_FILL_AREA(#543);
#504=ORIENTED_EDGE('',*,*,#76,.F.);
#505=ORIENTED_EDGE('',*,*,#104,.T.);
#506=ORIENTED_EDGE('',*,*,#144,.F.);
#507=ORIENTED_EDGE('',*,*,#68,.F.);
#508=CARTESIAN_POINT('',(0.0,0.0,-0.595499999999994));
#509=DIRECTION('',(0.0,-0.0,-1.0));
#510=DIRECTION('',(0.0,1.0,0.0));
#511=SURFACE_STYLE_FILL_AREA(#544);
#512=DIRECTION('',(1.06054021204601E-016,-0.866025403784438,0.500000000000001));
#513=SURFACE_STYLE_FILL_AREA(#545);
#514=ORIENTED_EDGE('',*,*,#76,.T.);
#515=ORIENTED_EDGE('',*,*,#154,.F.);
#516=ORIENTED_EDGE('',*,*,#144,.T.);
#517=ORIENTED_EDGE('',*,*,#90,.T.);
#518=CARTESIAN_POINT('',(0.0,0.0,-0.595499999999994));
#519=DIRECTION('',(0.0,-0.0,-1.0));
#520=DIRECTION('',(0.0,1.0,0.0));
#521=CARTESIAN_POINT('',(0.0,0.0,-61.4));
#522=DIRECTION('',(0.0,-0.0,1.0));
#523=DIRECTION('',(0.0,1.0,0.0));
#524=DIRECTION('',(-0.0,-0.0,1.0));
#525=DIRECTION('',(0.0,0.0,-1.0));
#526=DIRECTION('',(-6.12303176911187E-017,0.499999999999999,0.866025403784439));
#527=DIRECTION('',(1.06054021204601E-016,-0.866025403784438,-0.500000000000001));
#528=CARTESIAN_POINT('',(0.0,0.0,-100.850700000064));
#529=DIRECTION('',(0.0,0.0,-1.0));
#530=DIRECTION('',(0.0,1.0,0.0));
#531=CARTESIAN_POINT('',(0.0,0.0,-1.191));
#532=DIRECTION('',(0.0,0.0,-1.0));
#533=DIRECTION('',(0.0,1.0,0.0));
#534=FILL_AREA_STYLE('',(#546));
#535=FILL_AREA_STYLE('',(#547));
#536=FILL_AREA_STYLE('',(#548));
#537=FILL_AREA_STYLE('',(#549));
#538=FILL_AREA_STYLE('',(#550));
#539=FILL_AREA_STYLE('',(#551));
#540=FILL_AREA_STYLE('',(#552));
#541=FILL_AREA_STYLE('',(#553));
#542=FILL_AREA_STYLE('',(#554));
#543=FILL_AREA_STYLE('',(#555));
#544=FILL_AREA_STYLE('',(#556));
#545=FILL_AREA_STYLE('',(#557));
#546=FILL_AREA_STYLE_COLOUR('',#558);
#547=FILL_AREA_STYLE_COLOUR('',#559);
#548=FILL_AREA_STYLE_COLOUR('',#560);
#549=FILL_AREA_STYLE_COLOUR('',#561);
#550=FILL_AREA_STYLE_COLOUR('',#562);
#551=FILL_AREA_STYLE_COLOUR('',#563);
#552=FILL_AREA_STYLE_COLOUR('',#564);
#553=FILL_AREA_STYLE_COLOUR('',#565);
#554=FILL_AREA_STYLE_COLOUR('',#566);
#555=FILL_AREA_STYLE_COLOUR('',#567);
#556=FILL_AREA_STYLE_COLOUR('',#568);
#557=FILL_AREA_STYLE_COLOUR('',#569);
#558=COLOUR_RGB('',0.498039215803146,0.498039215803146,0.498039215803146);
#559=COLOUR_RGB('',0.498039215803146,0.498039215803146,0.498039215803146);
#560=COLOUR_RGB('',0.800000011920929,0.800000011920929,0.800000011920929);
#561=COLOUR_RGB('',0.800000011920929,0.800000011920929,0.800000011920929);
#562=COLOUR_RGB('',0.800000011920929,0.800000011920929,0.800000011920929);
#563=COLOUR_RGB('',0.800000011920929,0.800000011920929,0.800000011920929);
#564=COLOUR_RGB('',0.498039215803146,0.498039215803146,0.498039215803146);
#565=COLOUR_RGB('',0.498039215803146,0.498039215803146,0.498039215803146);
#566=COLOUR_RGB('',0.498039215803146,0.498039215803146,0.498039215803146);
#567=COLOUR_RGB('',0.498039215803146,0.498039215803146,0.498039215803146);
#568=COLOUR_RGB('',0.498039215803146,0.498039215803146,0.498039215803146);
#569=COLOUR_RGB('',0.498039215803146,0.498039215803146,0.498039215803146);
#570=AXIS2_PLACEMENT_3D('PCS',#571,#572,#573);
#571=CARTESIAN_POINT('',(0.0,0.0,0.0));
#572=DIRECTION('',(0.0,0.0,1.0));
#573=DIRECTION('',(1.0,0.0,0.0));
#574=AXIS2_PLACEMENT_3D('CIP',#575,#576,#577);
#575=CARTESIAN_POINT('',(0.0,0.0,-101.6));
#576=DIRECTION('',(0.0,0.0,1.0));
#577=DIRECTION('',(1.0,0.0,0.0));
#578=AXIS2_PLACEMENT_3D('CRP',#579,#580,#581);
#579=CARTESIAN_POINT('',(-9.4615,0.0,-101.6));
#580=DIRECTION('',(0.0,0.0,1.0));
#581=DIRECTION('',(1.0,0.0,0.0));
#582=AXIS2_PLACEMENT_3D('MCS',#583,#584,#585);
#583=CARTESIAN_POINT('',(0.0,0.0,-45.1));
#584=DIRECTION('',(0.0,0.0,1.0));
#585=DIRECTION('',(1.0,0.0,0.0));
#586=CONSTRUCTIVE_GEOMETRY_REPRESENTATION_RELATIONSHIP('coordinate systems',$,#58,#587);
#587=CONSTRUCTIVE_GEOMETRY_REPRESENTATION('coordinate systems',(#570,#574,#578,#582),#6);
ENDSEC;
END-ISO-10303-21;
