ISO-10303-21;
HEADER;
FILE_DESCRIPTION(('no description'),'unknown implementation level');
FILE_NAME('solidZPca1rHdLr8vXdFT5UPlJAHK4Jg_1.STP','  ',('CIMSOURCE GmbH'),('CADClick - KiM GmbH - www.kimweb.de'),'unknown preprocess','ACIS','unknown authorization');
FILE_SCHEMA(('automotive_design'));
ENDSEC;
DATA;
#1=MECHANICAL_DESIGN_GEOMETRIC_PRESENTATION_REPRESENTATION(' ',(#10,#11,#12,#13,#14,#15,#16,#17,#18,#19,#20,#21,#22,#23,#24,#25,#26,#27,#28,#29,#30,#31,#32,#33,#34,#35,#36,#37,#38,#39,#40),#6);
#2=PRODUCT_DEFINITION_CONTEXT('',#41,'design');
#3=APPLICATION_PROTOCOL_DEFINITION('INTERNATIONAL STANDARD','automotive_design',1994,#41);
#4=PRODUCT_CATEGORY_RELATIONSHIP('NONE','NONE',#42,#43);
#5=SHAPE_DEFINITION_REPRESENTATION(#44,#45);
#6= (GEOMETRIC_REPRESENTATION_CONTEXT(3)GLOBAL_UNCERTAINTY_ASSIGNED_CONTEXT((#48))GLOBAL_UNIT_ASSIGNED_CONTEXT((#50,#51,#52))REPRESENTATION_CONTEXT('NONE','WORKSPACE'));
#10=STYLED_ITEM('',(#54),#55);
#11=STYLED_ITEM('',(#56),#57);
#12=STYLED_ITEM('',(#58),#59);
#13=STYLED_ITEM('',(#60),#61);
#14=STYLED_ITEM('',(#62),#63);
#15=STYLED_ITEM('',(#64),#65);
#16=STYLED_ITEM('',(#66),#67);
#17=STYLED_ITEM('',(#68),#69);
#18=STYLED_ITEM('',(#70),#71);
#19=STYLED_ITEM('',(#72),#73);
#20=STYLED_ITEM('',(#74),#75);
#21=STYLED_ITEM('',(#76),#77);
#22=STYLED_ITEM('',(#78),#79);
#23=STYLED_ITEM('',(#80),#81);
#24=STYLED_ITEM('',(#82),#83);
#25=STYLED_ITEM('',(#84),#85);
#26=STYLED_ITEM('',(#86),#87);
#27=STYLED_ITEM('',(#88),#89);
#28=STYLED_ITEM('',(#90),#91);
#29=STYLED_ITEM('',(#92),#93);
#30=STYLED_ITEM('',(#94),#95);
#31=STYLED_ITEM('',(#96),#97);
#32=STYLED_ITEM('',(#98),#99);
#33=STYLED_ITEM('',(#100),#101);
#34=STYLED_ITEM('',(#102),#103);
#35=STYLED_ITEM('',(#104),#105);
#36=STYLED_ITEM('',(#106),#107);
#37=STYLED_ITEM('',(#108),#109);
#38=STYLED_ITEM('',(#110),#111);
#39=STYLED_ITEM('',(#112),#113);
#40=STYLED_ITEM('',(#114),#115);
#41=APPLICATION_CONTEXT(' ');
#42=PRODUCT_CATEGORY('part','NONE');
#43=PRODUCT_RELATED_PRODUCT_CATEGORY('detail',' ',(#116));
#44=PRODUCT_DEFINITION_SHAPE('NONE','NONE',#117);
#45=ADVANCED_BREP_SHAPE_REPRESENTATION('1',(#91,#118),#6);
#48=UNCERTAINTY_MEASURE_WITH_UNIT(LENGTH_MEASURE(1.0E-006),#50,'','');
#50= (CONVERSION_BASED_UNIT('MILLIMETRE',#121)LENGTH_UNIT()NAMED_UNIT(#124));
#51= (NAMED_UNIT(#126)PLANE_ANGLE_UNIT()SI_UNIT($,.RADIAN.));
#52= (NAMED_UNIT(#126)SOLID_ANGLE_UNIT()SI_UNIT($,.STERADIAN.));
#54=PRESENTATION_STYLE_ASSIGNMENT((#132));
#55=ADVANCED_FACE('',(#133),#134,.T.);
#56=PRESENTATION_STYLE_ASSIGNMENT((#135));
#57=EDGE_CURVE('',#63,#95,#136,.T.);
#58=PRESENTATION_STYLE_ASSIGNMENT((#137));
#59=VERTEX_POINT('',#138);
#60=PRESENTATION_STYLE_ASSIGNMENT((#139));
#61=EDGE_CURVE('',#103,#107,#140,.T.);
#62=PRESENTATION_STYLE_ASSIGNMENT((#141));
#63=VERTEX_POINT('',#142);
#64=PRESENTATION_STYLE_ASSIGNMENT((#143));
#65=ADVANCED_FACE('',(#144),#145,.T.);
#66=PRESENTATION_STYLE_ASSIGNMENT((#146));
#67=ADVANCED_FACE('',(#147),#148,.T.);
#68=PRESENTATION_STYLE_ASSIGNMENT((#149));
#69=EDGE_CURVE('',#59,#63,#150,.T.);
#70=PRESENTATION_STYLE_ASSIGNMENT((#151));
#71=VERTEX_POINT('',#152);
#72=PRESENTATION_STYLE_ASSIGNMENT((#153));
#73=EDGE_CURVE('',#71,#95,#154,.T.);
#74=PRESENTATION_STYLE_ASSIGNMENT((#155));
#75=ADVANCED_FACE('',(#156),#157,.T.);
#76=PRESENTATION_STYLE_ASSIGNMENT((#158));
#77=ADVANCED_FACE('',(#159),#160,.T.);
#78=PRESENTATION_STYLE_ASSIGNMENT((#161));
#79=EDGE_CURVE('',#63,#115,#162,.T.);
#80=PRESENTATION_STYLE_ASSIGNMENT((#163));
#81=EDGE_CURVE('',#95,#63,#164,.T.);
#82=PRESENTATION_STYLE_ASSIGNMENT((#165));
#83=EDGE_CURVE('',#107,#103,#166,.T.);
#84=PRESENTATION_STYLE_ASSIGNMENT((#167));
#85=EDGE_CURVE('',#93,#59,#168,.T.);
#86=PRESENTATION_STYLE_ASSIGNMENT((#169));
#87=EDGE_CURVE('',#59,#93,#170,.T.);
#88=PRESENTATION_STYLE_ASSIGNMENT((#171));
#89=EDGE_CURVE('',#115,#71,#172,.T.);
#90=PRESENTATION_STYLE_ASSIGNMENT((#173));
#91=MANIFOLD_SOLID_BREP('1',#174);
#92=PRESENTATION_STYLE_ASSIGNMENT((#175));
#93=VERTEX_POINT('',#176);
#94=PRESENTATION_STYLE_ASSIGNMENT((#177));
#95=VERTEX_POINT('',#178);
#96=PRESENTATION_STYLE_ASSIGNMENT((#179));
#97=ADVANCED_FACE('',(#180),#181,.T.);
#98=PRESENTATION_STYLE_ASSIGNMENT((#182));
#99=ADVANCED_FACE('',(#183),#184,.T.);
#100=PRESENTATION_STYLE_ASSIGNMENT((#185));
#101=ADVANCED_FACE('',(#186),#187,.T.);
#102=PRESENTATION_STYLE_ASSIGNMENT((#188));
#103=VERTEX_POINT('',#189);
#104=PRESENTATION_STYLE_ASSIGNMENT((#190));
#105=EDGE_CURVE('',#115,#103,#191,.T.);
#106=PRESENTATION_STYLE_ASSIGNMENT((#192));
#107=VERTEX_POINT('',#193);
#108=PRESENTATION_STYLE_ASSIGNMENT((#194));
#109=EDGE_CURVE('',#107,#71,#195,.T.);
#110=PRESENTATION_STYLE_ASSIGNMENT((#196));
#111=EDGE_CURVE('',#95,#93,#197,.T.);
#112=PRESENTATION_STYLE_ASSIGNMENT((#198));
#113=EDGE_CURVE('',#71,#115,#199,.T.);
#114=PRESENTATION_STYLE_ASSIGNMENT((#200));
#115=VERTEX_POINT('',#201);
#116=PRODUCT('1','1','PART-1-DESC',(#202));
#117=PRODUCT_DEFINITION('NONE','NONE',#203,#2);
#118=AXIS2_PLACEMENT_3D('',#204,#205,#206);
#121=LENGTH_MEASURE_WITH_UNIT(LENGTH_MEASURE(1.0),#207);
#124=DIMENSIONAL_EXPONENTS(1.0,0.0,0.0,0.0,0.0,0.0,0.0);
#126=DIMENSIONAL_EXPONENTS(0.0,0.0,0.0,0.0,0.0,0.0,0.0);
#132=SURFACE_STYLE_USAGE(.BOTH.,#208);
#133=FACE_OUTER_BOUND('',#209,.T.);
#134=PLANE('',#210);
#135=CURVE_STYLE('',#211,POSITIVE_LENGTH_MEASURE(1.0E-006),#212);
#136=CIRCLE('',#213,3.175);
#137=POINT_STYLE(' ',#214,POSITIVE_LENGTH_MEASURE(1.0E-006),#215);
#138=CARTESIAN_POINT('',(3.29212808318035E-016,-2.68831537,-76.2));
#139=CURVE_STYLE('',#216,POSITIVE_LENGTH_MEASURE(1.0E-006),#217);
#140=CIRCLE('',#218,2.94579194313172);
#141=POINT_STYLE(' ',#219,POSITIVE_LENGTH_MEASURE(1.0E-006),#220);
#142=CARTESIAN_POINT('',(3.88812517338605E-016,-3.175,-75.919012497859));
#143=SURFACE_STYLE_USAGE(.BOTH.,#221);
#144=FACE_OUTER_BOUND('',#222,.T.);
#145=CONICAL_SURFACE('',#223,2.931657685,1.0471975511966);
#146=SURFACE_STYLE_USAGE(.BOTH.,#224);
#147=FACE_OUTER_BOUND('',#225,.T.);
#148=CONICAL_SURFACE('',#226,3.06039597156586,0.523598775598301);
#149=CURVE_STYLE('',#227,POSITIVE_LENGTH_MEASURE(1.0E-006),#228);
#150=LINE('',#229,#230);
#151=POINT_STYLE(' ',#231,POSITIVE_LENGTH_MEASURE(1.0E-006),#232);
#152=CARTESIAN_POINT('',(0.0,3.175,-0.396999999999998));
#153=CURVE_STYLE('',#233,POSITIVE_LENGTH_MEASURE(1.0E-006),#234);
#154=LINE('',#235,#236);
#155=SURFACE_STYLE_USAGE(.BOTH.,#237);
#156=FACE_OUTER_BOUND('',#238,.T.);
#157=CYLINDRICAL_SURFACE('',#239,3.175);
#158=SURFACE_STYLE_USAGE(.BOTH.,#240);
#159=FACE_OUTER_BOUND('',#241,.T.);
#160=CONICAL_SURFACE('',#242,2.931657685,1.0471975511966);
#161=CURVE_STYLE('',#243,POSITIVE_LENGTH_MEASURE(1.0E-006),#244);
#162=LINE('',#245,#246);
#163=CURVE_STYLE('',#247,POSITIVE_LENGTH_MEASURE(1.0E-006),#248);
#164=CIRCLE('',#249,3.175);
#165=CURVE_STYLE('',#250,POSITIVE_LENGTH_MEASURE(1.0E-006),#251);
#166=CIRCLE('',#252,2.94579194313172);
#167=CURVE_STYLE('',#253,POSITIVE_LENGTH_MEASURE(1.0E-006),#254);
#168=CIRCLE('',#255,2.68831537);
#169=CURVE_STYLE('',#256,POSITIVE_LENGTH_MEASURE(1.0E-006),#257);
#170=CIRCLE('',#258,2.68831537);
#171=CURVE_STYLE('',#259,POSITIVE_LENGTH_MEASURE(1.0E-006),#260);
#172=CIRCLE('',#261,3.175);
#173=SURFACE_STYLE_USAGE(.BOTH.,#262);
#174=CLOSED_SHELL('',(#99,#97,#77,#65,#101,#67,#75,#55));
#175=POINT_STYLE(' ',#263,POSITIVE_LENGTH_MEASURE(1.0E-006),#264);
#176=CARTESIAN_POINT('',(0.0,2.68831537,-76.2));
#177=POINT_STYLE(' ',#265,POSITIVE_LENGTH_MEASURE(1.0E-006),#266);
#178=CARTESIAN_POINT('',(0.0,3.175,-75.919012497859));
#179=SURFACE_STYLE_USAGE(.BOTH.,#267);
#180=FACE_OUTER_BOUND('',#268,.T.);
#181=CONICAL_SURFACE('',#269,3.06039597156586,0.523598775598301);
#182=SURFACE_STYLE_USAGE(.BOTH.,#270);
#183=FACE_OUTER_BOUND('',#271,.T.);
#184=CYLINDRICAL_SURFACE('',#272,3.175);
#185=SURFACE_STYLE_USAGE(.BOTH.,#273);
#186=FACE_OUTER_BOUND('',#274,.T.);
#187=PLANE('',#275);
#188=POINT_STYLE(' ',#276,POSITIVE_LENGTH_MEASURE(1.0E-006),#277);
#189=CARTESIAN_POINT('',(3.60743553059787E-016,-2.94579194313172,0.0));
#190=CURVE_STYLE('',#278,POSITIVE_LENGTH_MEASURE(1.0E-006),#279);
#191=LINE('',#280,#281);
#192=POINT_STYLE(' ',#282,POSITIVE_LENGTH_MEASURE(1.0E-006),#283);
#193=CARTESIAN_POINT('',(0.0,2.94579194313172,0.0));
#194=CURVE_STYLE('',#284,POSITIVE_LENGTH_MEASURE(1.0E-006),#285);
#195=LINE('',#286,#287);
#196=CURVE_STYLE('',#288,POSITIVE_LENGTH_MEASURE(1.0E-006),#289);
#197=LINE('',#290,#291);
#198=CURVE_STYLE('',#292,POSITIVE_LENGTH_MEASURE(1.0E-006),#293);
#199=CIRCLE('',#294,3.175);
#200=POINT_STYLE(' ',#295,POSITIVE_LENGTH_MEASURE(1.0E-006),#296);
#201=CARTESIAN_POINT('',(3.88812517338605E-016,-3.175,-0.396999999999998));
#202=PRODUCT_CONTEXT('',#41,'mechanical');
#203=PRODUCT_DEFINITION_FORMATION_WITH_SPECIFIED_SOURCE(' ','NONE',#116,.NOT_KNOWN.);
#204=CARTESIAN_POINT('',(0.0,0.0,0.0));
#205=DIRECTION('',(0.0,0.0,1.0));
#206=DIRECTION('',(1.0,0.0,0.0));
#207= (NAMED_UNIT(#124)LENGTH_UNIT()SI_UNIT(.MILLI.,.METRE.));
#208=SURFACE_SIDE_STYLE('',(#298));
#209=EDGE_LOOP('',(#299,#300));
#210=AXIS2_PLACEMENT_3D('',#301,#302,#303);
#211=DRAUGHTING_PRE_DEFINED_CURVE_FONT('continuous');
#212=COLOUR_RGB('',0.800000011920929,0.800000011920929,0.800000011920929);
#213=AXIS2_PLACEMENT_3D('',#304,#305,#306);
#214=PRE_DEFINED_MARKER('');
#215=COLOUR_RGB('',0.498039215803146,0.498039215803146,0.498039215803146);
#216=DRAUGHTING_PRE_DEFINED_CURVE_FONT('continuous');
#217=COLOUR_RGB('',0.498039215803146,0.498039215803146,0.498039215803146);
#218=AXIS2_PLACEMENT_3D('',#307,#308,#309);
#219=PRE_DEFINED_MARKER('');
#220=COLOUR_RGB('',0.800000011920929,0.800000011920929,0.800000011920929);
#221=SURFACE_SIDE_STYLE('',(#310));
#222=EDGE_LOOP('',(#311,#312,#313,#314));
#223=AXIS2_PLACEMENT_3D('',#315,#316,#317);
#224=SURFACE_SIDE_STYLE('',(#318));
#225=EDGE_LOOP('',(#319,#320,#321,#322));
#226=AXIS2_PLACEMENT_3D('',#323,#324,#325);
#227=DRAUGHTING_PRE_DEFINED_CURVE_FONT('continuous');
#228=COLOUR_RGB('',0.800000011920929,0.800000011920929,0.800000011920929);
#229=CARTESIAN_POINT('',(3.5901266282832E-016,-2.931657685,-76.0595062489295));
#230=VECTOR('',#326,1.0);
#231=PRE_DEFINED_MARKER('');
#232=COLOUR_RGB('',0.498039215803146,0.498039215803146,0.498039215803146);
#233=DRAUGHTING_PRE_DEFINED_CURVE_FONT('continuous');
#234=COLOUR_RGB('',0.498039215803146,0.498039215803146,0.498039215803146);
#235=CARTESIAN_POINT('',(-3.88812517338605E-016,3.175,-27.7985));
#236=VECTOR('',#327,1.0);
#237=SURFACE_SIDE_STYLE('',(#328));
#238=EDGE_LOOP('',(#329,#330,#331,#332));
#239=AXIS2_PLACEMENT_3D('',#333,#334,#335);
#240=SURFACE_SIDE_STYLE('',(#336));
#241=EDGE_LOOP('',(#337,#338,#339,#340));
#242=AXIS2_PLACEMENT_3D('',#341,#342,#343);
#243=DRAUGHTING_PRE_DEFINED_CURVE_FONT('continuous');
#244=COLOUR_RGB('',0.498039215803146,0.498039215803146,0.498039215803146);
#245=CARTESIAN_POINT('',(3.88812517338605E-016,-3.175,-27.7985));
#246=VECTOR('',#344,1.0);
#247=DRAUGHTING_PRE_DEFINED_CURVE_FONT('continuous');
#248=COLOUR_RGB('',0.800000011920929,0.800000011920929,0.800000011920929);
#249=AXIS2_PLACEMENT_3D('',#345,#346,#347);
#250=DRAUGHTING_PRE_DEFINED_CURVE_FONT('continuous');
#251=COLOUR_RGB('',0.498039215803146,0.498039215803146,0.498039215803146);
#252=AXIS2_PLACEMENT_3D('',#348,#349,#350);
#253=DRAUGHTING_PRE_DEFINED_CURVE_FONT('continuous');
#254=COLOUR_RGB('',0.498039215803146,0.498039215803146,0.498039215803146);
#255=AXIS2_PLACEMENT_3D('',#351,#352,#353);
#256=DRAUGHTING_PRE_DEFINED_CURVE_FONT('continuous');
#257=COLOUR_RGB('',0.498039215803146,0.498039215803146,0.498039215803146);
#258=AXIS2_PLACEMENT_3D('',#354,#355,#356);
#259=DRAUGHTING_PRE_DEFINED_CURVE_FONT('continuous');
#260=COLOUR_RGB('',0.498039215803146,0.498039215803146,0.498039215803146);
#261=AXIS2_PLACEMENT_3D('',#357,#358,#359);
#262=SURFACE_SIDE_STYLE('',(#360));
#263=PRE_DEFINED_MARKER('');
#264=COLOUR_RGB('',0.498039215803146,0.498039215803146,0.498039215803146);
#265=PRE_DEFINED_MARKER('');
#266=COLOUR_RGB('',0.800000011920929,0.800000011920929,0.800000011920929);
#267=SURFACE_SIDE_STYLE('',(#361));
#268=EDGE_LOOP('',(#362,#363,#364,#365));
#269=AXIS2_PLACEMENT_3D('',#366,#367,#368);
#270=SURFACE_SIDE_STYLE('',(#369));
#271=EDGE_LOOP('',(#370,#371,#372,#373));
#272=AXIS2_PLACEMENT_3D('',#374,#375,#376);
#273=SURFACE_SIDE_STYLE('',(#377));
#274=EDGE_LOOP('',(#378,#379));
#275=AXIS2_PLACEMENT_3D('',#380,#381,#382);
#276=PRE_DEFINED_MARKER('');
#277=COLOUR_RGB('',0.498039215803146,0.498039215803146,0.498039215803146);
#278=DRAUGHTING_PRE_DEFINED_CURVE_FONT('continuous');
#279=COLOUR_RGB('',0.498039215803146,0.498039215803146,0.498039215803146);
#280=CARTESIAN_POINT('',(3.74778035199196E-016,-3.06039597156586,-0.198500000000003));
#281=VECTOR('',#383,1.0);
#282=PRE_DEFINED_MARKER('');
#283=COLOUR_RGB('',0.498039215803146,0.498039215803146,0.498039215803146);
#284=DRAUGHTING_PRE_DEFINED_CURVE_FONT('continuous');
#285=COLOUR_RGB('',0.498039215803146,0.498039215803146,0.498039215803146);
#286=CARTESIAN_POINT('',(-3.74778035199196E-016,3.06039597156586,-0.198500000000003));
#287=VECTOR('',#384,1.0);
#288=DRAUGHTING_PRE_DEFINED_CURVE_FONT('continuous');
#289=COLOUR_RGB('',0.800000011920929,0.800000011920929,0.800000011920929);
#290=CARTESIAN_POINT('',(-3.5901266282832E-016,2.931657685,-76.0595062489295));
#291=VECTOR('',#385,1.0);
#292=DRAUGHTING_PRE_DEFINED_CURVE_FONT('continuous');
#293=COLOUR_RGB('',0.498039215803146,0.498039215803146,0.498039215803146);
#294=AXIS2_PLACEMENT_3D('',#386,#387,#388);
#295=PRE_DEFINED_MARKER('');
#296=COLOUR_RGB('',0.498039215803146,0.498039215803146,0.498039215803146);
#298=SURFACE_STYLE_FILL_AREA(#389);
#299=ORIENTED_EDGE('',*,*,#85,.T.);
#300=ORIENTED_EDGE('',*,*,#87,.T.);
#301=CARTESIAN_POINT('',(0.0,1.344157685,-76.2));
#302=DIRECTION('',(0.0,0.0,-1.0));
#303=DIRECTION('',(0.0,1.0,0.0));
#304=CARTESIAN_POINT('',(0.0,0.0,-75.919012497859));
#305=DIRECTION('',(0.0,0.0,-1.0));
#306=DIRECTION('',(0.0,1.0,0.0));
#307=CARTESIAN_POINT('',(0.0,0.0,0.0));
#308=DIRECTION('',(0.0,0.0,-1.0));
#309=DIRECTION('',(0.0,1.0,0.0));
#310=SURFACE_STYLE_FILL_AREA(#390);
#311=ORIENTED_EDGE('',*,*,#111,.T.);
#312=ORIENTED_EDGE('',*,*,#87,.F.);
#313=ORIENTED_EDGE('',*,*,#69,.T.);
#314=ORIENTED_EDGE('',*,*,#57,.T.);
#315=CARTESIAN_POINT('',(0.0,0.0,-76.0595062489295));
#316=DIRECTION('',(-0.0,-0.0,1.0));
#317=DIRECTION('',(0.0,1.0,0.0));
#318=SURFACE_STYLE_FILL_AREA(#391);
#319=ORIENTED_EDGE('',*,*,#109,.T.);
#320=ORIENTED_EDGE('',*,*,#89,.F.);
#321=ORIENTED_EDGE('',*,*,#105,.T.);
#322=ORIENTED_EDGE('',*,*,#61,.T.);
#323=CARTESIAN_POINT('',(0.0,0.0,-0.198500000000003));
#324=DIRECTION('',(0.0,-0.0,-1.0));
#325=DIRECTION('',(0.0,1.0,0.0));
#326=DIRECTION('',(1.06054021204601E-016,-0.866025403784438,0.500000000000001));
#327=DIRECTION('',(0.0,0.0,-1.0));
#328=SURFACE_STYLE_FILL_AREA(#392);
#329=ORIENTED_EDGE('',*,*,#73,.T.);
#330=ORIENTED_EDGE('',*,*,#57,.F.);
#331=ORIENTED_EDGE('',*,*,#79,.T.);
#332=ORIENTED_EDGE('',*,*,#89,.T.);
#333=CARTESIAN_POINT('',(0.0,0.0,-27.7985));
#334=DIRECTION('',(-0.0,-0.0,1.0));
#335=DIRECTION('',(0.0,1.0,0.0));
#336=SURFACE_STYLE_FILL_AREA(#393);
#337=ORIENTED_EDGE('',*,*,#111,.F.);
#338=ORIENTED_EDGE('',*,*,#81,.T.);
#339=ORIENTED_EDGE('',*,*,#69,.F.);
#340=ORIENTED_EDGE('',*,*,#85,.F.);
#341=CARTESIAN_POINT('',(0.0,0.0,-76.0595062489295));
#342=DIRECTION('',(-0.0,-0.0,1.0));
#343=DIRECTION('',(0.0,1.0,0.0));
#344=DIRECTION('',(-0.0,-0.0,1.0));
#345=CARTESIAN_POINT('',(0.0,0.0,-75.919012497859));
#346=DIRECTION('',(0.0,0.0,-1.0));
#347=DIRECTION('',(0.0,1.0,0.0));
#348=CARTESIAN_POINT('',(0.0,0.0,0.0));
#349=DIRECTION('',(0.0,0.0,-1.0));
#350=DIRECTION('',(0.0,1.0,0.0));
#351=CARTESIAN_POINT('',(0.0,0.0,-76.2));
#352=DIRECTION('',(0.0,0.0,-1.0));
#353=DIRECTION('',(0.0,1.0,0.0));
#354=CARTESIAN_POINT('',(0.0,0.0,-76.2));
#355=DIRECTION('',(0.0,0.0,-1.0));
#356=DIRECTION('',(0.0,1.0,0.0));
#357=CARTESIAN_POINT('',(0.0,0.0,-0.396999999999998));
#358=DIRECTION('',(0.0,0.0,-1.0));
#359=DIRECTION('',(0.0,1.0,0.0));
#360=SURFACE_STYLE_FILL_AREA(#394);
#361=SURFACE_STYLE_FILL_AREA(#395);
#362=ORIENTED_EDGE('',*,*,#109,.F.);
#363=ORIENTED_EDGE('',*,*,#83,.T.);
#364=ORIENTED_EDGE('',*,*,#105,.F.);
#365=ORIENTED_EDGE('',*,*,#113,.F.);
#366=CARTESIAN_POINT('',(0.0,0.0,-0.198500000000003));
#367=DIRECTION('',(0.0,-0.0,-1.0));
#368=DIRECTION('',(0.0,1.0,0.0));
#369=SURFACE_STYLE_FILL_AREA(#396);
#370=ORIENTED_EDGE('',*,*,#73,.F.);
#371=ORIENTED_EDGE('',*,*,#113,.T.);
#372=ORIENTED_EDGE('',*,*,#79,.F.);
#373=ORIENTED_EDGE('',*,*,#81,.F.);
#374=CARTESIAN_POINT('',(0.0,0.0,-27.7985));
#375=DIRECTION('',(-0.0,-0.0,1.0));
#376=DIRECTION('',(0.0,1.0,0.0));
#377=SURFACE_STYLE_FILL_AREA(#397);
#378=ORIENTED_EDGE('',*,*,#83,.F.);
#379=ORIENTED_EDGE('',*,*,#61,.F.);
#380=CARTESIAN_POINT('',(0.0,1.47289597156586,0.0));
#381=DIRECTION('',(-0.0,0.0,1.0));
#382=DIRECTION('',(0.0,-1.0,0.0));
#383=DIRECTION('',(-6.12303176911191E-017,0.500000000000002,0.866025403784438));
#384=DIRECTION('',(-6.12303176911191E-017,0.500000000000002,-0.866025403784438));
#385=DIRECTION('',(1.06054021204601E-016,-0.866025403784438,-0.500000000000001));
#386=CARTESIAN_POINT('',(0.0,0.0,-0.396999999999998));
#387=DIRECTION('',(0.0,0.0,-1.0));
#388=DIRECTION('',(0.0,1.0,0.0));
#389=FILL_AREA_STYLE('',(#398));
#390=FILL_AREA_STYLE('',(#399));
#391=FILL_AREA_STYLE('',(#400));
#392=FILL_AREA_STYLE('',(#401));
#393=FILL_AREA_STYLE('',(#402));
#394=FILL_AREA_STYLE('',(#403));
#395=FILL_AREA_STYLE('',(#404));
#396=FILL_AREA_STYLE('',(#405));
#397=FILL_AREA_STYLE('',(#406));
#398=FILL_AREA_STYLE_COLOUR('',#407);
#399=FILL_AREA_STYLE_COLOUR('',#408);
#400=FILL_AREA_STYLE_COLOUR('',#409);
#401=FILL_AREA_STYLE_COLOUR('',#410);
#402=FILL_AREA_STYLE_COLOUR('',#411);
#403=FILL_AREA_STYLE_COLOUR('',#412);
#404=FILL_AREA_STYLE_COLOUR('',#413);
#405=FILL_AREA_STYLE_COLOUR('',#414);
#406=FILL_AREA_STYLE_COLOUR('',#415);
#407=COLOUR_RGB('',0.498039215803146,0.498039215803146,0.498039215803146);
#408=COLOUR_RGB('',0.800000011920929,0.800000011920929,0.800000011920929);
#409=COLOUR_RGB('',0.498039215803146,0.498039215803146,0.498039215803146);
#410=COLOUR_RGB('',0.498039215803146,0.498039215803146,0.498039215803146);
#411=COLOUR_RGB('',0.800000011920929,0.800000011920929,0.800000011920929);
#412=COLOUR_RGB('',0.498039215803146,0.498039215803146,0.498039215803146);
#413=COLOUR_RGB('',0.498039215803146,0.498039215803146,0.498039215803146);
#414=COLOUR_RGB('',0.498039215803146,0.498039215803146,0.498039215803146);
#415=COLOUR_RGB('',0.498039215803146,0.498039215803146,0.498039215803146);
#416=AXIS2_PLACEMENT_3D('PCS',#417,#418,#419);
#417=CARTESIAN_POINT('',(0.0,0.0,0.0));
#418=DIRECTION('',(0.0,0.0,1.0));
#419=DIRECTION('',(1.0,0.0,0.0));
#420=AXIS2_PLACEMENT_3D('CIP',#421,#422,#423);
#421=CARTESIAN_POINT('',(0.0,0.0,-76.2));
#422=DIRECTION('',(0.0,0.0,1.0));
#423=DIRECTION('',(1.0,0.0,0.0));
#424=AXIS2_PLACEMENT_3D('CRP',#425,#426,#427);
#425=CARTESIAN_POINT('',(-3.175,0.0,-76.2));
#426=DIRECTION('',(0.0,0.0,1.0));
#427=DIRECTION('',(1.0,0.0,0.0));
#428=AXIS2_PLACEMENT_3D('MCS',#429,#430,#431);
#429=CARTESIAN_POINT('',(0.0,0.0,-55.2));
#430=DIRECTION('',(0.0,0.0,1.0));
#431=DIRECTION('',(1.0,0.0,0.0));
#432=CONSTRUCTIVE_GEOMETRY_REPRESENTATION_RELATIONSHIP('coordinate systems',$,#45,#433);
#433=CONSTRUCTIVE_GEOMETRY_REPRESENTATION('coordinate systems',(#416,#420,#424,#428),#6);
ENDSEC;
END-ISO-10303-21;
