ISO-10303-21;
HEADER;
FILE_DESCRIPTION(('no description'),'unknown implementation level');
FILE_NAME('solidhfSPuOqBySOn8FHBCz0wDRAGoH0_1.STP','  ',('CIMSOURCE GmbH'),('CADClick - KiM GmbH - www.kimweb.de'),'unknown preprocess','ACIS','unknown authorization');
FILE_SCHEMA(('automotive_design'));
ENDSEC;
DATA;
#1=MECHANICAL_DESIGN_GEOMETRIC_PRESENTATION_REPRESENTATION(' ',(#10,#11,#12,#13,#14,#15,#16,#17,#18,#19,#20,#21,#22,#23,#24,#25,#26,#27,#28,#29,#30,#31,#32,#33,#34,#35,#36,#37,#38,#39,#40,#41,#42,#43,#44,#45,#46,#47,#48,#49,#50,#51,#52,#53),#6);
#2=PRODUCT_DEFINITION_CONTEXT('',#54,'design');
#3=APPLICATION_PROTOCOL_DEFINITION('INTERNATIONAL STANDARD','automotive_design',1994,#54);
#4=PRODUCT_CATEGORY_RELATIONSHIP('NONE','NONE',#55,#56);
#5=SHAPE_DEFINITION_REPRESENTATION(#57,#58);
#6= (GEOMETRIC_REPRESENTATION_CONTEXT(3)GLOBAL_UNCERTAINTY_ASSIGNED_CONTEXT((#61))GLOBAL_UNIT_ASSIGNED_CONTEXT((#63,#64,#65))REPRESENTATION_CONTEXT('NONE','WORKSPACE'));
#10=STYLED_ITEM('',(#67),#68);
#11=STYLED_ITEM('',(#69),#70);
#12=STYLED_ITEM('',(#71),#72);
#13=STYLED_ITEM('',(#73),#74);
#14=STYLED_ITEM('',(#75),#76);
#15=STYLED_ITEM('',(#77),#78);
#16=STYLED_ITEM('',(#79),#80);
#17=STYLED_ITEM('',(#81),#82);
#18=STYLED_ITEM('',(#83),#84);
#19=STYLED_ITEM('',(#85),#86);
#20=STYLED_ITEM('',(#87),#88);
#21=STYLED_ITEM('',(#89),#90);
#22=STYLED_ITEM('',(#91),#92);
#23=STYLED_ITEM('',(#93),#94);
#24=STYLED_ITEM('',(#95),#96);
#25=STYLED_ITEM('',(#97),#98);
#26=STYLED_ITEM('',(#99),#100);
#27=STYLED_ITEM('',(#101),#102);
#28=STYLED_ITEM('',(#103),#104);
#29=STYLED_ITEM('',(#105),#106);
#30=STYLED_ITEM('',(#107),#108);
#31=STYLED_ITEM('',(#109),#110);
#32=STYLED_ITEM('',(#111),#112);
#33=STYLED_ITEM('',(#113),#114);
#34=STYLED_ITEM('',(#115),#116);
#35=STYLED_ITEM('',(#117),#118);
#36=STYLED_ITEM('',(#119),#120);
#37=STYLED_ITEM('',(#121),#122);
#38=STYLED_ITEM('',(#123),#124);
#39=STYLED_ITEM('',(#125),#126);
#40=STYLED_ITEM('',(#127),#128);
#41=STYLED_ITEM('',(#129),#130);
#42=STYLED_ITEM('',(#131),#132);
#43=STYLED_ITEM('',(#133),#134);
#44=STYLED_ITEM('',(#135),#136);
#45=STYLED_ITEM('',(#137),#138);
#46=STYLED_ITEM('',(#139),#140);
#47=STYLED_ITEM('',(#141),#142);
#48=STYLED_ITEM('',(#143),#144);
#49=STYLED_ITEM('',(#145),#146);
#50=STYLED_ITEM('',(#147),#148);
#51=STYLED_ITEM('',(#149),#150);
#52=STYLED_ITEM('',(#151),#152);
#53=STYLED_ITEM('',(#153),#154);
#54=APPLICATION_CONTEXT(' ');
#55=PRODUCT_CATEGORY('part','NONE');
#56=PRODUCT_RELATED_PRODUCT_CATEGORY('detail',' ',(#155));
#57=PRODUCT_DEFINITION_SHAPE('NONE','NONE',#156);
#58=ADVANCED_BREP_SHAPE_REPRESENTATION('1',(#134,#157),#6);
#61=UNCERTAINTY_MEASURE_WITH_UNIT(LENGTH_MEASURE(1.0E-006),#63,'','');
#63= (CONVERSION_BASED_UNIT('MILLIMETRE',#160)LENGTH_UNIT()NAMED_UNIT(#163));
#64= (NAMED_UNIT(#165)PLANE_ANGLE_UNIT()SI_UNIT($,.RADIAN.));
#65= (NAMED_UNIT(#165)SOLID_ANGLE_UNIT()SI_UNIT($,.STERADIAN.));
#67=PRESENTATION_STYLE_ASSIGNMENT((#171));
#68=ADVANCED_FACE('',(#172),#173,.T.);
#69=PRESENTATION_STYLE_ASSIGNMENT((#174));
#70=EDGE_CURVE('',#152,#120,#175,.T.);
#71=PRESENTATION_STYLE_ASSIGNMENT((#176));
#72=ADVANCED_FACE('',(#177),#178,.T.);
#73=PRESENTATION_STYLE_ASSIGNMENT((#179));
#74=EDGE_CURVE('',#120,#152,#180,.T.);
#75=PRESENTATION_STYLE_ASSIGNMENT((#181));
#76=ADVANCED_FACE('',(#182),#183,.T.);
#77=PRESENTATION_STYLE_ASSIGNMENT((#184));
#78=VERTEX_POINT('',#185);
#79=PRESENTATION_STYLE_ASSIGNMENT((#186));
#80=ADVANCED_FACE('',(#187),#188,.T.);
#81=PRESENTATION_STYLE_ASSIGNMENT((#189));
#82=EDGE_CURVE('',#122,#110,#190,.T.);
#83=PRESENTATION_STYLE_ASSIGNMENT((#191));
#84=EDGE_CURVE('',#78,#148,#192,.T.);
#85=PRESENTATION_STYLE_ASSIGNMENT((#193));
#86=EDGE_CURVE('',#78,#122,#194,.T.);
#87=PRESENTATION_STYLE_ASSIGNMENT((#195));
#88=EDGE_CURVE('',#108,#104,#196,.T.);
#89=PRESENTATION_STYLE_ASSIGNMENT((#197));
#90=EDGE_CURVE('',#154,#150,#198,.T.);
#91=PRESENTATION_STYLE_ASSIGNMENT((#199));
#92=ADVANCED_FACE('',(#200,#201),#202,.T.);
#93=PRESENTATION_STYLE_ASSIGNMENT((#203));
#94=ADVANCED_FACE('',(#204),#205,.T.);
#95=PRESENTATION_STYLE_ASSIGNMENT((#206));
#96=ADVANCED_FACE('',(#207),#208,.T.);
#97=PRESENTATION_STYLE_ASSIGNMENT((#209));
#98=EDGE_CURVE('',#148,#78,#210,.T.);
#99=PRESENTATION_STYLE_ASSIGNMENT((#211));
#100=EDGE_CURVE('',#110,#148,#212,.T.);
#101=PRESENTATION_STYLE_ASSIGNMENT((#213));
#102=ADVANCED_FACE('',(#214),#215,.T.);
#103=PRESENTATION_STYLE_ASSIGNMENT((#216));
#104=VERTEX_POINT('',#217);
#105=PRESENTATION_STYLE_ASSIGNMENT((#218));
#106=VERTEX_POINT('',#219);
#107=PRESENTATION_STYLE_ASSIGNMENT((#220));
#108=VERTEX_POINT('',#221);
#109=PRESENTATION_STYLE_ASSIGNMENT((#222));
#110=VERTEX_POINT('',#223);
#111=PRESENTATION_STYLE_ASSIGNMENT((#224));
#112=VERTEX_POINT('',#225);
#113=PRESENTATION_STYLE_ASSIGNMENT((#226));
#114=EDGE_CURVE('',#106,#112,#227,.T.);
#115=PRESENTATION_STYLE_ASSIGNMENT((#228));
#116=ADVANCED_FACE('',(#229),#230,.T.);
#117=PRESENTATION_STYLE_ASSIGNMENT((#231));
#118=EDGE_CURVE('',#150,#154,#232,.T.);
#119=PRESENTATION_STYLE_ASSIGNMENT((#233));
#120=VERTEX_POINT('',#234);
#121=PRESENTATION_STYLE_ASSIGNMENT((#235));
#122=VERTEX_POINT('',#236);
#123=PRESENTATION_STYLE_ASSIGNMENT((#237));
#124=EDGE_CURVE('',#112,#106,#238,.T.);
#125=PRESENTATION_STYLE_ASSIGNMENT((#239));
#126=EDGE_CURVE('',#104,#108,#240,.T.);
#127=PRESENTATION_STYLE_ASSIGNMENT((#241));
#128=EDGE_CURVE('',#112,#108,#242,.T.);
#129=PRESENTATION_STYLE_ASSIGNMENT((#243));
#130=ADVANCED_FACE('',(#244),#245,.T.);
#131=PRESENTATION_STYLE_ASSIGNMENT((#246));
#132=EDGE_CURVE('',#148,#150,#247,.T.);
#133=PRESENTATION_STYLE_ASSIGNMENT((#248));
#134=MANIFOLD_SOLID_BREP('1',#249);
#135=PRESENTATION_STYLE_ASSIGNMENT((#250));
#136=ADVANCED_FACE('',(#251),#252,.T.);
#137=PRESENTATION_STYLE_ASSIGNMENT((#253));
#138=EDGE_CURVE('',#110,#122,#254,.T.);
#139=PRESENTATION_STYLE_ASSIGNMENT((#255));
#140=EDGE_CURVE('',#154,#78,#256,.T.);
#141=PRESENTATION_STYLE_ASSIGNMENT((#257));
#142=EDGE_CURVE('',#104,#106,#258,.T.);
#143=PRESENTATION_STYLE_ASSIGNMENT((#259));
#144=EDGE_CURVE('',#108,#152,#260,.T.);
#145=PRESENTATION_STYLE_ASSIGNMENT((#261));
#146=EDGE_CURVE('',#120,#104,#262,.T.);
#147=PRESENTATION_STYLE_ASSIGNMENT((#263));
#148=VERTEX_POINT('',#264);
#149=PRESENTATION_STYLE_ASSIGNMENT((#265));
#150=VERTEX_POINT('',#266);
#151=PRESENTATION_STYLE_ASSIGNMENT((#267));
#152=VERTEX_POINT('',#268);
#153=PRESENTATION_STYLE_ASSIGNMENT((#269));
#154=VERTEX_POINT('',#270);
#155=PRODUCT('1','1','PART-1-DESC',(#271));
#156=PRODUCT_DEFINITION('NONE','NONE',#272,#2);
#157=AXIS2_PLACEMENT_3D('',#273,#274,#275);
#160=LENGTH_MEASURE_WITH_UNIT(LENGTH_MEASURE(1.0),#276);
#163=DIMENSIONAL_EXPONENTS(1.0,0.0,0.0,0.0,0.0,0.0,0.0);
#165=DIMENSIONAL_EXPONENTS(0.0,0.0,0.0,0.0,0.0,0.0,0.0);
#171=SURFACE_STYLE_USAGE(.BOTH.,#277);
#172=FACE_OUTER_BOUND('',#278,.T.);
#173=CONICAL_SURFACE('',#279,3.693657685,1.0471975511966);
#174=CURVE_STYLE('',#280,POSITIVE_LENGTH_MEASURE(1.0E-006),#281);
#175=CIRCLE('',#282,3.937);
#176=SURFACE_STYLE_USAGE(.BOTH.,#283);
#177=FACE_OUTER_BOUND('',#284,.T.);
#178=CONICAL_SURFACE('',#285,3.86039597156586,0.523598775598301);
#179=CURVE_STYLE('',#286,POSITIVE_LENGTH_MEASURE(1.0E-006),#287);
#180=CIRCLE('',#288,3.937);
#181=SURFACE_STYLE_USAGE(.BOTH.,#289);
#182=FACE_OUTER_BOUND('',#290,.T.);
#183=CONICAL_SURFACE('',#291,3.693657685,1.0471975511966);
#184=POINT_STYLE(' ',#292,POSITIVE_LENGTH_MEASURE(1.0E-006),#293);
#185=CARTESIAN_POINT('',(4.86781025644395E-016,-3.975,-0.396999999999998));
#186=SURFACE_STYLE_USAGE(.BOTH.,#294);
#187=FACE_OUTER_BOUND('',#295,.T.);
#188=CYLINDRICAL_SURFACE('',#296,3.975);
#189=CURVE_STYLE('',#297,POSITIVE_LENGTH_MEASURE(1.0E-006),#298);
#190=CIRCLE('',#299,3.74579194313172);
#191=CURVE_STYLE('',#300,POSITIVE_LENGTH_MEASURE(1.0E-006),#301);
#192=CIRCLE('',#302,3.975);
#193=CURVE_STYLE('',#303,POSITIVE_LENGTH_MEASURE(1.0E-006),#304);
#194=LINE('',#305,#306);
#195=CURVE_STYLE('',#307,POSITIVE_LENGTH_MEASURE(1.0E-006),#308);
#196=CIRCLE('',#309,3.937);
#197=CURVE_STYLE('',#310,POSITIVE_LENGTH_MEASURE(1.0E-006),#311);
#198=CIRCLE('',#312,3.975);
#199=SURFACE_STYLE_USAGE(.BOTH.,#313);
#200=FACE_BOUND('',#314,.T.);
#201=FACE_OUTER_BOUND('',#315,.T.);
#202=PLANE('',#316);
#203=SURFACE_STYLE_USAGE(.BOTH.,#317);
#204=FACE_OUTER_BOUND('',#318,.T.);
#205=CONICAL_SURFACE('',#319,3.86039597156586,0.523598775598301);
#206=SURFACE_STYLE_USAGE(.BOTH.,#320);
#207=FACE_OUTER_BOUND('',#321,.T.);
#208=CYLINDRICAL_SURFACE('',#322,3.975);
#209=CURVE_STYLE('',#323,POSITIVE_LENGTH_MEASURE(1.0E-006),#324);
#210=CIRCLE('',#325,3.975);
#211=CURVE_STYLE('',#326,POSITIVE_LENGTH_MEASURE(1.0E-006),#327);
#212=LINE('',#328,#329);
#213=SURFACE_STYLE_USAGE(.BOTH.,#330);
#214=FACE_OUTER_BOUND('',#331,.T.);
#215=CYLINDRICAL_SURFACE('',#332,3.937);
#216=POINT_STYLE(' ',#333,POSITIVE_LENGTH_MEASURE(1.0E-006),#334);
#217=CARTESIAN_POINT('',(0.0,3.937,-75.9190124978591));
#218=POINT_STYLE(' ',#335,POSITIVE_LENGTH_MEASURE(1.0E-006),#336);
#219=CARTESIAN_POINT('',(0.0,3.45031537,-76.2));
#220=POINT_STYLE(' ',#337,POSITIVE_LENGTH_MEASURE(1.0E-006),#338);
#221=CARTESIAN_POINT('',(4.8212752149987E-016,-3.937,-75.9190124978591));
#222=POINT_STYLE(' ',#339,POSITIVE_LENGTH_MEASURE(1.0E-006),#340);
#223=CARTESIAN_POINT('',(0.0,3.74579194313172,0.0));
#224=POINT_STYLE(' ',#341,POSITIVE_LENGTH_MEASURE(1.0E-006),#342);
#225=CARTESIAN_POINT('',(4.22527812479301E-016,-3.45031537,-76.2));
#226=CURVE_STYLE('',#343,POSITIVE_LENGTH_MEASURE(1.0E-006),#344);
#227=CIRCLE('',#345,3.45031537);
#228=SURFACE_STYLE_USAGE(.BOTH.,#346);
#229=FACE_OUTER_BOUND('',#347,.T.);
#230=PLANE('',#348);
#231=CURVE_STYLE('',#349,POSITIVE_LENGTH_MEASURE(1.0E-006),#350);
#232=CIRCLE('',#351,3.975);
#233=POINT_STYLE(' ',#352,POSITIVE_LENGTH_MEASURE(1.0E-006),#353);
#234=CARTESIAN_POINT('',(0.0,3.937,-61.9));
#235=POINT_STYLE(' ',#354,POSITIVE_LENGTH_MEASURE(1.0E-006),#355);
#236=CARTESIAN_POINT('',(4.58712061365577E-016,-3.74579194313172,0.0));
#237=CURVE_STYLE('',#356,POSITIVE_LENGTH_MEASURE(1.0E-006),#357);
#238=CIRCLE('',#358,3.45031537);
#239=CURVE_STYLE('',#359,POSITIVE_LENGTH_MEASURE(1.0E-006),#360);
#240=CIRCLE('',#361,3.937);
#241=CURVE_STYLE('',#362,POSITIVE_LENGTH_MEASURE(1.0E-006),#363);
#242=LINE('',#364,#365);
#243=SURFACE_STYLE_USAGE(.BOTH.,#366);
#244=FACE_OUTER_BOUND('',#367,.T.);
#245=PLANE('',#368);
#246=CURVE_STYLE('',#369,POSITIVE_LENGTH_MEASURE(1.0E-006),#370);
#247=LINE('',#371,#372);
#248=SURFACE_STYLE_USAGE(.BOTH.,#373);
#249=CLOSED_SHELL('',(#80,#94,#76,#102,#136,#68,#92,#130,#72,#96,#116));
#250=SURFACE_STYLE_USAGE(.BOTH.,#374);
#251=FACE_OUTER_BOUND('',#375,.T.);
#252=CYLINDRICAL_SURFACE('',#376,3.937);
#253=CURVE_STYLE('',#377,POSITIVE_LENGTH_MEASURE(1.0E-006),#378);
#254=CIRCLE('',#379,3.74579194313172);
#255=CURVE_STYLE('',#380,POSITIVE_LENGTH_MEASURE(1.0E-006),#381);
#256=LINE('',#382,#383);
#257=CURVE_STYLE('',#384,POSITIVE_LENGTH_MEASURE(1.0E-006),#385);
#258=LINE('',#386,#387);
#259=CURVE_STYLE('',#388,POSITIVE_LENGTH_MEASURE(1.0E-006),#389);
#260=LINE('',#390,#391);
#261=CURVE_STYLE('',#392,POSITIVE_LENGTH_MEASURE(1.0E-006),#393);
#262=LINE('',#394,#395);
#263=POINT_STYLE(' ',#396,POSITIVE_LENGTH_MEASURE(1.0E-006),#397);
#264=CARTESIAN_POINT('',(0.0,3.975,-0.396999999999998));
#265=POINT_STYLE(' ',#398,POSITIVE_LENGTH_MEASURE(1.0E-006),#399);
#266=CARTESIAN_POINT('',(-4.86781025644395E-016,3.975,-61.9));
#267=POINT_STYLE(' ',#400,POSITIVE_LENGTH_MEASURE(1.0E-006),#401);
#268=CARTESIAN_POINT('',(4.8212752149987E-016,-3.937,-61.9));
#269=POINT_STYLE(' ',#402,POSITIVE_LENGTH_MEASURE(1.0E-006),#403);
#270=CARTESIAN_POINT('',(0.0,-3.975,-61.9));
#271=PRODUCT_CONTEXT('',#54,'mechanical');
#272=PRODUCT_DEFINITION_FORMATION_WITH_SPECIFIED_SOURCE(' ','NONE',#155,.NOT_KNOWN.);
#273=CARTESIAN_POINT('',(0.0,0.0,0.0));
#274=DIRECTION('',(0.0,0.0,1.0));
#275=DIRECTION('',(1.0,0.0,0.0));
#276= (NAMED_UNIT(#163)LENGTH_UNIT()SI_UNIT(.MILLI.,.METRE.));
#277=SURFACE_SIDE_STYLE('',(#405));
#278=EDGE_LOOP('',(#406,#407,#408,#409));
#279=AXIS2_PLACEMENT_3D('',#410,#411,#412);
#280=DRAUGHTING_PRE_DEFINED_CURVE_FONT('continuous');
#281=COLOUR_RGB('',0.498039215803146,0.498039215803146,0.498039215803146);
#282=AXIS2_PLACEMENT_3D('',#413,#414,#415);
#283=SURFACE_SIDE_STYLE('',(#416));
#284=EDGE_LOOP('',(#417,#418,#419,#420));
#285=AXIS2_PLACEMENT_3D('',#421,#422,#423);
#286=DRAUGHTING_PRE_DEFINED_CURVE_FONT('continuous');
#287=COLOUR_RGB('',0.498039215803146,0.498039215803146,0.498039215803146);
#288=AXIS2_PLACEMENT_3D('',#424,#425,#426);
#289=SURFACE_SIDE_STYLE('',(#427));
#290=EDGE_LOOP('',(#428,#429,#430,#431));
#291=AXIS2_PLACEMENT_3D('',#432,#433,#434);
#292=PRE_DEFINED_MARKER('');
#293=COLOUR_RGB('',0.498039215803146,0.498039215803146,0.498039215803146);
#294=SURFACE_SIDE_STYLE('',(#435));
#295=EDGE_LOOP('',(#436,#437,#438,#439));
#296=AXIS2_PLACEMENT_3D('',#440,#441,#442);
#297=DRAUGHTING_PRE_DEFINED_CURVE_FONT('continuous');
#298=COLOUR_RGB('',0.498039215803146,0.498039215803146,0.498039215803146);
#299=AXIS2_PLACEMENT_3D('',#443,#444,#445);
#300=DRAUGHTING_PRE_DEFINED_CURVE_FONT('continuous');
#301=COLOUR_RGB('',0.498039215803146,0.498039215803146,0.498039215803146);
#302=AXIS2_PLACEMENT_3D('',#446,#447,#448);
#303=DRAUGHTING_PRE_DEFINED_CURVE_FONT('continuous');
#304=COLOUR_RGB('',0.498039215803146,0.498039215803146,0.498039215803146);
#305=CARTESIAN_POINT('',(4.72746543504986E-016,-3.86039597156586,-0.198499999999996));
#306=VECTOR('',#449,1.0);
#307=DRAUGHTING_PRE_DEFINED_CURVE_FONT('continuous');
#308=COLOUR_RGB('',0.800000011920929,0.800000011920929,0.800000011920929);
#309=AXIS2_PLACEMENT_3D('',#450,#451,#452);
#310=DRAUGHTING_PRE_DEFINED_CURVE_FONT('continuous');
#311=COLOUR_RGB('',0.498039215803146,0.498039215803146,0.498039215803146);
#312=AXIS2_PLACEMENT_3D('',#453,#454,#455);
#313=SURFACE_SIDE_STYLE('',(#456));
#314=EDGE_LOOP('',(#457,#458));
#315=EDGE_LOOP('',(#459,#460));
#316=AXIS2_PLACEMENT_3D('',#461,#462,#463);
#317=SURFACE_SIDE_STYLE('',(#464));
#318=EDGE_LOOP('',(#465,#466,#467,#468));
#319=AXIS2_PLACEMENT_3D('',#469,#470,#471);
#320=SURFACE_SIDE_STYLE('',(#472));
#321=EDGE_LOOP('',(#473,#474,#475,#476));
#322=AXIS2_PLACEMENT_3D('',#477,#478,#479);
#323=DRAUGHTING_PRE_DEFINED_CURVE_FONT('continuous');
#324=COLOUR_RGB('',0.498039215803146,0.498039215803146,0.498039215803146);
#325=AXIS2_PLACEMENT_3D('',#480,#481,#482);
#326=DRAUGHTING_PRE_DEFINED_CURVE_FONT('continuous');
#327=COLOUR_RGB('',0.498039215803146,0.498039215803146,0.498039215803146);
#328=CARTESIAN_POINT('',(-4.72746543504986E-016,3.86039597156586,-0.198499999999996));
#329=VECTOR('',#483,1.0);
#330=SURFACE_SIDE_STYLE('',(#484));
#331=EDGE_LOOP('',(#485,#486,#487,#488));
#332=AXIS2_PLACEMENT_3D('',#489,#490,#491);
#333=PRE_DEFINED_MARKER('');
#334=COLOUR_RGB('',0.800000011920929,0.800000011920929,0.800000011920929);
#335=PRE_DEFINED_MARKER('');
#336=COLOUR_RGB('',0.498039215803146,0.498039215803146,0.498039215803146);
#337=PRE_DEFINED_MARKER('');
#338=COLOUR_RGB('',0.800000011920929,0.800000011920929,0.800000011920929);
#339=PRE_DEFINED_MARKER('');
#340=COLOUR_RGB('',0.498039215803146,0.498039215803146,0.498039215803146);
#341=PRE_DEFINED_MARKER('');
#342=COLOUR_RGB('',0.498039215803146,0.498039215803146,0.498039215803146);
#343=DRAUGHTING_PRE_DEFINED_CURVE_FONT('continuous');
#344=COLOUR_RGB('',0.498039215803146,0.498039215803146,0.498039215803146);
#345=AXIS2_PLACEMENT_3D('',#492,#493,#494);
#346=SURFACE_SIDE_STYLE('',(#495));
#347=EDGE_LOOP('',(#496,#497));
#348=AXIS2_PLACEMENT_3D('',#498,#499,#500);
#349=DRAUGHTING_PRE_DEFINED_CURVE_FONT('continuous');
#350=COLOUR_RGB('',0.498039215803146,0.498039215803146,0.498039215803146);
#351=AXIS2_PLACEMENT_3D('',#501,#502,#503);
#352=PRE_DEFINED_MARKER('');
#353=COLOUR_RGB('',0.498039215803146,0.498039215803146,0.498039215803146);
#354=PRE_DEFINED_MARKER('');
#355=COLOUR_RGB('',0.498039215803146,0.498039215803146,0.498039215803146);
#356=DRAUGHTING_PRE_DEFINED_CURVE_FONT('continuous');
#357=COLOUR_RGB('',0.498039215803146,0.498039215803146,0.498039215803146);
#358=AXIS2_PLACEMENT_3D('',#504,#505,#506);
#359=DRAUGHTING_PRE_DEFINED_CURVE_FONT('continuous');
#360=COLOUR_RGB('',0.800000011920929,0.800000011920929,0.800000011920929);
#361=AXIS2_PLACEMENT_3D('',#507,#508,#509);
#362=DRAUGHTING_PRE_DEFINED_CURVE_FONT('continuous');
#363=COLOUR_RGB('',0.800000011920929,0.800000011920929,0.800000011920929);
#364=CARTESIAN_POINT('',(4.52327666989585E-016,-3.693657685,-76.0595062489295));
#365=VECTOR('',#510,1.0);
#366=SURFACE_SIDE_STYLE('',(#511));
#367=EDGE_LOOP('',(#512,#513));
#368=AXIS2_PLACEMENT_3D('',#514,#515,#516);
#369=DRAUGHTING_PRE_DEFINED_CURVE_FONT('continuous');
#370=COLOUR_RGB('',0.498039215803146,0.498039215803146,0.498039215803146);
#371=CARTESIAN_POINT('',(-4.86781025644395E-016,3.975,-25.7985));
#372=VECTOR('',#517,1.0);
#373=SURFACE_SIDE_STYLE('',(#518));
#374=SURFACE_SIDE_STYLE('',(#519));
#375=EDGE_LOOP('',(#520,#521,#522,#523));
#376=AXIS2_PLACEMENT_3D('',#524,#525,#526);
#377=DRAUGHTING_PRE_DEFINED_CURVE_FONT('continuous');
#378=COLOUR_RGB('',0.498039215803146,0.498039215803146,0.498039215803146);
#379=AXIS2_PLACEMENT_3D('',#527,#528,#529);
#380=DRAUGHTING_PRE_DEFINED_CURVE_FONT('continuous');
#381=COLOUR_RGB('',0.498039215803146,0.498039215803146,0.498039215803146);
#382=CARTESIAN_POINT('',(4.86781025644395E-016,-3.975,-25.7985));
#383=VECTOR('',#530,1.0);
#384=DRAUGHTING_PRE_DEFINED_CURVE_FONT('continuous');
#385=COLOUR_RGB('',0.800000011920929,0.800000011920929,0.800000011920929);
#386=CARTESIAN_POINT('',(-4.52327666989585E-016,3.693657685,-76.0595062489295));
#387=VECTOR('',#531,1.0);
#388=DRAUGHTING_PRE_DEFINED_CURVE_FONT('continuous');
#389=COLOUR_RGB('',0.800000011920929,0.800000011920929,0.800000011920929);
#390=CARTESIAN_POINT('',(4.8212752149987E-016,-3.937,-68.9095062489295));
#391=VECTOR('',#532,1.0);
#392=DRAUGHTING_PRE_DEFINED_CURVE_FONT('continuous');
#393=COLOUR_RGB('',0.800000011920929,0.800000011920929,0.800000011920929);
#394=CARTESIAN_POINT('',(-4.8212752149987E-016,3.937,-68.9095062489295));
#395=VECTOR('',#533,1.0);
#396=PRE_DEFINED_MARKER('');
#397=COLOUR_RGB('',0.498039215803146,0.498039215803146,0.498039215803146);
#398=PRE_DEFINED_MARKER('');
#399=COLOUR_RGB('',0.498039215803146,0.498039215803146,0.498039215803146);
#400=PRE_DEFINED_MARKER('');
#401=COLOUR_RGB('',0.498039215803146,0.498039215803146,0.498039215803146);
#402=PRE_DEFINED_MARKER('');
#403=COLOUR_RGB('',0.498039215803146,0.498039215803146,0.498039215803146);
#405=SURFACE_STYLE_FILL_AREA(#534);
#406=ORIENTED_EDGE('',*,*,#142,.T.);
#407=ORIENTED_EDGE('',*,*,#124,.F.);
#408=ORIENTED_EDGE('',*,*,#128,.T.);
#409=ORIENTED_EDGE('',*,*,#88,.T.);
#410=CARTESIAN_POINT('',(0.0,0.0,-76.0595062489295));
#411=DIRECTION('',(-0.0,-0.0,1.0));
#412=DIRECTION('',(0.0,1.0,0.0));
#413=CARTESIAN_POINT('',(0.0,0.0,-61.9));
#414=DIRECTION('',(0.0,-0.0,1.0));
#415=DIRECTION('',(0.0,1.0,0.0));
#416=SURFACE_STYLE_FILL_AREA(#535);
#417=ORIENTED_EDGE('',*,*,#100,.T.);
#418=ORIENTED_EDGE('',*,*,#84,.F.);
#419=ORIENTED_EDGE('',*,*,#86,.T.);
#420=ORIENTED_EDGE('',*,*,#82,.T.);
#421=CARTESIAN_POINT('',(0.0,0.0,-0.198499999999996));
#422=DIRECTION('',(0.0,-0.0,-1.0));
#423=DIRECTION('',(0.0,1.0,0.0));
#424=CARTESIAN_POINT('',(0.0,0.0,-61.9));
#425=DIRECTION('',(0.0,-0.0,1.0));
#426=DIRECTION('',(0.0,1.0,0.0));
#427=SURFACE_STYLE_FILL_AREA(#536);
#428=ORIENTED_EDGE('',*,*,#142,.F.);
#429=ORIENTED_EDGE('',*,*,#126,.T.);
#430=ORIENTED_EDGE('',*,*,#128,.F.);
#431=ORIENTED_EDGE('',*,*,#114,.F.);
#432=CARTESIAN_POINT('',(0.0,0.0,-76.0595062489295));
#433=DIRECTION('',(-0.0,-0.0,1.0));
#434=DIRECTION('',(0.0,1.0,0.0));
#435=SURFACE_STYLE_FILL_AREA(#537);
#436=ORIENTED_EDGE('',*,*,#132,.F.);
#437=ORIENTED_EDGE('',*,*,#98,.T.);
#438=ORIENTED_EDGE('',*,*,#140,.F.);
#439=ORIENTED_EDGE('',*,*,#118,.F.);
#440=CARTESIAN_POINT('',(0.0,0.0,-25.7985));
#441=DIRECTION('',(-0.0,-0.0,1.0));
#442=DIRECTION('',(0.0,1.0,0.0));
#443=CARTESIAN_POINT('',(0.0,0.0,0.0));
#444=DIRECTION('',(0.0,0.0,-1.0));
#445=DIRECTION('',(0.0,1.0,0.0));
#446=CARTESIAN_POINT('',(0.0,0.0,-0.396999999999998));
#447=DIRECTION('',(0.0,0.0,-1.0));
#448=DIRECTION('',(0.0,1.0,0.0));
#449=DIRECTION('',(-6.12303176911191E-017,0.500000000000002,0.866025403784438));
#450=CARTESIAN_POINT('',(0.0,0.0,-75.9190124978591));
#451=DIRECTION('',(0.0,0.0,-1.0));
#452=DIRECTION('',(0.0,1.0,0.0));
#453=CARTESIAN_POINT('',(0.0,0.0,-61.9));
#454=DIRECTION('',(0.0,0.0,-1.0));
#455=DIRECTION('',(0.0,-1.0,0.0));
#456=SURFACE_STYLE_FILL_AREA(#538);
#457=ORIENTED_EDGE('',*,*,#74,.T.);
#458=ORIENTED_EDGE('',*,*,#70,.T.);
#459=ORIENTED_EDGE('',*,*,#90,.T.);
#460=ORIENTED_EDGE('',*,*,#118,.T.);
#461=CARTESIAN_POINT('',(0.0,0.0,-61.9));
#462=DIRECTION('',(0.0,0.0,-1.0));
#463=DIRECTION('',(0.0,-1.0,0.0));
#464=SURFACE_STYLE_FILL_AREA(#539);
#465=ORIENTED_EDGE('',*,*,#100,.F.);
#466=ORIENTED_EDGE('',*,*,#138,.T.);
#467=ORIENTED_EDGE('',*,*,#86,.F.);
#468=ORIENTED_EDGE('',*,*,#98,.F.);
#469=CARTESIAN_POINT('',(0.0,0.0,-0.198499999999996));
#470=DIRECTION('',(0.0,-0.0,-1.0));
#471=DIRECTION('',(0.0,1.0,0.0));
#472=SURFACE_STYLE_FILL_AREA(#540);
#473=ORIENTED_EDGE('',*,*,#132,.T.);
#474=ORIENTED_EDGE('',*,*,#90,.F.);
#475=ORIENTED_EDGE('',*,*,#140,.T.);
#476=ORIENTED_EDGE('',*,*,#84,.T.);
#477=CARTESIAN_POINT('',(0.0,0.0,-25.7985));
#478=DIRECTION('',(-0.0,-0.0,1.0));
#479=DIRECTION('',(0.0,1.0,0.0));
#480=CARTESIAN_POINT('',(0.0,0.0,-0.396999999999998));
#481=DIRECTION('',(0.0,0.0,-1.0));
#482=DIRECTION('',(0.0,1.0,0.0));
#483=DIRECTION('',(-6.12303176911191E-017,0.500000000000002,-0.866025403784438));
#484=SURFACE_STYLE_FILL_AREA(#541);
#485=ORIENTED_EDGE('',*,*,#146,.F.);
#486=ORIENTED_EDGE('',*,*,#70,.F.);
#487=ORIENTED_EDGE('',*,*,#144,.F.);
#488=ORIENTED_EDGE('',*,*,#126,.F.);
#489=CARTESIAN_POINT('',(0.0,0.0,-68.9095062489295));
#490=DIRECTION('',(-0.0,-0.0,1.0));
#491=DIRECTION('',(0.0,1.0,0.0));
#492=CARTESIAN_POINT('',(0.0,0.0,-76.2));
#493=DIRECTION('',(0.0,0.0,-1.0));
#494=DIRECTION('',(0.0,1.0,0.0));
#495=SURFACE_STYLE_FILL_AREA(#542);
#496=ORIENTED_EDGE('',*,*,#114,.T.);
#497=ORIENTED_EDGE('',*,*,#124,.T.);
#498=CARTESIAN_POINT('',(0.0,1.725157685,-76.2));
#499=DIRECTION('',(0.0,0.0,-1.0));
#500=DIRECTION('',(0.0,1.0,0.0));
#501=CARTESIAN_POINT('',(0.0,0.0,-61.9));
#502=DIRECTION('',(0.0,0.0,-1.0));
#503=DIRECTION('',(0.0,-1.0,0.0));
#504=CARTESIAN_POINT('',(0.0,0.0,-76.2));
#505=DIRECTION('',(0.0,0.0,-1.0));
#506=DIRECTION('',(0.0,1.0,0.0));
#507=CARTESIAN_POINT('',(0.0,0.0,-75.9190124978591));
#508=DIRECTION('',(0.0,0.0,-1.0));
#509=DIRECTION('',(0.0,1.0,0.0));
#510=DIRECTION('',(1.06054021204601E-016,-0.866025403784439,0.499999999999999));
#511=SURFACE_STYLE_FILL_AREA(#543);
#512=ORIENTED_EDGE('',*,*,#138,.F.);
#513=ORIENTED_EDGE('',*,*,#82,.F.);
#514=CARTESIAN_POINT('',(0.0,1.87289597156586,0.0));
#515=DIRECTION('',(-0.0,0.0,1.0));
#516=DIRECTION('',(0.0,-1.0,0.0));
#517=DIRECTION('',(0.0,0.0,-1.0));
#518=SURFACE_STYLE_FILL_AREA(#544);
#519=SURFACE_STYLE_FILL_AREA(#545);
#520=ORIENTED_EDGE('',*,*,#146,.T.);
#521=ORIENTED_EDGE('',*,*,#88,.F.);
#522=ORIENTED_EDGE('',*,*,#144,.T.);
#523=ORIENTED_EDGE('',*,*,#74,.F.);
#524=CARTESIAN_POINT('',(0.0,0.0,-68.9095062489295));
#525=DIRECTION('',(-0.0,-0.0,1.0));
#526=DIRECTION('',(0.0,1.0,0.0));
#527=CARTESIAN_POINT('',(0.0,0.0,0.0));
#528=DIRECTION('',(0.0,0.0,-1.0));
#529=DIRECTION('',(0.0,1.0,0.0));
#530=DIRECTION('',(-0.0,-0.0,1.0));
#531=DIRECTION('',(1.06054021204601E-016,-0.866025403784439,-0.499999999999999));
#532=DIRECTION('',(-0.0,-0.0,1.0));
#533=DIRECTION('',(0.0,0.0,-1.0));
#534=FILL_AREA_STYLE('',(#546));
#535=FILL_AREA_STYLE('',(#547));
#536=FILL_AREA_STYLE('',(#548));
#537=FILL_AREA_STYLE('',(#549));
#538=FILL_AREA_STYLE('',(#550));
#539=FILL_AREA_STYLE('',(#551));
#540=FILL_AREA_STYLE('',(#552));
#541=FILL_AREA_STYLE('',(#553));
#542=FILL_AREA_STYLE('',(#554));
#543=FILL_AREA_STYLE('',(#555));
#544=FILL_AREA_STYLE('',(#556));
#545=FILL_AREA_STYLE('',(#557));
#546=FILL_AREA_STYLE_COLOUR('',#558);
#547=FILL_AREA_STYLE_COLOUR('',#559);
#548=FILL_AREA_STYLE_COLOUR('',#560);
#549=FILL_AREA_STYLE_COLOUR('',#561);
#550=FILL_AREA_STYLE_COLOUR('',#562);
#551=FILL_AREA_STYLE_COLOUR('',#563);
#552=FILL_AREA_STYLE_COLOUR('',#564);
#553=FILL_AREA_STYLE_COLOUR('',#565);
#554=FILL_AREA_STYLE_COLOUR('',#566);
#555=FILL_AREA_STYLE_COLOUR('',#567);
#556=FILL_AREA_STYLE_COLOUR('',#568);
#557=FILL_AREA_STYLE_COLOUR('',#569);
#558=COLOUR_RGB('',0.800000011920929,0.800000011920929,0.800000011920929);
#559=COLOUR_RGB('',0.498039215803146,0.498039215803146,0.498039215803146);
#560=COLOUR_RGB('',0.800000011920929,0.800000011920929,0.800000011920929);
#561=COLOUR_RGB('',0.498039215803146,0.498039215803146,0.498039215803146);
#562=COLOUR_RGB('',0.498039215803146,0.498039215803146,0.498039215803146);
#563=COLOUR_RGB('',0.498039215803146,0.498039215803146,0.498039215803146);
#564=COLOUR_RGB('',0.498039215803146,0.498039215803146,0.498039215803146);
#565=COLOUR_RGB('',0.800000011920929,0.800000011920929,0.800000011920929);
#566=COLOUR_RGB('',0.498039215803146,0.498039215803146,0.498039215803146);
#567=COLOUR_RGB('',0.498039215803146,0.498039215803146,0.498039215803146);
#568=COLOUR_RGB('',0.498039215803146,0.498039215803146,0.498039215803146);
#569=COLOUR_RGB('',0.800000011920929,0.800000011920929,0.800000011920929);
#570=AXIS2_PLACEMENT_3D('PCS',#571,#572,#573);
#571=CARTESIAN_POINT('',(0.0,0.0,0.0));
#572=DIRECTION('',(0.0,0.0,1.0));
#573=DIRECTION('',(1.0,0.0,0.0));
#574=AXIS2_PLACEMENT_3D('CIP',#575,#576,#577);
#575=CARTESIAN_POINT('',(0.0,0.0,-76.2));
#576=DIRECTION('',(0.0,0.0,1.0));
#577=DIRECTION('',(1.0,0.0,0.0));
#578=AXIS2_PLACEMENT_3D('CRP',#579,#580,#581);
#579=CARTESIAN_POINT('',(-3.937,0.0,-76.2));
#580=DIRECTION('',(0.0,0.0,1.0));
#581=DIRECTION('',(1.0,0.0,0.0));
#582=AXIS2_PLACEMENT_3D('MCS',#583,#584,#585);
#583=CARTESIAN_POINT('',(0.0,0.0,-51.2));
#584=DIRECTION('',(0.0,0.0,1.0));
#585=DIRECTION('',(1.0,0.0,0.0));
#586=CONSTRUCTIVE_GEOMETRY_REPRESENTATION_RELATIONSHIP('coordinate systems',$,#58,#587);
#587=CONSTRUCTIVE_GEOMETRY_REPRESENTATION('coordinate systems',(#570,#574,#578,#582),#6);
ENDSEC;
END-ISO-10303-21;
