ISO-10303-21;
HEADER;
FILE_DESCRIPTION(('no description'),'unknown implementation level');
FILE_NAME('solidy7BWtBBBZiGW92hY0CVPrs3Gjtk_1.STP','  ',('CIMSOURCE GmbH'),('CADClick - KiM GmbH - www.kimweb.de'),'unknown preprocess','ACIS','unknown authorization');
FILE_SCHEMA(('automotive_design'));
ENDSEC;
DATA;
#1=MECHANICAL_DESIGN_GEOMETRIC_PRESENTATION_REPRESENTATION(' ',(#10,#11,#12,#13,#14,#15,#16,#17,#18,#19,#20,#21,#22,#23,#24,#25,#26,#27,#28,#29,#30,#31,#32,#33,#34,#35,#36,#37,#38,#39,#40),#6);
#2=PRODUCT_DEFINITION_CONTEXT('',#41,'design');
#3=APPLICATION_PROTOCOL_DEFINITION('INTERNATIONAL STANDARD','automotive_design',1994,#41);
#4=PRODUCT_CATEGORY_RELATIONSHIP('NONE','NONE',#42,#43);
#5=SHAPE_DEFINITION_REPRESENTATION(#44,#45);
#6= (GEOMETRIC_REPRESENTATION_CONTEXT(3)GLOBAL_UNCERTAINTY_ASSIGNED_CONTEXT((#48))GLOBAL_UNIT_ASSIGNED_CONTEXT((#50,#51,#52))REPRESENTATION_CONTEXT('NONE','WORKSPACE'));
#10=STYLED_ITEM('',(#54),#55);
#11=STYLED_ITEM('',(#56),#57);
#12=STYLED_ITEM('',(#58),#59);
#13=STYLED_ITEM('',(#60),#61);
#14=STYLED_ITEM('',(#62),#63);
#15=STYLED_ITEM('',(#64),#65);
#16=STYLED_ITEM('',(#66),#67);
#17=STYLED_ITEM('',(#68),#69);
#18=STYLED_ITEM('',(#70),#71);
#19=STYLED_ITEM('',(#72),#73);
#20=STYLED_ITEM('',(#74),#75);
#21=STYLED_ITEM('',(#76),#77);
#22=STYLED_ITEM('',(#78),#79);
#23=STYLED_ITEM('',(#80),#81);
#24=STYLED_ITEM('',(#82),#83);
#25=STYLED_ITEM('',(#84),#85);
#26=STYLED_ITEM('',(#86),#87);
#27=STYLED_ITEM('',(#88),#89);
#28=STYLED_ITEM('',(#90),#91);
#29=STYLED_ITEM('',(#92),#93);
#30=STYLED_ITEM('',(#94),#95);
#31=STYLED_ITEM('',(#96),#97);
#32=STYLED_ITEM('',(#98),#99);
#33=STYLED_ITEM('',(#100),#101);
#34=STYLED_ITEM('',(#102),#103);
#35=STYLED_ITEM('',(#104),#105);
#36=STYLED_ITEM('',(#106),#107);
#37=STYLED_ITEM('',(#108),#109);
#38=STYLED_ITEM('',(#110),#111);
#39=STYLED_ITEM('',(#112),#113);
#40=STYLED_ITEM('',(#114),#115);
#41=APPLICATION_CONTEXT(' ');
#42=PRODUCT_CATEGORY('part','NONE');
#43=PRODUCT_RELATED_PRODUCT_CATEGORY('detail',' ',(#116));
#44=PRODUCT_DEFINITION_SHAPE('NONE','NONE',#117);
#45=ADVANCED_BREP_SHAPE_REPRESENTATION('1',(#95,#118),#6);
#48=UNCERTAINTY_MEASURE_WITH_UNIT(LENGTH_MEASURE(1.0E-006),#50,'','');
#50= (CONVERSION_BASED_UNIT('MILLIMETRE',#121)LENGTH_UNIT()NAMED_UNIT(#124));
#51= (NAMED_UNIT(#126)PLANE_ANGLE_UNIT()SI_UNIT($,.RADIAN.));
#52= (NAMED_UNIT(#126)SOLID_ANGLE_UNIT()SI_UNIT($,.STERADIAN.));
#54=PRESENTATION_STYLE_ASSIGNMENT((#132));
#55=VERTEX_POINT('',#133);
#56=PRESENTATION_STYLE_ASSIGNMENT((#134));
#57=EDGE_CURVE('',#65,#73,#135,.T.);
#58=PRESENTATION_STYLE_ASSIGNMENT((#136));
#59=ADVANCED_FACE('',(#137),#138,.T.);
#60=PRESENTATION_STYLE_ASSIGNMENT((#139));
#61=VERTEX_POINT('',#140);
#62=PRESENTATION_STYLE_ASSIGNMENT((#141));
#63=EDGE_CURVE('',#55,#109,#142,.T.);
#64=PRESENTATION_STYLE_ASSIGNMENT((#143));
#65=VERTEX_POINT('',#144);
#66=PRESENTATION_STYLE_ASSIGNMENT((#145));
#67=ADVANCED_FACE('',(#146),#147,.T.);
#68=PRESENTATION_STYLE_ASSIGNMENT((#148));
#69=VERTEX_POINT('',#149);
#70=PRESENTATION_STYLE_ASSIGNMENT((#150));
#71=ADVANCED_FACE('',(#151),#152,.T.);
#72=PRESENTATION_STYLE_ASSIGNMENT((#153));
#73=VERTEX_POINT('',#154);
#74=PRESENTATION_STYLE_ASSIGNMENT((#155));
#75=EDGE_CURVE('',#69,#61,#156,.T.);
#76=PRESENTATION_STYLE_ASSIGNMENT((#157));
#77=EDGE_CURVE('',#73,#55,#158,.T.);
#78=PRESENTATION_STYLE_ASSIGNMENT((#159));
#79=ADVANCED_FACE('',(#160),#161,.T.);
#80=PRESENTATION_STYLE_ASSIGNMENT((#162));
#81=EDGE_CURVE('',#73,#65,#163,.T.);
#82=PRESENTATION_STYLE_ASSIGNMENT((#164));
#83=EDGE_CURVE('',#109,#105,#165,.T.);
#84=PRESENTATION_STYLE_ASSIGNMENT((#166));
#85=EDGE_CURVE('',#105,#103,#167,.T.);
#86=PRESENTATION_STYLE_ASSIGNMENT((#168));
#87=ADVANCED_FACE('',(#169),#170,.T.);
#88=PRESENTATION_STYLE_ASSIGNMENT((#171));
#89=ADVANCED_FACE('',(#172),#173,.T.);
#90=PRESENTATION_STYLE_ASSIGNMENT((#174));
#91=EDGE_CURVE('',#65,#61,#175,.T.);
#92=PRESENTATION_STYLE_ASSIGNMENT((#176));
#93=EDGE_CURVE('',#55,#103,#177,.T.);
#94=PRESENTATION_STYLE_ASSIGNMENT((#178));
#95=MANIFOLD_SOLID_BREP('1',#179);
#96=PRESENTATION_STYLE_ASSIGNMENT((#180));
#97=EDGE_CURVE('',#61,#69,#181,.T.);
#98=PRESENTATION_STYLE_ASSIGNMENT((#182));
#99=EDGE_CURVE('',#105,#109,#183,.T.);
#100=PRESENTATION_STYLE_ASSIGNMENT((#184));
#101=ADVANCED_FACE('',(#185),#186,.T.);
#102=PRESENTATION_STYLE_ASSIGNMENT((#187));
#103=VERTEX_POINT('',#188);
#104=PRESENTATION_STYLE_ASSIGNMENT((#189));
#105=VERTEX_POINT('',#190);
#106=PRESENTATION_STYLE_ASSIGNMENT((#191));
#107=EDGE_CURVE('',#103,#65,#192,.T.);
#108=PRESENTATION_STYLE_ASSIGNMENT((#193));
#109=VERTEX_POINT('',#194);
#110=PRESENTATION_STYLE_ASSIGNMENT((#195));
#111=EDGE_CURVE('',#69,#73,#196,.T.);
#112=PRESENTATION_STYLE_ASSIGNMENT((#197));
#113=ADVANCED_FACE('',(#198),#199,.T.);
#114=PRESENTATION_STYLE_ASSIGNMENT((#200));
#115=EDGE_CURVE('',#103,#55,#201,.T.);
#116=PRODUCT('1','1','PART-1-DESC',(#202));
#117=PRODUCT_DEFINITION('NONE','NONE',#203,#2);
#118=AXIS2_PLACEMENT_3D('',#204,#205,#206);
#121=LENGTH_MEASURE_WITH_UNIT(LENGTH_MEASURE(1.0),#207);
#124=DIMENSIONAL_EXPONENTS(1.0,0.0,0.0,0.0,0.0,0.0,0.0);
#126=DIMENSIONAL_EXPONENTS(0.0,0.0,0.0,0.0,0.0,0.0,0.0);
#132=POINT_STYLE(' ',#208,POSITIVE_LENGTH_MEASURE(1.0E-006),#209);
#133=CARTESIAN_POINT('',(5.83218776007907E-016,-4.7625,-0.793999999999997));
#134=CURVE_STYLE('',#210,POSITIVE_LENGTH_MEASURE(1.0E-006),#211);
#135=CIRCLE('',#212,4.7625);
#136=SURFACE_STYLE_USAGE(.BOTH.,#213);
#137=FACE_OUTER_BOUND('',#214,.T.);
#138=CYLINDRICAL_SURFACE('',#215,4.7625);
#139=POINT_STYLE(' ',#216,POSITIVE_LENGTH_MEASURE(1.0E-006),#217);
#140=CARTESIAN_POINT('',(0.0,4.27581537,-76.2));
#141=CURVE_STYLE('',#218,POSITIVE_LENGTH_MEASURE(1.0E-006),#219);
#142=LINE('',#220,#221);
#143=POINT_STYLE(' ',#222,POSITIVE_LENGTH_MEASURE(1.0E-006),#223);
#144=CARTESIAN_POINT('',(0.0,4.7625,-75.9190124978591));
#145=SURFACE_STYLE_USAGE(.BOTH.,#224);
#146=FACE_OUTER_BOUND('',#225,.T.);
#147=CONICAL_SURFACE('',#226,4.53329194313172,0.523598775598301);
#148=POINT_STYLE(' ',#227,POSITIVE_LENGTH_MEASURE(1.0E-006),#228);
#149=CARTESIAN_POINT('',(5.23619066987338E-016,-4.27581537,-76.2));
#150=SURFACE_STYLE_USAGE(.BOTH.,#229);
#151=FACE_OUTER_BOUND('',#230,.T.);
#152=CONICAL_SURFACE('',#231,4.519157685,1.0471975511966);
#153=POINT_STYLE(' ',#232,POSITIVE_LENGTH_MEASURE(1.0E-006),#233);
#154=CARTESIAN_POINT('',(5.83218776007907E-016,-4.7625,-75.9190124978591));
#155=CURVE_STYLE('',#234,POSITIVE_LENGTH_MEASURE(1.0E-006),#235);
#156=CIRCLE('',#236,4.27581537);
#157=CURVE_STYLE('',#237,POSITIVE_LENGTH_MEASURE(1.0E-006),#238);
#158=LINE('',#239,#240);
#159=SURFACE_STYLE_USAGE(.BOTH.,#241);
#160=FACE_OUTER_BOUND('',#242,.T.);
#161=PLANE('',#243);
#162=CURVE_STYLE('',#244,POSITIVE_LENGTH_MEASURE(1.0E-006),#245);
#163=CIRCLE('',#246,4.7625);
#164=CURVE_STYLE('',#247,POSITIVE_LENGTH_MEASURE(1.0E-006),#248);
#165=CIRCLE('',#249,4.30408388626344);
#166=CURVE_STYLE('',#250,POSITIVE_LENGTH_MEASURE(1.0E-006),#251);
#167=LINE('',#252,#253);
#168=SURFACE_STYLE_USAGE(.BOTH.,#254);
#169=FACE_OUTER_BOUND('',#255,.T.);
#170=CYLINDRICAL_SURFACE('',#256,4.7625);
#171=SURFACE_STYLE_USAGE(.BOTH.,#257);
#172=FACE_OUTER_BOUND('',#258,.T.);
#173=CONICAL_SURFACE('',#259,4.53329194313172,0.523598775598301);
#174=CURVE_STYLE('',#260,POSITIVE_LENGTH_MEASURE(1.0E-006),#261);
#175=LINE('',#262,#263);
#176=CURVE_STYLE('',#264,POSITIVE_LENGTH_MEASURE(1.0E-006),#265);
#177=CIRCLE('',#266,4.7625);
#178=SURFACE_STYLE_USAGE(.BOTH.,#267);
#179=CLOSED_SHELL('',(#87,#89,#101,#71,#79,#67,#59,#113));
#180=CURVE_STYLE('',#268,POSITIVE_LENGTH_MEASURE(1.0E-006),#269);
#181=CIRCLE('',#270,4.27581537);
#182=CURVE_STYLE('',#271,POSITIVE_LENGTH_MEASURE(1.0E-006),#272);
#183=CIRCLE('',#273,4.30408388626344);
#184=SURFACE_STYLE_USAGE(.BOTH.,#274);
#185=FACE_OUTER_BOUND('',#275,.T.);
#186=CONICAL_SURFACE('',#276,4.519157685,1.0471975511966);
#187=POINT_STYLE(' ',#277,POSITIVE_LENGTH_MEASURE(1.0E-006),#278);
#188=CARTESIAN_POINT('',(0.0,4.7625,-0.793999999999997));
#189=POINT_STYLE(' ',#279,POSITIVE_LENGTH_MEASURE(1.0E-006),#280);
#190=CARTESIAN_POINT('',(0.0,4.30408388626344,0.0));
#191=CURVE_STYLE('',#281,POSITIVE_LENGTH_MEASURE(1.0E-006),#282);
#192=LINE('',#283,#284);
#193=POINT_STYLE(' ',#285,POSITIVE_LENGTH_MEASURE(1.0E-006),#286);
#194=CARTESIAN_POINT('',(5.27080847450271E-016,-4.30408388626344,0.0));
#195=CURVE_STYLE('',#287,POSITIVE_LENGTH_MEASURE(1.0E-006),#288);
#196=LINE('',#289,#290);
#197=SURFACE_STYLE_USAGE(.BOTH.,#291);
#198=FACE_OUTER_BOUND('',#292,.T.);
#199=PLANE('',#293);
#200=CURVE_STYLE('',#294,POSITIVE_LENGTH_MEASURE(1.0E-006),#295);
#201=CIRCLE('',#296,4.7625);
#202=PRODUCT_CONTEXT('',#41,'mechanical');
#203=PRODUCT_DEFINITION_FORMATION_WITH_SPECIFIED_SOURCE(' ','NONE',#116,.NOT_KNOWN.);
#204=CARTESIAN_POINT('',(0.0,0.0,0.0));
#205=DIRECTION('',(0.0,0.0,1.0));
#206=DIRECTION('',(1.0,0.0,0.0));
#207= (NAMED_UNIT(#124)LENGTH_UNIT()SI_UNIT(.MILLI.,.METRE.));
#208=PRE_DEFINED_MARKER('');
#209=COLOUR_RGB('',0.498039215803146,0.498039215803146,0.498039215803146);
#210=DRAUGHTING_PRE_DEFINED_CURVE_FONT('continuous');
#211=COLOUR_RGB('',0.800000011920929,0.800000011920929,0.800000011920929);
#212=AXIS2_PLACEMENT_3D('',#298,#299,#300);
#213=SURFACE_SIDE_STYLE('',(#301));
#214=EDGE_LOOP('',(#302,#303,#304,#305));
#215=AXIS2_PLACEMENT_3D('',#306,#307,#308);
#216=PRE_DEFINED_MARKER('');
#217=COLOUR_RGB('',0.498039215803146,0.498039215803146,0.498039215803146);
#218=DRAUGHTING_PRE_DEFINED_CURVE_FONT('continuous');
#219=COLOUR_RGB('',0.498039215803146,0.498039215803146,0.498039215803146);
#220=CARTESIAN_POINT('',(5.55149811729089E-016,-4.53329194313172,-0.396999999999998));
#221=VECTOR('',#309,1.0);
#222=PRE_DEFINED_MARKER('');
#223=COLOUR_RGB('',0.800000011920929,0.800000011920929,0.800000011920929);
#224=SURFACE_SIDE_STYLE('',(#310));
#225=EDGE_LOOP('',(#311,#312,#313,#314));
#226=AXIS2_PLACEMENT_3D('',#315,#316,#317);
#227=PRE_DEFINED_MARKER('');
#228=COLOUR_RGB('',0.498039215803146,0.498039215803146,0.498039215803146);
#229=SURFACE_SIDE_STYLE('',(#318));
#230=EDGE_LOOP('',(#319,#320,#321,#322));
#231=AXIS2_PLACEMENT_3D('',#323,#324,#325);
#232=PRE_DEFINED_MARKER('');
#233=COLOUR_RGB('',0.800000011920929,0.800000011920929,0.800000011920929);
#234=DRAUGHTING_PRE_DEFINED_CURVE_FONT('continuous');
#235=COLOUR_RGB('',0.498039215803146,0.498039215803146,0.498039215803146);
#236=AXIS2_PLACEMENT_3D('',#326,#327,#328);
#237=DRAUGHTING_PRE_DEFINED_CURVE_FONT('continuous');
#238=COLOUR_RGB('',0.498039215803146,0.498039215803146,0.498039215803146);
#239=CARTESIAN_POINT('',(5.83218776007907E-016,-4.7625,-23.997));
#240=VECTOR('',#329,1.0);
#241=SURFACE_SIDE_STYLE('',(#330));
#242=EDGE_LOOP('',(#331,#332));
#243=AXIS2_PLACEMENT_3D('',#333,#334,#335);
#244=DRAUGHTING_PRE_DEFINED_CURVE_FONT('continuous');
#245=COLOUR_RGB('',0.800000011920929,0.800000011920929,0.800000011920929);
#246=AXIS2_PLACEMENT_3D('',#336,#337,#338);
#247=DRAUGHTING_PRE_DEFINED_CURVE_FONT('continuous');
#248=COLOUR_RGB('',0.498039215803146,0.498039215803146,0.498039215803146);
#249=AXIS2_PLACEMENT_3D('',#339,#340,#341);
#250=DRAUGHTING_PRE_DEFINED_CURVE_FONT('continuous');
#251=COLOUR_RGB('',0.498039215803146,0.498039215803146,0.498039215803146);
#252=CARTESIAN_POINT('',(-5.5514981172909E-016,4.53329194313172,-0.396999999999998));
#253=VECTOR('',#342,1.0);
#254=SURFACE_SIDE_STYLE('',(#343));
#255=EDGE_LOOP('',(#344,#345,#346,#347));
#256=AXIS2_PLACEMENT_3D('',#348,#349,#350);
#257=SURFACE_SIDE_STYLE('',(#351));
#258=EDGE_LOOP('',(#352,#353,#354,#355));
#259=AXIS2_PLACEMENT_3D('',#356,#357,#358);
#260=DRAUGHTING_PRE_DEFINED_CURVE_FONT('continuous');
#261=COLOUR_RGB('',0.800000011920929,0.800000011920929,0.800000011920929);
#262=CARTESIAN_POINT('',(-5.53418921497622E-016,4.519157685,-76.0595062489295));
#263=VECTOR('',#359,1.0);
#264=DRAUGHTING_PRE_DEFINED_CURVE_FONT('continuous');
#265=COLOUR_RGB('',0.498039215803146,0.498039215803146,0.498039215803146);
#266=AXIS2_PLACEMENT_3D('',#360,#361,#362);
#267=SURFACE_SIDE_STYLE('',(#363));
#268=DRAUGHTING_PRE_DEFINED_CURVE_FONT('continuous');
#269=COLOUR_RGB('',0.498039215803146,0.498039215803146,0.498039215803146);
#270=AXIS2_PLACEMENT_3D('',#364,#365,#366);
#271=DRAUGHTING_PRE_DEFINED_CURVE_FONT('continuous');
#272=COLOUR_RGB('',0.498039215803146,0.498039215803146,0.498039215803146);
#273=AXIS2_PLACEMENT_3D('',#367,#368,#369);
#274=SURFACE_SIDE_STYLE('',(#370));
#275=EDGE_LOOP('',(#371,#372,#373,#374));
#276=AXIS2_PLACEMENT_3D('',#375,#376,#377);
#277=PRE_DEFINED_MARKER('');
#278=COLOUR_RGB('',0.498039215803146,0.498039215803146,0.498039215803146);
#279=PRE_DEFINED_MARKER('');
#280=COLOUR_RGB('',0.498039215803146,0.498039215803146,0.498039215803146);
#281=DRAUGHTING_PRE_DEFINED_CURVE_FONT('continuous');
#282=COLOUR_RGB('',0.498039215803146,0.498039215803146,0.498039215803146);
#283=CARTESIAN_POINT('',(-5.83218776007907E-016,4.7625,-23.997));
#284=VECTOR('',#378,1.0);
#285=PRE_DEFINED_MARKER('');
#286=COLOUR_RGB('',0.498039215803146,0.498039215803146,0.498039215803146);
#287=DRAUGHTING_PRE_DEFINED_CURVE_FONT('continuous');
#288=COLOUR_RGB('',0.800000011920929,0.800000011920929,0.800000011920929);
#289=CARTESIAN_POINT('',(5.53418921497623E-016,-4.519157685,-76.0595062489295));
#290=VECTOR('',#379,1.0);
#291=SURFACE_SIDE_STYLE('',(#380));
#292=EDGE_LOOP('',(#381,#382));
#293=AXIS2_PLACEMENT_3D('',#383,#384,#385);
#294=DRAUGHTING_PRE_DEFINED_CURVE_FONT('continuous');
#295=COLOUR_RGB('',0.498039215803146,0.498039215803146,0.498039215803146);
#296=AXIS2_PLACEMENT_3D('',#386,#387,#388);
#298=CARTESIAN_POINT('',(0.0,0.0,-75.9190124978591));
#299=DIRECTION('',(0.0,0.0,-1.0));
#300=DIRECTION('',(0.0,1.0,0.0));
#301=SURFACE_STYLE_FILL_AREA(#389);
#302=ORIENTED_EDGE('',*,*,#107,.T.);
#303=ORIENTED_EDGE('',*,*,#81,.F.);
#304=ORIENTED_EDGE('',*,*,#77,.T.);
#305=ORIENTED_EDGE('',*,*,#93,.T.);
#306=CARTESIAN_POINT('',(0.0,0.0,-23.997));
#307=DIRECTION('',(-0.0,-0.0,1.0));
#308=DIRECTION('',(0.0,1.0,0.0));
#309=DIRECTION('',(-6.12303176911191E-017,0.500000000000002,0.866025403784438));
#310=SURFACE_STYLE_FILL_AREA(#390);
#311=ORIENTED_EDGE('',*,*,#85,.T.);
#312=ORIENTED_EDGE('',*,*,#93,.F.);
#313=ORIENTED_EDGE('',*,*,#63,.T.);
#314=ORIENTED_EDGE('',*,*,#83,.T.);
#315=CARTESIAN_POINT('',(0.0,0.0,-0.396999999999998));
#316=DIRECTION('',(0.0,-0.0,-1.0));
#317=DIRECTION('',(0.0,1.0,0.0));
#318=SURFACE_STYLE_FILL_AREA(#391);
#319=ORIENTED_EDGE('',*,*,#91,.T.);
#320=ORIENTED_EDGE('',*,*,#75,.F.);
#321=ORIENTED_EDGE('',*,*,#111,.T.);
#322=ORIENTED_EDGE('',*,*,#81,.T.);
#323=CARTESIAN_POINT('',(0.0,0.0,-76.0595062489295));
#324=DIRECTION('',(-0.0,-0.0,1.0));
#325=DIRECTION('',(0.0,1.0,0.0));
#326=CARTESIAN_POINT('',(0.0,0.0,-76.2));
#327=DIRECTION('',(0.0,0.0,-1.0));
#328=DIRECTION('',(0.0,1.0,0.0));
#329=DIRECTION('',(-0.0,-0.0,1.0));
#330=SURFACE_STYLE_FILL_AREA(#392);
#331=ORIENTED_EDGE('',*,*,#99,.F.);
#332=ORIENTED_EDGE('',*,*,#83,.F.);
#333=CARTESIAN_POINT('',(0.0,2.15204194313172,0.0));
#334=DIRECTION('',(-0.0,0.0,1.0));
#335=DIRECTION('',(0.0,-1.0,0.0));
#336=CARTESIAN_POINT('',(0.0,0.0,-75.9190124978591));
#337=DIRECTION('',(0.0,0.0,-1.0));
#338=DIRECTION('',(0.0,1.0,0.0));
#339=CARTESIAN_POINT('',(0.0,0.0,0.0));
#340=DIRECTION('',(0.0,0.0,-1.0));
#341=DIRECTION('',(0.0,1.0,0.0));
#342=DIRECTION('',(-6.12303176911191E-017,0.500000000000002,-0.866025403784438));
#343=SURFACE_STYLE_FILL_AREA(#393);
#344=ORIENTED_EDGE('',*,*,#107,.F.);
#345=ORIENTED_EDGE('',*,*,#115,.T.);
#346=ORIENTED_EDGE('',*,*,#77,.F.);
#347=ORIENTED_EDGE('',*,*,#57,.F.);
#348=CARTESIAN_POINT('',(0.0,0.0,-23.997));
#349=DIRECTION('',(-0.0,-0.0,1.0));
#350=DIRECTION('',(0.0,1.0,0.0));
#351=SURFACE_STYLE_FILL_AREA(#394);
#352=ORIENTED_EDGE('',*,*,#85,.F.);
#353=ORIENTED_EDGE('',*,*,#99,.T.);
#354=ORIENTED_EDGE('',*,*,#63,.F.);
#355=ORIENTED_EDGE('',*,*,#115,.F.);
#356=CARTESIAN_POINT('',(0.0,0.0,-0.396999999999998));
#357=DIRECTION('',(0.0,-0.0,-1.0));
#358=DIRECTION('',(0.0,1.0,0.0));
#359=DIRECTION('',(1.06054021204601E-016,-0.866025403784439,-0.499999999999999));
#360=CARTESIAN_POINT('',(0.0,0.0,-0.793999999999997));
#361=DIRECTION('',(0.0,0.0,-1.0));
#362=DIRECTION('',(0.0,1.0,0.0));
#363=SURFACE_STYLE_FILL_AREA(#395);
#364=CARTESIAN_POINT('',(0.0,0.0,-76.2));
#365=DIRECTION('',(0.0,0.0,-1.0));
#366=DIRECTION('',(0.0,1.0,0.0));
#367=CARTESIAN_POINT('',(0.0,0.0,0.0));
#368=DIRECTION('',(0.0,0.0,-1.0));
#369=DIRECTION('',(0.0,1.0,0.0));
#370=SURFACE_STYLE_FILL_AREA(#396);
#371=ORIENTED_EDGE('',*,*,#91,.F.);
#372=ORIENTED_EDGE('',*,*,#57,.T.);
#373=ORIENTED_EDGE('',*,*,#111,.F.);
#374=ORIENTED_EDGE('',*,*,#97,.F.);
#375=CARTESIAN_POINT('',(0.0,0.0,-76.0595062489295));
#376=DIRECTION('',(-0.0,-0.0,1.0));
#377=DIRECTION('',(0.0,1.0,0.0));
#378=DIRECTION('',(0.0,0.0,-1.0));
#379=DIRECTION('',(1.06054021204601E-016,-0.866025403784439,0.499999999999999));
#380=SURFACE_STYLE_FILL_AREA(#397);
#381=ORIENTED_EDGE('',*,*,#97,.T.);
#382=ORIENTED_EDGE('',*,*,#75,.T.);
#383=CARTESIAN_POINT('',(0.0,2.137907685,-76.2));
#384=DIRECTION('',(0.0,0.0,-1.0));
#385=DIRECTION('',(0.0,1.0,0.0));
#386=CARTESIAN_POINT('',(0.0,0.0,-0.793999999999997));
#387=DIRECTION('',(0.0,0.0,-1.0));
#388=DIRECTION('',(0.0,1.0,0.0));
#389=FILL_AREA_STYLE('',(#398));
#390=FILL_AREA_STYLE('',(#399));
#391=FILL_AREA_STYLE('',(#400));
#392=FILL_AREA_STYLE('',(#401));
#393=FILL_AREA_STYLE('',(#402));
#394=FILL_AREA_STYLE('',(#403));
#395=FILL_AREA_STYLE('',(#404));
#396=FILL_AREA_STYLE('',(#405));
#397=FILL_AREA_STYLE('',(#406));
#398=FILL_AREA_STYLE_COLOUR('',#407);
#399=FILL_AREA_STYLE_COLOUR('',#408);
#400=FILL_AREA_STYLE_COLOUR('',#409);
#401=FILL_AREA_STYLE_COLOUR('',#410);
#402=FILL_AREA_STYLE_COLOUR('',#411);
#403=FILL_AREA_STYLE_COLOUR('',#412);
#404=FILL_AREA_STYLE_COLOUR('',#413);
#405=FILL_AREA_STYLE_COLOUR('',#414);
#406=FILL_AREA_STYLE_COLOUR('',#415);
#407=COLOUR_RGB('',0.498039215803146,0.498039215803146,0.498039215803146);
#408=COLOUR_RGB('',0.498039215803146,0.498039215803146,0.498039215803146);
#409=COLOUR_RGB('',0.800000011920929,0.800000011920929,0.800000011920929);
#410=COLOUR_RGB('',0.498039215803146,0.498039215803146,0.498039215803146);
#411=COLOUR_RGB('',0.498039215803146,0.498039215803146,0.498039215803146);
#412=COLOUR_RGB('',0.498039215803146,0.498039215803146,0.498039215803146);
#413=COLOUR_RGB('',0.498039215803146,0.498039215803146,0.498039215803146);
#414=COLOUR_RGB('',0.800000011920929,0.800000011920929,0.800000011920929);
#415=COLOUR_RGB('',0.498039215803146,0.498039215803146,0.498039215803146);
#416=AXIS2_PLACEMENT_3D('PCS',#417,#418,#419);
#417=CARTESIAN_POINT('',(0.0,0.0,0.0));
#418=DIRECTION('',(0.0,0.0,1.0));
#419=DIRECTION('',(1.0,0.0,0.0));
#420=AXIS2_PLACEMENT_3D('CIP',#421,#422,#423);
#421=CARTESIAN_POINT('',(0.0,0.0,-76.2));
#422=DIRECTION('',(0.0,0.0,1.0));
#423=DIRECTION('',(1.0,0.0,0.0));
#424=AXIS2_PLACEMENT_3D('CRP',#425,#426,#427);
#425=CARTESIAN_POINT('',(-4.7625,0.0,-76.2));
#426=DIRECTION('',(0.0,0.0,1.0));
#427=DIRECTION('',(1.0,0.0,0.0));
#428=AXIS2_PLACEMENT_3D('MCS',#429,#430,#431);
#429=CARTESIAN_POINT('',(0.0,0.0,-47.2));
#430=DIRECTION('',(0.0,0.0,1.0));
#431=DIRECTION('',(1.0,0.0,0.0));
#432=CONSTRUCTIVE_GEOMETRY_REPRESENTATION_RELATIONSHIP('coordinate systems',$,#45,#433);
#433=CONSTRUCTIVE_GEOMETRY_REPRESENTATION('coordinate systems',(#416,#420,#424,#428),#6);
ENDSEC;
END-ISO-10303-21;
