ISO-10303-21;
HEADER;
FILE_DESCRIPTION(('no description'),'unknown implementation level');
FILE_NAME('solid3HIO3GDFc_rLtPWqkGxRfHkSH7A_1.STP','  ',('CIMSOURCE GmbH'),('CADClick - KiM GmbH - www.kimweb.de'),'unknown preprocess','ACIS','unknown authorization');
FILE_SCHEMA(('automotive_design'));
ENDSEC;
DATA;
#1=MECHANICAL_DESIGN_GEOMETRIC_PRESENTATION_REPRESENTATION(' ',(#10,#11,#12,#13,#14,#15,#16,#17,#18,#19,#20,#21,#22,#23,#24,#25,#26,#27,#28,#29,#30,#31,#32,#33,#34,#35,#36,#37,#38,#39,#40,#41,#42,#43,#44,#45,#46,#47,#48,#49,#50,#51,#52,#53),#6);
#2=PRODUCT_DEFINITION_CONTEXT('',#54,'design');
#3=APPLICATION_PROTOCOL_DEFINITION('INTERNATIONAL STANDARD','automotive_design',1994,#54);
#4=PRODUCT_CATEGORY_RELATIONSHIP('NONE','NONE',#55,#56);
#5=SHAPE_DEFINITION_REPRESENTATION(#57,#58);
#6= (GEOMETRIC_REPRESENTATION_CONTEXT(3)GLOBAL_UNCERTAINTY_ASSIGNED_CONTEXT((#61))GLOBAL_UNIT_ASSIGNED_CONTEXT((#63,#64,#65))REPRESENTATION_CONTEXT('NONE','WORKSPACE'));
#10=STYLED_ITEM('',(#67),#68);
#11=STYLED_ITEM('',(#69),#70);
#12=STYLED_ITEM('',(#71),#72);
#13=STYLED_ITEM('',(#73),#74);
#14=STYLED_ITEM('',(#75),#76);
#15=STYLED_ITEM('',(#77),#78);
#16=STYLED_ITEM('',(#79),#80);
#17=STYLED_ITEM('',(#81),#82);
#18=STYLED_ITEM('',(#83),#84);
#19=STYLED_ITEM('',(#85),#86);
#20=STYLED_ITEM('',(#87),#88);
#21=STYLED_ITEM('',(#89),#90);
#22=STYLED_ITEM('',(#91),#92);
#23=STYLED_ITEM('',(#93),#94);
#24=STYLED_ITEM('',(#95),#96);
#25=STYLED_ITEM('',(#97),#98);
#26=STYLED_ITEM('',(#99),#100);
#27=STYLED_ITEM('',(#101),#102);
#28=STYLED_ITEM('',(#103),#104);
#29=STYLED_ITEM('',(#105),#106);
#30=STYLED_ITEM('',(#107),#108);
#31=STYLED_ITEM('',(#109),#110);
#32=STYLED_ITEM('',(#111),#112);
#33=STYLED_ITEM('',(#113),#114);
#34=STYLED_ITEM('',(#115),#116);
#35=STYLED_ITEM('',(#117),#118);
#36=STYLED_ITEM('',(#119),#120);
#37=STYLED_ITEM('',(#121),#122);
#38=STYLED_ITEM('',(#123),#124);
#39=STYLED_ITEM('',(#125),#126);
#40=STYLED_ITEM('',(#127),#128);
#41=STYLED_ITEM('',(#129),#130);
#42=STYLED_ITEM('',(#131),#132);
#43=STYLED_ITEM('',(#133),#134);
#44=STYLED_ITEM('',(#135),#136);
#45=STYLED_ITEM('',(#137),#138);
#46=STYLED_ITEM('',(#139),#140);
#47=STYLED_ITEM('',(#141),#142);
#48=STYLED_ITEM('',(#143),#144);
#49=STYLED_ITEM('',(#145),#146);
#50=STYLED_ITEM('',(#147),#148);
#51=STYLED_ITEM('',(#149),#150);
#52=STYLED_ITEM('',(#151),#152);
#53=STYLED_ITEM('',(#153),#154);
#54=APPLICATION_CONTEXT(' ');
#55=PRODUCT_CATEGORY('part','NONE');
#56=PRODUCT_RELATED_PRODUCT_CATEGORY('detail',' ',(#155));
#57=PRODUCT_DEFINITION_SHAPE('NONE','NONE',#156);
#58=ADVANCED_BREP_SHAPE_REPRESENTATION('1',(#146,#157),#6);
#61=UNCERTAINTY_MEASURE_WITH_UNIT(LENGTH_MEASURE(1.0E-006),#63,'','');
#63= (CONVERSION_BASED_UNIT('MILLIMETRE',#160)LENGTH_UNIT()NAMED_UNIT(#163));
#64= (NAMED_UNIT(#165)PLANE_ANGLE_UNIT()SI_UNIT($,.RADIAN.));
#65= (NAMED_UNIT(#165)SOLID_ANGLE_UNIT()SI_UNIT($,.STERADIAN.));
#67=PRESENTATION_STYLE_ASSIGNMENT((#171));
#68=EDGE_CURVE('',#122,#112,#172,.T.);
#69=PRESENTATION_STYLE_ASSIGNMENT((#173));
#70=VERTEX_POINT('',#174);
#71=PRESENTATION_STYLE_ASSIGNMENT((#175));
#72=ADVANCED_FACE('',(#176),#177,.T.);
#73=PRESENTATION_STYLE_ASSIGNMENT((#178));
#74=VERTEX_POINT('',#179);
#75=PRESENTATION_STYLE_ASSIGNMENT((#180));
#76=EDGE_CURVE('',#74,#86,#181,.T.);
#77=PRESENTATION_STYLE_ASSIGNMENT((#182));
#78=EDGE_CURVE('',#122,#148,#183,.T.);
#79=PRESENTATION_STYLE_ASSIGNMENT((#184));
#80=ADVANCED_FACE('',(#185),#186,.T.);
#81=PRESENTATION_STYLE_ASSIGNMENT((#187));
#82=EDGE_CURVE('',#70,#136,#188,.T.);
#83=PRESENTATION_STYLE_ASSIGNMENT((#189));
#84=EDGE_CURVE('',#74,#70,#190,.T.);
#85=PRESENTATION_STYLE_ASSIGNMENT((#191));
#86=VERTEX_POINT('',#192);
#87=PRESENTATION_STYLE_ASSIGNMENT((#193));
#88=VERTEX_POINT('',#194);
#89=PRESENTATION_STYLE_ASSIGNMENT((#195));
#90=EDGE_CURVE('',#92,#148,#196,.T.);
#91=PRESENTATION_STYLE_ASSIGNMENT((#197));
#92=VERTEX_POINT('',#198);
#93=PRESENTATION_STYLE_ASSIGNMENT((#199));
#94=VERTEX_POINT('',#200);
#95=PRESENTATION_STYLE_ASSIGNMENT((#201));
#96=ADVANCED_FACE('',(#202),#203,.T.);
#97=PRESENTATION_STYLE_ASSIGNMENT((#204));
#98=VERTEX_POINT('',#205);
#99=PRESENTATION_STYLE_ASSIGNMENT((#206));
#100=EDGE_CURVE('',#88,#94,#207,.T.);
#101=PRESENTATION_STYLE_ASSIGNMENT((#208));
#102=ADVANCED_FACE('',(#209),#210,.T.);
#103=PRESENTATION_STYLE_ASSIGNMENT((#211));
#104=ADVANCED_FACE('',(#212),#213,.T.);
#105=PRESENTATION_STYLE_ASSIGNMENT((#214));
#106=ADVANCED_FACE('',(#215),#216,.T.);
#107=PRESENTATION_STYLE_ASSIGNMENT((#217));
#108=ADVANCED_FACE('',(#218,#219),#220,.T.);
#109=PRESENTATION_STYLE_ASSIGNMENT((#221));
#110=EDGE_CURVE('',#112,#122,#222,.T.);
#111=PRESENTATION_STYLE_ASSIGNMENT((#223));
#112=VERTEX_POINT('',#224);
#113=PRESENTATION_STYLE_ASSIGNMENT((#225));
#114=ADVANCED_FACE('',(#226),#227,.T.);
#115=PRESENTATION_STYLE_ASSIGNMENT((#228));
#116=EDGE_CURVE('',#136,#86,#229,.T.);
#117=PRESENTATION_STYLE_ASSIGNMENT((#230));
#118=ADVANCED_FACE('',(#231),#232,.T.);
#119=PRESENTATION_STYLE_ASSIGNMENT((#233));
#120=ADVANCED_FACE('',(#234),#235,.T.);
#121=PRESENTATION_STYLE_ASSIGNMENT((#236));
#122=VERTEX_POINT('',#237);
#123=PRESENTATION_STYLE_ASSIGNMENT((#238));
#124=EDGE_CURVE('',#94,#92,#239,.T.);
#125=PRESENTATION_STYLE_ASSIGNMENT((#240));
#126=EDGE_CURVE('',#86,#74,#241,.T.);
#127=PRESENTATION_STYLE_ASSIGNMENT((#242));
#128=VERTEX_POINT('',#243);
#129=PRESENTATION_STYLE_ASSIGNMENT((#244));
#130=EDGE_CURVE('',#98,#128,#245,.T.);
#131=PRESENTATION_STYLE_ASSIGNMENT((#246));
#132=EDGE_CURVE('',#86,#98,#247,.T.);
#133=PRESENTATION_STYLE_ASSIGNMENT((#248));
#134=EDGE_CURVE('',#94,#88,#249,.T.);
#135=PRESENTATION_STYLE_ASSIGNMENT((#250));
#136=VERTEX_POINT('',#251);
#137=PRESENTATION_STYLE_ASSIGNMENT((#252));
#138=EDGE_CURVE('',#148,#88,#253,.T.);
#139=PRESENTATION_STYLE_ASSIGNMENT((#254));
#140=EDGE_CURVE('',#128,#74,#255,.T.);
#141=PRESENTATION_STYLE_ASSIGNMENT((#256));
#142=EDGE_CURVE('',#136,#70,#257,.T.);
#143=PRESENTATION_STYLE_ASSIGNMENT((#258));
#144=EDGE_CURVE('',#128,#98,#259,.T.);
#145=PRESENTATION_STYLE_ASSIGNMENT((#260));
#146=MANIFOLD_SOLID_BREP('1',#261);
#147=PRESENTATION_STYLE_ASSIGNMENT((#262));
#148=VERTEX_POINT('',#263);
#149=PRESENTATION_STYLE_ASSIGNMENT((#264));
#150=EDGE_CURVE('',#92,#112,#265,.T.);
#151=PRESENTATION_STYLE_ASSIGNMENT((#266));
#152=ADVANCED_FACE('',(#267),#268,.T.);
#153=PRESENTATION_STYLE_ASSIGNMENT((#269));
#154=EDGE_CURVE('',#148,#92,#270,.T.);
#155=PRODUCT('1','1','PART-1-DESC',(#271));
#156=PRODUCT_DEFINITION('NONE','NONE',#272,#2);
#157=AXIS2_PLACEMENT_3D('',#273,#274,#275);
#160=LENGTH_MEASURE_WITH_UNIT(LENGTH_MEASURE(1.0),#276);
#163=DIMENSIONAL_EXPONENTS(1.0,0.0,0.0,0.0,0.0,0.0,0.0);
#165=DIMENSIONAL_EXPONENTS(0.0,0.0,0.0,0.0,0.0,0.0,0.0);
#171=CURVE_STYLE('',#277,POSITIVE_LENGTH_MEASURE(1.0E-006),#278);
#172=CIRCLE('',#279,2.24628289);
#173=POINT_STYLE(' ',#280,POSITIVE_LENGTH_MEASURE(1.0E-006),#281);
#174=CARTESIAN_POINT('',(3.60743553059787E-016,-2.94579194313172,0.0));
#175=SURFACE_STYLE_USAGE(.BOTH.,#282);
#176=FACE_OUTER_BOUND('',#283,.T.);
#177=CYLINDRICAL_SURFACE('',#284,3.175);
#178=POINT_STYLE(' ',#285,POSITIVE_LENGTH_MEASURE(1.0E-006),#286);
#179=CARTESIAN_POINT('',(3.88812517338605E-016,-3.175,-0.396999999999998));
#180=CURVE_STYLE('',#287,POSITIVE_LENGTH_MEASURE(1.0E-006),#288);
#181=CIRCLE('',#289,3.175);
#182=CURVE_STYLE('',#290,POSITIVE_LENGTH_MEASURE(1.0E-006),#291);
#183=LINE('',#292,#293);
#184=SURFACE_STYLE_USAGE(.BOTH.,#294);
#185=FACE_OUTER_BOUND('',#295,.T.);
#186=PLANE('',#296);
#187=CURVE_STYLE('',#297,POSITIVE_LENGTH_MEASURE(1.0E-006),#298);
#188=CIRCLE('',#299,2.94579194313172);
#189=CURVE_STYLE('',#300,POSITIVE_LENGTH_MEASURE(1.0E-006),#301);
#190=LINE('',#302,#303);
#191=POINT_STYLE(' ',#304,POSITIVE_LENGTH_MEASURE(1.0E-006),#305);
#192=CARTESIAN_POINT('',(0.0,3.175,-0.396999999999998));
#193=POINT_STYLE(' ',#306,POSITIVE_LENGTH_MEASURE(1.0E-006),#307);
#194=CARTESIAN_POINT('',(3.81036266991833E-016,-3.1115,-57.9));
#195=CURVE_STYLE('',#308,POSITIVE_LENGTH_MEASURE(1.0E-006),#309);
#196=CIRCLE('',#310,3.1115);
#197=POINT_STYLE(' ',#311,POSITIVE_LENGTH_MEASURE(1.0E-006),#312);
#198=CARTESIAN_POINT('',(0.0,3.1115,-75.700466668634));
#199=POINT_STYLE(' ',#313,POSITIVE_LENGTH_MEASURE(1.0E-006),#314);
#200=CARTESIAN_POINT('',(0.0,3.1115,-57.9));
#201=SURFACE_STYLE_USAGE(.BOTH.,#315);
#202=FACE_OUTER_BOUND('',#316,.T.);
#203=CONICAL_SURFACE('',#317,3.06039597156586,0.523598775598301);
#204=POINT_STYLE(' ',#318,POSITIVE_LENGTH_MEASURE(1.0E-006),#319);
#205=CARTESIAN_POINT('',(-3.88812517338605E-016,3.175,-57.9));
#206=CURVE_STYLE('',#320,POSITIVE_LENGTH_MEASURE(1.0E-006),#321);
#207=CIRCLE('',#322,3.1115);
#208=SURFACE_STYLE_USAGE(.BOTH.,#323);
#209=FACE_OUTER_BOUND('',#324,.T.);
#210=CONICAL_SURFACE('',#325,2.678891445,1.0471975511966);
#211=SURFACE_STYLE_USAGE(.BOTH.,#326);
#212=FACE_OUTER_BOUND('',#327,.T.);
#213=CONICAL_SURFACE('',#328,2.678891445,1.0471975511966);
#214=SURFACE_STYLE_USAGE(.BOTH.,#329);
#215=FACE_OUTER_BOUND('',#330,.T.);
#216=CYLINDRICAL_SURFACE('',#331,3.1115);
#217=SURFACE_STYLE_USAGE(.BOTH.,#332);
#218=FACE_BOUND('',#333,.T.);
#219=FACE_OUTER_BOUND('',#334,.T.);
#220=PLANE('',#335);
#221=CURVE_STYLE('',#336,POSITIVE_LENGTH_MEASURE(1.0E-006),#337);
#222=CIRCLE('',#338,2.24628289);
#223=POINT_STYLE(' ',#339,POSITIVE_LENGTH_MEASURE(1.0E-006),#340);
#224=CARTESIAN_POINT('',(0.0,2.24628289,-76.2));
#225=SURFACE_STYLE_USAGE(.BOTH.,#341);
#226=FACE_OUTER_BOUND('',#342,.T.);
#227=CYLINDRICAL_SURFACE('',#343,3.1115);
#228=CURVE_STYLE('',#344,POSITIVE_LENGTH_MEASURE(1.0E-006),#345);
#229=LINE('',#346,#347);
#230=SURFACE_STYLE_USAGE(.BOTH.,#348);
#231=FACE_OUTER_BOUND('',#349,.T.);
#232=CONICAL_SURFACE('',#350,3.06039597156586,0.523598775598301);
#233=SURFACE_STYLE_USAGE(.BOTH.,#351);
#234=FACE_OUTER_BOUND('',#352,.T.);
#235=PLANE('',#353);
#236=POINT_STYLE(' ',#354,POSITIVE_LENGTH_MEASURE(1.0E-006),#355);
#237=CARTESIAN_POINT('',(2.75081229957649E-016,-2.24628289,-76.2));
#238=CURVE_STYLE('',#356,POSITIVE_LENGTH_MEASURE(1.0E-006),#357);
#239=LINE('',#358,#359);
#240=CURVE_STYLE('',#360,POSITIVE_LENGTH_MEASURE(1.0E-006),#361);
#241=CIRCLE('',#362,3.175);
#242=POINT_STYLE(' ',#363,POSITIVE_LENGTH_MEASURE(1.0E-006),#364);
#243=CARTESIAN_POINT('',(0.0,-3.175,-57.9));
#244=CURVE_STYLE('',#365,POSITIVE_LENGTH_MEASURE(1.0E-006),#366);
#245=CIRCLE('',#367,3.175);
#246=CURVE_STYLE('',#368,POSITIVE_LENGTH_MEASURE(1.0E-006),#369);
#247=LINE('',#370,#371);
#248=CURVE_STYLE('',#372,POSITIVE_LENGTH_MEASURE(1.0E-006),#373);
#249=CIRCLE('',#374,3.1115);
#250=POINT_STYLE(' ',#375,POSITIVE_LENGTH_MEASURE(1.0E-006),#376);
#251=CARTESIAN_POINT('',(0.0,2.94579194313172,0.0));
#252=CURVE_STYLE('',#377,POSITIVE_LENGTH_MEASURE(1.0E-006),#378);
#253=LINE('',#379,#380);
#254=CURVE_STYLE('',#381,POSITIVE_LENGTH_MEASURE(1.0E-006),#382);
#255=LINE('',#383,#384);
#256=CURVE_STYLE('',#385,POSITIVE_LENGTH_MEASURE(1.0E-006),#386);
#257=CIRCLE('',#387,2.94579194313172);
#258=CURVE_STYLE('',#388,POSITIVE_LENGTH_MEASURE(1.0E-006),#389);
#259=CIRCLE('',#390,3.175);
#260=SURFACE_STYLE_USAGE(.BOTH.,#391);
#261=CLOSED_SHELL('',(#152,#118,#104,#106,#114,#102,#108,#80,#96,#72,#120));
#262=POINT_STYLE(' ',#392,POSITIVE_LENGTH_MEASURE(1.0E-006),#393);
#263=CARTESIAN_POINT('',(3.81036266991833E-016,-3.1115,-75.700466668634));
#264=CURVE_STYLE('',#394,POSITIVE_LENGTH_MEASURE(1.0E-006),#395);
#265=LINE('',#396,#397);
#266=SURFACE_STYLE_USAGE(.BOTH.,#398);
#267=FACE_OUTER_BOUND('',#399,.T.);
#268=CYLINDRICAL_SURFACE('',#400,3.175);
#269=CURVE_STYLE('',#401,POSITIVE_LENGTH_MEASURE(1.0E-006),#402);
#270=CIRCLE('',#403,3.1115);
#271=PRODUCT_CONTEXT('',#54,'mechanical');
#272=PRODUCT_DEFINITION_FORMATION_WITH_SPECIFIED_SOURCE(' ','NONE',#155,.NOT_KNOWN.);
#273=CARTESIAN_POINT('',(0.0,0.0,0.0));
#274=DIRECTION('',(0.0,0.0,1.0));
#275=DIRECTION('',(1.0,0.0,0.0));
#276= (NAMED_UNIT(#163)LENGTH_UNIT()SI_UNIT(.MILLI.,.METRE.));
#277=DRAUGHTING_PRE_DEFINED_CURVE_FONT('continuous');
#278=COLOUR_RGB('',0.498039215803146,0.498039215803146,0.498039215803146);
#279=AXIS2_PLACEMENT_3D('',#405,#406,#407);
#280=PRE_DEFINED_MARKER('');
#281=COLOUR_RGB('',0.498039215803146,0.498039215803146,0.498039215803146);
#282=SURFACE_SIDE_STYLE('',(#408));
#283=EDGE_LOOP('',(#409,#410,#411,#412));
#284=AXIS2_PLACEMENT_3D('',#413,#414,#415);
#285=PRE_DEFINED_MARKER('');
#286=COLOUR_RGB('',0.498039215803146,0.498039215803146,0.498039215803146);
#287=DRAUGHTING_PRE_DEFINED_CURVE_FONT('continuous');
#288=COLOUR_RGB('',0.498039215803146,0.498039215803146,0.498039215803146);
#289=AXIS2_PLACEMENT_3D('',#416,#417,#418);
#290=DRAUGHTING_PRE_DEFINED_CURVE_FONT('continuous');
#291=COLOUR_RGB('',0.800000011920929,0.800000011920929,0.800000011920929);
#292=CARTESIAN_POINT('',(3.28058748474741E-016,-2.678891445,-75.950233334317));
#293=VECTOR('',#419,1.0);
#294=SURFACE_SIDE_STYLE('',(#420));
#295=EDGE_LOOP('',(#421,#422));
#296=AXIS2_PLACEMENT_3D('',#423,#424,#425);
#297=DRAUGHTING_PRE_DEFINED_CURVE_FONT('continuous');
#298=COLOUR_RGB('',0.498039215803146,0.498039215803146,0.498039215803146);
#299=AXIS2_PLACEMENT_3D('',#426,#427,#428);
#300=DRAUGHTING_PRE_DEFINED_CURVE_FONT('continuous');
#301=COLOUR_RGB('',0.498039215803146,0.498039215803146,0.498039215803146);
#302=CARTESIAN_POINT('',(3.74778035199196E-016,-3.06039597156586,-0.198499999999996));
#303=VECTOR('',#429,1.0);
#304=PRE_DEFINED_MARKER('');
#305=COLOUR_RGB('',0.498039215803146,0.498039215803146,0.498039215803146);
#306=PRE_DEFINED_MARKER('');
#307=COLOUR_RGB('',0.498039215803146,0.498039215803146,0.498039215803146);
#308=DRAUGHTING_PRE_DEFINED_CURVE_FONT('continuous');
#309=COLOUR_RGB('',0.800000011920929,0.800000011920929,0.800000011920929);
#310=AXIS2_PLACEMENT_3D('',#430,#431,#432);
#311=PRE_DEFINED_MARKER('');
#312=COLOUR_RGB('',0.800000011920929,0.800000011920929,0.800000011920929);
#313=PRE_DEFINED_MARKER('');
#314=COLOUR_RGB('',0.498039215803146,0.498039215803146,0.498039215803146);
#315=SURFACE_SIDE_STYLE('',(#433));
#316=EDGE_LOOP('',(#434,#435,#436,#437));
#317=AXIS2_PLACEMENT_3D('',#438,#439,#440);
#318=PRE_DEFINED_MARKER('');
#319=COLOUR_RGB('',0.498039215803146,0.498039215803146,0.498039215803146);
#320=DRAUGHTING_PRE_DEFINED_CURVE_FONT('continuous');
#321=COLOUR_RGB('',0.498039215803146,0.498039215803146,0.498039215803146);
#322=AXIS2_PLACEMENT_3D('',#441,#442,#443);
#323=SURFACE_SIDE_STYLE('',(#444));
#324=EDGE_LOOP('',(#445,#446,#447,#448));
#325=AXIS2_PLACEMENT_3D('',#449,#450,#451);
#326=SURFACE_SIDE_STYLE('',(#452));
#327=EDGE_LOOP('',(#453,#454,#455,#456));
#328=AXIS2_PLACEMENT_3D('',#457,#458,#459);
#329=SURFACE_SIDE_STYLE('',(#460));
#330=EDGE_LOOP('',(#461,#462,#463,#464));
#331=AXIS2_PLACEMENT_3D('',#465,#466,#467);
#332=SURFACE_SIDE_STYLE('',(#468));
#333=EDGE_LOOP('',(#469,#470));
#334=EDGE_LOOP('',(#471,#472));
#335=AXIS2_PLACEMENT_3D('',#473,#474,#475);
#336=DRAUGHTING_PRE_DEFINED_CURVE_FONT('continuous');
#337=COLOUR_RGB('',0.498039215803146,0.498039215803146,0.498039215803146);
#338=AXIS2_PLACEMENT_3D('',#476,#477,#478);
#339=PRE_DEFINED_MARKER('');
#340=COLOUR_RGB('',0.498039215803146,0.498039215803146,0.498039215803146);
#341=SURFACE_SIDE_STYLE('',(#479));
#342=EDGE_LOOP('',(#480,#481,#482,#483));
#343=AXIS2_PLACEMENT_3D('',#484,#485,#486);
#344=DRAUGHTING_PRE_DEFINED_CURVE_FONT('continuous');
#345=COLOUR_RGB('',0.498039215803146,0.498039215803146,0.498039215803146);
#346=CARTESIAN_POINT('',(-3.74778035199196E-016,3.06039597156586,-0.198499999999996));
#347=VECTOR('',#487,1.0);
#348=SURFACE_SIDE_STYLE('',(#488));
#349=EDGE_LOOP('',(#489,#490,#491,#492));
#350=AXIS2_PLACEMENT_3D('',#493,#494,#495);
#351=SURFACE_SIDE_STYLE('',(#496));
#352=EDGE_LOOP('',(#497,#498));
#353=AXIS2_PLACEMENT_3D('',#499,#500,#501);
#354=PRE_DEFINED_MARKER('');
#355=COLOUR_RGB('',0.498039215803146,0.498039215803146,0.498039215803146);
#356=DRAUGHTING_PRE_DEFINED_CURVE_FONT('continuous');
#357=COLOUR_RGB('',0.800000011920929,0.800000011920929,0.800000011920929);
#358=CARTESIAN_POINT('',(-3.81036266991833E-016,3.1115,-66.800233334317));
#359=VECTOR('',#502,1.0);
#360=DRAUGHTING_PRE_DEFINED_CURVE_FONT('continuous');
#361=COLOUR_RGB('',0.498039215803146,0.498039215803146,0.498039215803146);
#362=AXIS2_PLACEMENT_3D('',#503,#504,#505);
#363=PRE_DEFINED_MARKER('');
#364=COLOUR_RGB('',0.498039215803146,0.498039215803146,0.498039215803146);
#365=DRAUGHTING_PRE_DEFINED_CURVE_FONT('continuous');
#366=COLOUR_RGB('',0.498039215803146,0.498039215803146,0.498039215803146);
#367=AXIS2_PLACEMENT_3D('',#506,#507,#508);
#368=DRAUGHTING_PRE_DEFINED_CURVE_FONT('continuous');
#369=COLOUR_RGB('',0.498039215803146,0.498039215803146,0.498039215803146);
#370=CARTESIAN_POINT('',(-3.88812517338605E-016,3.175,-24.2485));
#371=VECTOR('',#509,1.0);
#372=DRAUGHTING_PRE_DEFINED_CURVE_FONT('continuous');
#373=COLOUR_RGB('',0.498039215803146,0.498039215803146,0.498039215803146);
#374=AXIS2_PLACEMENT_3D('',#510,#511,#512);
#375=PRE_DEFINED_MARKER('');
#376=COLOUR_RGB('',0.498039215803146,0.498039215803146,0.498039215803146);
#377=DRAUGHTING_PRE_DEFINED_CURVE_FONT('continuous');
#378=COLOUR_RGB('',0.800000011920929,0.800000011920929,0.800000011920929);
#379=CARTESIAN_POINT('',(3.81036266991833E-016,-3.1115,-66.800233334317));
#380=VECTOR('',#513,1.0);
#381=DRAUGHTING_PRE_DEFINED_CURVE_FONT('continuous');
#382=COLOUR_RGB('',0.498039215803146,0.498039215803146,0.498039215803146);
#383=CARTESIAN_POINT('',(3.88812517338605E-016,-3.175,-24.2485));
#384=VECTOR('',#514,1.0);
#385=DRAUGHTING_PRE_DEFINED_CURVE_FONT('continuous');
#386=COLOUR_RGB('',0.498039215803146,0.498039215803146,0.498039215803146);
#387=AXIS2_PLACEMENT_3D('',#515,#516,#517);
#388=DRAUGHTING_PRE_DEFINED_CURVE_FONT('continuous');
#389=COLOUR_RGB('',0.498039215803146,0.498039215803146,0.498039215803146);
#390=AXIS2_PLACEMENT_3D('',#518,#519,#520);
#391=SURFACE_SIDE_STYLE('',(#521));
#392=PRE_DEFINED_MARKER('');
#393=COLOUR_RGB('',0.800000011920929,0.800000011920929,0.800000011920929);
#394=DRAUGHTING_PRE_DEFINED_CURVE_FONT('continuous');
#395=COLOUR_RGB('',0.800000011920929,0.800000011920929,0.800000011920929);
#396=CARTESIAN_POINT('',(-3.28058748474741E-016,2.678891445,-75.950233334317));
#397=VECTOR('',#522,1.0);
#398=SURFACE_SIDE_STYLE('',(#523));
#399=EDGE_LOOP('',(#524,#525,#526,#527));
#400=AXIS2_PLACEMENT_3D('',#528,#529,#530);
#401=DRAUGHTING_PRE_DEFINED_CURVE_FONT('continuous');
#402=COLOUR_RGB('',0.800000011920929,0.800000011920929,0.800000011920929);
#403=AXIS2_PLACEMENT_3D('',#531,#532,#533);
#405=CARTESIAN_POINT('',(0.0,0.0,-76.2));
#406=DIRECTION('',(0.0,0.0,-1.0));
#407=DIRECTION('',(0.0,1.0,0.0));
#408=SURFACE_STYLE_FILL_AREA(#534);
#409=ORIENTED_EDGE('',*,*,#132,.T.);
#410=ORIENTED_EDGE('',*,*,#144,.F.);
#411=ORIENTED_EDGE('',*,*,#140,.T.);
#412=ORIENTED_EDGE('',*,*,#76,.T.);
#413=CARTESIAN_POINT('',(0.0,0.0,-24.2485));
#414=DIRECTION('',(-0.0,-0.0,1.0));
#415=DIRECTION('',(0.0,1.0,0.0));
#416=CARTESIAN_POINT('',(0.0,0.0,-0.396999999999998));
#417=DIRECTION('',(0.0,0.0,-1.0));
#418=DIRECTION('',(0.0,1.0,0.0));
#419=DIRECTION('',(1.06054021204601E-016,-0.866025403784438,0.5));
#420=SURFACE_STYLE_FILL_AREA(#535);
#421=ORIENTED_EDGE('',*,*,#142,.F.);
#422=ORIENTED_EDGE('',*,*,#82,.F.);
#423=CARTESIAN_POINT('',(0.0,1.47289597156586,0.0));
#424=DIRECTION('',(-0.0,0.0,1.0));
#425=DIRECTION('',(0.0,-1.0,0.0));
#426=CARTESIAN_POINT('',(0.0,0.0,0.0));
#427=DIRECTION('',(0.0,0.0,-1.0));
#428=DIRECTION('',(0.0,1.0,0.0));
#429=DIRECTION('',(-6.12303176911191E-017,0.500000000000002,0.866025403784438));
#430=CARTESIAN_POINT('',(0.0,0.0,-75.700466668634));
#431=DIRECTION('',(0.0,0.0,-1.0));
#432=DIRECTION('',(0.0,1.0,0.0));
#433=SURFACE_STYLE_FILL_AREA(#536);
#434=ORIENTED_EDGE('',*,*,#116,.T.);
#435=ORIENTED_EDGE('',*,*,#76,.F.);
#436=ORIENTED_EDGE('',*,*,#84,.T.);
#437=ORIENTED_EDGE('',*,*,#82,.T.);
#438=CARTESIAN_POINT('',(0.0,0.0,-0.198499999999996));
#439=DIRECTION('',(0.0,-0.0,-1.0));
#440=DIRECTION('',(0.0,1.0,0.0));
#441=CARTESIAN_POINT('',(0.0,0.0,-57.9));
#442=DIRECTION('',(0.0,-0.0,1.0));
#443=DIRECTION('',(0.0,1.0,0.0));
#444=SURFACE_STYLE_FILL_AREA(#537);
#445=ORIENTED_EDGE('',*,*,#150,.T.);
#446=ORIENTED_EDGE('',*,*,#68,.F.);
#447=ORIENTED_EDGE('',*,*,#78,.T.);
#448=ORIENTED_EDGE('',*,*,#154,.T.);
#449=CARTESIAN_POINT('',(0.0,0.0,-75.950233334317));
#450=DIRECTION('',(-0.0,-0.0,1.0));
#451=DIRECTION('',(0.0,1.0,0.0));
#452=SURFACE_STYLE_FILL_AREA(#538);
#453=ORIENTED_EDGE('',*,*,#150,.F.);
#454=ORIENTED_EDGE('',*,*,#90,.T.);
#455=ORIENTED_EDGE('',*,*,#78,.F.);
#456=ORIENTED_EDGE('',*,*,#110,.F.);
#457=CARTESIAN_POINT('',(0.0,0.0,-75.950233334317));
#458=DIRECTION('',(-0.0,-0.0,1.0));
#459=DIRECTION('',(0.0,1.0,0.0));
#460=SURFACE_STYLE_FILL_AREA(#539);
#461=ORIENTED_EDGE('',*,*,#124,.F.);
#462=ORIENTED_EDGE('',*,*,#100,.F.);
#463=ORIENTED_EDGE('',*,*,#138,.F.);
#464=ORIENTED_EDGE('',*,*,#90,.F.);
#465=CARTESIAN_POINT('',(0.0,0.0,-66.800233334317));
#466=DIRECTION('',(-0.0,-0.0,1.0));
#467=DIRECTION('',(0.0,1.0,0.0));
#468=SURFACE_STYLE_FILL_AREA(#540);
#469=ORIENTED_EDGE('',*,*,#134,.T.);
#470=ORIENTED_EDGE('',*,*,#100,.T.);
#471=ORIENTED_EDGE('',*,*,#144,.T.);
#472=ORIENTED_EDGE('',*,*,#130,.T.);
#473=CARTESIAN_POINT('',(0.0,0.0,-57.9));
#474=DIRECTION('',(0.0,0.0,-1.0));
#475=DIRECTION('',(0.0,-1.0,0.0));
#476=CARTESIAN_POINT('',(0.0,0.0,-76.2));
#477=DIRECTION('',(0.0,0.0,-1.0));
#478=DIRECTION('',(0.0,1.0,0.0));
#479=SURFACE_STYLE_FILL_AREA(#541);
#480=ORIENTED_EDGE('',*,*,#124,.T.);
#481=ORIENTED_EDGE('',*,*,#154,.F.);
#482=ORIENTED_EDGE('',*,*,#138,.T.);
#483=ORIENTED_EDGE('',*,*,#134,.F.);
#484=CARTESIAN_POINT('',(0.0,0.0,-66.800233334317));
#485=DIRECTION('',(-0.0,-0.0,1.0));
#486=DIRECTION('',(0.0,1.0,0.0));
#487=DIRECTION('',(-6.12303176911191E-017,0.500000000000002,-0.866025403784438));
#488=SURFACE_STYLE_FILL_AREA(#542);
#489=ORIENTED_EDGE('',*,*,#116,.F.);
#490=ORIENTED_EDGE('',*,*,#142,.T.);
#491=ORIENTED_EDGE('',*,*,#84,.F.);
#492=ORIENTED_EDGE('',*,*,#126,.F.);
#493=CARTESIAN_POINT('',(0.0,0.0,-0.198499999999996));
#494=DIRECTION('',(0.0,-0.0,-1.0));
#495=DIRECTION('',(0.0,1.0,0.0));
#496=SURFACE_STYLE_FILL_AREA(#543);
#497=ORIENTED_EDGE('',*,*,#110,.T.);
#498=ORIENTED_EDGE('',*,*,#68,.T.);
#499=CARTESIAN_POINT('',(0.0,1.123141445,-76.2));
#500=DIRECTION('',(0.0,0.0,-1.0));
#501=DIRECTION('',(0.0,1.0,0.0));
#502=DIRECTION('',(0.0,0.0,-1.0));
#503=CARTESIAN_POINT('',(0.0,0.0,-0.396999999999998));
#504=DIRECTION('',(0.0,0.0,-1.0));
#505=DIRECTION('',(0.0,1.0,0.0));
#506=CARTESIAN_POINT('',(0.0,0.0,-57.9));
#507=DIRECTION('',(0.0,0.0,-1.0));
#508=DIRECTION('',(0.0,-1.0,0.0));
#509=DIRECTION('',(0.0,0.0,-1.0));
#510=CARTESIAN_POINT('',(0.0,0.0,-57.9));
#511=DIRECTION('',(0.0,-0.0,1.0));
#512=DIRECTION('',(0.0,1.0,0.0));
#513=DIRECTION('',(-0.0,-0.0,1.0));
#514=DIRECTION('',(-0.0,-0.0,1.0));
#515=CARTESIAN_POINT('',(0.0,0.0,0.0));
#516=DIRECTION('',(0.0,0.0,-1.0));
#517=DIRECTION('',(0.0,1.0,0.0));
#518=CARTESIAN_POINT('',(0.0,0.0,-57.9));
#519=DIRECTION('',(0.0,0.0,-1.0));
#520=DIRECTION('',(0.0,-1.0,0.0));
#521=SURFACE_STYLE_FILL_AREA(#544);
#522=DIRECTION('',(1.06054021204601E-016,-0.866025403784438,-0.5));
#523=SURFACE_STYLE_FILL_AREA(#545);
#524=ORIENTED_EDGE('',*,*,#132,.F.);
#525=ORIENTED_EDGE('',*,*,#126,.T.);
#526=ORIENTED_EDGE('',*,*,#140,.F.);
#527=ORIENTED_EDGE('',*,*,#130,.F.);
#528=CARTESIAN_POINT('',(0.0,0.0,-24.2485));
#529=DIRECTION('',(-0.0,-0.0,1.0));
#530=DIRECTION('',(0.0,1.0,0.0));
#531=CARTESIAN_POINT('',(0.0,0.0,-75.700466668634));
#532=DIRECTION('',(0.0,0.0,-1.0));
#533=DIRECTION('',(0.0,1.0,0.0));
#534=FILL_AREA_STYLE('',(#546));
#535=FILL_AREA_STYLE('',(#547));
#536=FILL_AREA_STYLE('',(#548));
#537=FILL_AREA_STYLE('',(#549));
#538=FILL_AREA_STYLE('',(#550));
#539=FILL_AREA_STYLE('',(#551));
#540=FILL_AREA_STYLE('',(#552));
#541=FILL_AREA_STYLE('',(#553));
#542=FILL_AREA_STYLE('',(#554));
#543=FILL_AREA_STYLE('',(#555));
#544=FILL_AREA_STYLE('',(#556));
#545=FILL_AREA_STYLE('',(#557));
#546=FILL_AREA_STYLE_COLOUR('',#558);
#547=FILL_AREA_STYLE_COLOUR('',#559);
#548=FILL_AREA_STYLE_COLOUR('',#560);
#549=FILL_AREA_STYLE_COLOUR('',#561);
#550=FILL_AREA_STYLE_COLOUR('',#562);
#551=FILL_AREA_STYLE_COLOUR('',#563);
#552=FILL_AREA_STYLE_COLOUR('',#564);
#553=FILL_AREA_STYLE_COLOUR('',#565);
#554=FILL_AREA_STYLE_COLOUR('',#566);
#555=FILL_AREA_STYLE_COLOUR('',#567);
#556=FILL_AREA_STYLE_COLOUR('',#568);
#557=FILL_AREA_STYLE_COLOUR('',#569);
#558=COLOUR_RGB('',0.498039215803146,0.498039215803146,0.498039215803146);
#559=COLOUR_RGB('',0.498039215803146,0.498039215803146,0.498039215803146);
#560=COLOUR_RGB('',0.498039215803146,0.498039215803146,0.498039215803146);
#561=COLOUR_RGB('',0.800000011920929,0.800000011920929,0.800000011920929);
#562=COLOUR_RGB('',0.800000011920929,0.800000011920929,0.800000011920929);
#563=COLOUR_RGB('',0.800000011920929,0.800000011920929,0.800000011920929);
#564=COLOUR_RGB('',0.498039215803146,0.498039215803146,0.498039215803146);
#565=COLOUR_RGB('',0.800000011920929,0.800000011920929,0.800000011920929);
#566=COLOUR_RGB('',0.498039215803146,0.498039215803146,0.498039215803146);
#567=COLOUR_RGB('',0.498039215803146,0.498039215803146,0.498039215803146);
#568=COLOUR_RGB('',0.498039215803146,0.498039215803146,0.498039215803146);
#569=COLOUR_RGB('',0.498039215803146,0.498039215803146,0.498039215803146);
#570=AXIS2_PLACEMENT_3D('PCS',#571,#572,#573);
#571=CARTESIAN_POINT('',(0.0,0.0,0.0));
#572=DIRECTION('',(0.0,0.0,1.0));
#573=DIRECTION('',(1.0,0.0,0.0));
#574=AXIS2_PLACEMENT_3D('CIP',#575,#576,#577);
#575=CARTESIAN_POINT('',(0.0,0.0,-76.2));
#576=DIRECTION('',(0.0,0.0,1.0));
#577=DIRECTION('',(1.0,0.0,0.0));
#578=AXIS2_PLACEMENT_3D('CRP',#579,#580,#581);
#579=CARTESIAN_POINT('',(-3.1115,0.0,-76.2));
#580=DIRECTION('',(0.0,0.0,1.0));
#581=DIRECTION('',(1.0,0.0,0.0));
#582=AXIS2_PLACEMENT_3D('MCS',#583,#584,#585);
#583=CARTESIAN_POINT('',(0.0,0.0,-48.1));
#584=DIRECTION('',(0.0,0.0,1.0));
#585=DIRECTION('',(1.0,0.0,0.0));
#586=CONSTRUCTIVE_GEOMETRY_REPRESENTATION_RELATIONSHIP('coordinate systems',$,#58,#587);
#587=CONSTRUCTIVE_GEOMETRY_REPRESENTATION('coordinate systems',(#570,#574,#578,#582),#6);
ENDSEC;
END-ISO-10303-21;
