ISO-10303-21;
HEADER;
FILE_DESCRIPTION(('no description'),'unknown implementation level');
FILE_NAME('solidITFamKPx65u1Ps3SuIIz_oJmyJU_1.STP','  ',('CIMSOURCE GmbH'),('CADClick - KiM GmbH - www.kimweb.de'),'unknown preprocess','ACIS','unknown authorization');
FILE_SCHEMA(('automotive_design'));
ENDSEC;
DATA;
#1=MECHANICAL_DESIGN_GEOMETRIC_PRESENTATION_REPRESENTATION(' ',(#10,#11,#12,#13,#14,#15,#16,#17,#18,#19,#20,#21,#22,#23,#24,#25,#26,#27,#28,#29,#30,#31,#32,#33,#34,#35,#36,#37,#38,#39,#40,#41,#42,#43,#44,#45,#46,#47,#48,#49,#50,#51,#52,#53),#6);
#2=PRODUCT_DEFINITION_CONTEXT('',#54,'design');
#3=APPLICATION_PROTOCOL_DEFINITION('INTERNATIONAL STANDARD','automotive_design',1994,#54);
#4=PRODUCT_CATEGORY_RELATIONSHIP('NONE','NONE',#55,#56);
#5=SHAPE_DEFINITION_REPRESENTATION(#57,#58);
#6= (GEOMETRIC_REPRESENTATION_CONTEXT(3)GLOBAL_UNCERTAINTY_ASSIGNED_CONTEXT((#61))GLOBAL_UNIT_ASSIGNED_CONTEXT((#63,#64,#65))REPRESENTATION_CONTEXT('NONE','WORKSPACE'));
#10=STYLED_ITEM('',(#67),#68);
#11=STYLED_ITEM('',(#69),#70);
#12=STYLED_ITEM('',(#71),#72);
#13=STYLED_ITEM('',(#73),#74);
#14=STYLED_ITEM('',(#75),#76);
#15=STYLED_ITEM('',(#77),#78);
#16=STYLED_ITEM('',(#79),#80);
#17=STYLED_ITEM('',(#81),#82);
#18=STYLED_ITEM('',(#83),#84);
#19=STYLED_ITEM('',(#85),#86);
#20=STYLED_ITEM('',(#87),#88);
#21=STYLED_ITEM('',(#89),#90);
#22=STYLED_ITEM('',(#91),#92);
#23=STYLED_ITEM('',(#93),#94);
#24=STYLED_ITEM('',(#95),#96);
#25=STYLED_ITEM('',(#97),#98);
#26=STYLED_ITEM('',(#99),#100);
#27=STYLED_ITEM('',(#101),#102);
#28=STYLED_ITEM('',(#103),#104);
#29=STYLED_ITEM('',(#105),#106);
#30=STYLED_ITEM('',(#107),#108);
#31=STYLED_ITEM('',(#109),#110);
#32=STYLED_ITEM('',(#111),#112);
#33=STYLED_ITEM('',(#113),#114);
#34=STYLED_ITEM('',(#115),#116);
#35=STYLED_ITEM('',(#117),#118);
#36=STYLED_ITEM('',(#119),#120);
#37=STYLED_ITEM('',(#121),#122);
#38=STYLED_ITEM('',(#123),#124);
#39=STYLED_ITEM('',(#125),#126);
#40=STYLED_ITEM('',(#127),#128);
#41=STYLED_ITEM('',(#129),#130);
#42=STYLED_ITEM('',(#131),#132);
#43=STYLED_ITEM('',(#133),#134);
#44=STYLED_ITEM('',(#135),#136);
#45=STYLED_ITEM('',(#137),#138);
#46=STYLED_ITEM('',(#139),#140);
#47=STYLED_ITEM('',(#141),#142);
#48=STYLED_ITEM('',(#143),#144);
#49=STYLED_ITEM('',(#145),#146);
#50=STYLED_ITEM('',(#147),#148);
#51=STYLED_ITEM('',(#149),#150);
#52=STYLED_ITEM('',(#151),#152);
#53=STYLED_ITEM('',(#153),#154);
#54=APPLICATION_CONTEXT(' ');
#55=PRODUCT_CATEGORY('part','NONE');
#56=PRODUCT_RELATED_PRODUCT_CATEGORY('detail',' ',(#155));
#57=PRODUCT_DEFINITION_SHAPE('NONE','NONE',#156);
#58=ADVANCED_BREP_SHAPE_REPRESENTATION('1',(#106,#157),#6);
#61=UNCERTAINTY_MEASURE_WITH_UNIT(LENGTH_MEASURE(1.0E-006),#63,'','');
#63= (CONVERSION_BASED_UNIT('MILLIMETRE',#160)LENGTH_UNIT()NAMED_UNIT(#163));
#64= (NAMED_UNIT(#165)PLANE_ANGLE_UNIT()SI_UNIT($,.RADIAN.));
#65= (NAMED_UNIT(#165)SOLID_ANGLE_UNIT()SI_UNIT($,.STERADIAN.));
#67=PRESENTATION_STYLE_ASSIGNMENT((#171));
#68=EDGE_CURVE('',#140,#120,#172,.T.);
#69=PRESENTATION_STYLE_ASSIGNMENT((#173));
#70=EDGE_CURVE('',#152,#104,#174,.T.);
#71=PRESENTATION_STYLE_ASSIGNMENT((#175));
#72=EDGE_CURVE('',#90,#110,#176,.T.);
#73=PRESENTATION_STYLE_ASSIGNMENT((#177));
#74=EDGE_CURVE('',#130,#120,#178,.T.);
#75=PRESENTATION_STYLE_ASSIGNMENT((#179));
#76=EDGE_CURVE('',#140,#100,#180,.T.);
#77=PRESENTATION_STYLE_ASSIGNMENT((#181));
#78=ADVANCED_FACE('',(#182),#183,.T.);
#79=PRESENTATION_STYLE_ASSIGNMENT((#184));
#80=ADVANCED_FACE('',(#185),#186,.T.);
#81=PRESENTATION_STYLE_ASSIGNMENT((#187));
#82=EDGE_CURVE('',#86,#90,#188,.T.);
#83=PRESENTATION_STYLE_ASSIGNMENT((#189));
#84=EDGE_CURVE('',#130,#100,#190,.T.);
#85=PRESENTATION_STYLE_ASSIGNMENT((#191));
#86=VERTEX_POINT('',#192);
#87=PRESENTATION_STYLE_ASSIGNMENT((#193));
#88=ADVANCED_FACE('',(#194),#195,.T.);
#89=PRESENTATION_STYLE_ASSIGNMENT((#196));
#90=VERTEX_POINT('',#197);
#91=PRESENTATION_STYLE_ASSIGNMENT((#198));
#92=EDGE_CURVE('',#110,#90,#199,.T.);
#93=PRESENTATION_STYLE_ASSIGNMENT((#200));
#94=ADVANCED_FACE('',(#201),#202,.T.);
#95=PRESENTATION_STYLE_ASSIGNMENT((#203));
#96=EDGE_CURVE('',#120,#128,#204,.T.);
#97=PRESENTATION_STYLE_ASSIGNMENT((#205));
#98=EDGE_CURVE('',#136,#86,#206,.T.);
#99=PRESENTATION_STYLE_ASSIGNMENT((#207));
#100=VERTEX_POINT('',#208);
#101=PRESENTATION_STYLE_ASSIGNMENT((#209));
#102=EDGE_CURVE('',#134,#128,#210,.T.);
#103=PRESENTATION_STYLE_ASSIGNMENT((#211));
#104=VERTEX_POINT('',#212);
#105=PRESENTATION_STYLE_ASSIGNMENT((#213));
#106=MANIFOLD_SOLID_BREP('1',#214);
#107=PRESENTATION_STYLE_ASSIGNMENT((#215));
#108=EDGE_CURVE('',#134,#140,#216,.T.);
#109=PRESENTATION_STYLE_ASSIGNMENT((#217));
#110=VERTEX_POINT('',#218);
#111=PRESENTATION_STYLE_ASSIGNMENT((#219));
#112=ADVANCED_FACE('',(#220),#221,.T.);
#113=PRESENTATION_STYLE_ASSIGNMENT((#222));
#114=EDGE_CURVE('',#128,#134,#223,.T.);
#115=PRESENTATION_STYLE_ASSIGNMENT((#224));
#116=ADVANCED_FACE('',(#225),#226,.T.);
#117=PRESENTATION_STYLE_ASSIGNMENT((#227));
#118=EDGE_CURVE('',#152,#86,#228,.T.);
#119=PRESENTATION_STYLE_ASSIGNMENT((#229));
#120=VERTEX_POINT('',#230);
#121=PRESENTATION_STYLE_ASSIGNMENT((#231));
#122=EDGE_CURVE('',#86,#136,#232,.T.);
#123=PRESENTATION_STYLE_ASSIGNMENT((#233));
#124=ADVANCED_FACE('',(#234,#235),#236,.T.);
#125=PRESENTATION_STYLE_ASSIGNMENT((#237));
#126=EDGE_CURVE('',#110,#136,#238,.T.);
#127=PRESENTATION_STYLE_ASSIGNMENT((#239));
#128=VERTEX_POINT('',#240);
#129=PRESENTATION_STYLE_ASSIGNMENT((#241));
#130=VERTEX_POINT('',#242);
#131=PRESENTATION_STYLE_ASSIGNMENT((#243));
#132=ADVANCED_FACE('',(#244),#245,.T.);
#133=PRESENTATION_STYLE_ASSIGNMENT((#246));
#134=VERTEX_POINT('',#247);
#135=PRESENTATION_STYLE_ASSIGNMENT((#248));
#136=VERTEX_POINT('',#249);
#137=PRESENTATION_STYLE_ASSIGNMENT((#250));
#138=ADVANCED_FACE('',(#251),#252,.T.);
#139=PRESENTATION_STYLE_ASSIGNMENT((#253));
#140=VERTEX_POINT('',#254);
#141=PRESENTATION_STYLE_ASSIGNMENT((#255));
#142=EDGE_CURVE('',#120,#140,#256,.T.);
#143=PRESENTATION_STYLE_ASSIGNMENT((#257));
#144=EDGE_CURVE('',#104,#152,#258,.T.);
#145=PRESENTATION_STYLE_ASSIGNMENT((#259));
#146=ADVANCED_FACE('',(#260),#261,.T.);
#147=PRESENTATION_STYLE_ASSIGNMENT((#262));
#148=ADVANCED_FACE('',(#263),#264,.T.);
#149=PRESENTATION_STYLE_ASSIGNMENT((#265));
#150=EDGE_CURVE('',#136,#104,#266,.T.);
#151=PRESENTATION_STYLE_ASSIGNMENT((#267));
#152=VERTEX_POINT('',#268);
#153=PRESENTATION_STYLE_ASSIGNMENT((#269));
#154=EDGE_CURVE('',#100,#130,#270,.T.);
#155=PRODUCT('1','1','PART-1-DESC',(#271));
#156=PRODUCT_DEFINITION('NONE','NONE',#272,#2);
#157=AXIS2_PLACEMENT_3D('',#273,#274,#275);
#160=LENGTH_MEASURE_WITH_UNIT(LENGTH_MEASURE(1.0),#276);
#163=DIMENSIONAL_EXPONENTS(1.0,0.0,0.0,0.0,0.0,0.0,0.0);
#165=DIMENSIONAL_EXPONENTS(0.0,0.0,0.0,0.0,0.0,0.0,0.0);
#171=CURVE_STYLE('',#277,POSITIVE_LENGTH_MEASURE(1.0E-006),#278);
#172=CIRCLE('',#279,3.1115);
#173=CURVE_STYLE('',#280,POSITIVE_LENGTH_MEASURE(1.0E-006),#281);
#174=CIRCLE('',#282,3.175);
#175=CURVE_STYLE('',#283,POSITIVE_LENGTH_MEASURE(1.0E-006),#284);
#176=CIRCLE('',#285,2.94579194313172);
#177=CURVE_STYLE('',#286,POSITIVE_LENGTH_MEASURE(1.0E-006),#287);
#178=LINE('',#288,#289);
#179=CURVE_STYLE('',#290,POSITIVE_LENGTH_MEASURE(1.0E-006),#291);
#180=LINE('',#292,#293);
#181=SURFACE_STYLE_USAGE(.BOTH.,#294);
#182=FACE_OUTER_BOUND('',#295,.T.);
#183=CONICAL_SURFACE('',#296,2.78704358,1.0471975511966);
#184=SURFACE_STYLE_USAGE(.BOTH.,#297);
#185=FACE_OUTER_BOUND('',#298,.T.);
#186=CONICAL_SURFACE('',#299,2.78704358,1.0471975511966);
#187=CURVE_STYLE('',#300,POSITIVE_LENGTH_MEASURE(1.0E-006),#301);
#188=LINE('',#302,#303);
#189=CURVE_STYLE('',#304,POSITIVE_LENGTH_MEASURE(1.0E-006),#305);
#190=CIRCLE('',#306,3.1115);
#191=POINT_STYLE(' ',#307,POSITIVE_LENGTH_MEASURE(1.0E-006),#308);
#192=CARTESIAN_POINT('',(3.88812517338605E-016,-3.175,-0.397000000000006));
#193=SURFACE_STYLE_USAGE(.BOTH.,#309);
#194=FACE_OUTER_BOUND('',#310,.T.);
#195=PLANE('',#311);
#196=POINT_STYLE(' ',#312,POSITIVE_LENGTH_MEASURE(1.0E-006),#313);
#197=CARTESIAN_POINT('',(3.60743553059787E-016,-2.94579194313172,-7.105427357601E-015));
#198=CURVE_STYLE('',#314,POSITIVE_LENGTH_MEASURE(1.0E-006),#315);
#199=CIRCLE('',#316,2.94579194313172);
#200=SURFACE_STYLE_USAGE(.BOTH.,#317);
#201=FACE_OUTER_BOUND('',#318,.T.);
#202=CYLINDRICAL_SURFACE('',#319,3.175);
#203=CURVE_STYLE('',#320,POSITIVE_LENGTH_MEASURE(1.0E-006),#321);
#204=LINE('',#322,#323);
#205=CURVE_STYLE('',#324,POSITIVE_LENGTH_MEASURE(1.0E-006),#325);
#206=CIRCLE('',#326,3.175);
#207=POINT_STYLE(' ',#327,POSITIVE_LENGTH_MEASURE(1.0E-006),#328);
#208=CARTESIAN_POINT('',(3.81036266991833E-016,-3.1115,-57.1));
#209=CURVE_STYLE('',#329,POSITIVE_LENGTH_MEASURE(1.0E-006),#330);
#210=CIRCLE('',#331,2.46258716);
#211=POINT_STYLE(' ',#332,POSITIVE_LENGTH_MEASURE(1.0E-006),#333);
#212=CARTESIAN_POINT('',(-3.88812517338605E-016,3.175,-57.1));
#213=SURFACE_STYLE_USAGE(.BOTH.,#334);
#214=CLOSED_SHELL('',(#138,#148,#78,#116,#146,#80,#124,#132,#112,#94,#88));
#215=CURVE_STYLE('',#335,POSITIVE_LENGTH_MEASURE(1.0E-006),#336);
#216=LINE('',#337,#338);
#217=POINT_STYLE(' ',#339,POSITIVE_LENGTH_MEASURE(1.0E-006),#340);
#218=CARTESIAN_POINT('',(0.0,2.94579194313172,-7.105427357601E-015));
#219=SURFACE_STYLE_USAGE(.BOTH.,#341);
#220=FACE_OUTER_BOUND('',#342,.T.);
#221=CONICAL_SURFACE('',#343,3.06039597156586,0.523598775598301);
#222=CURVE_STYLE('',#344,POSITIVE_LENGTH_MEASURE(1.0E-006),#345);
#223=CIRCLE('',#346,2.46258716);
#224=SURFACE_STYLE_USAGE(.BOTH.,#347);
#225=FACE_OUTER_BOUND('',#348,.T.);
#226=CYLINDRICAL_SURFACE('',#349,3.1115);
#227=CURVE_STYLE('',#350,POSITIVE_LENGTH_MEASURE(1.0E-006),#351);
#228=LINE('',#352,#353);
#229=POINT_STYLE(' ',#354,POSITIVE_LENGTH_MEASURE(1.0E-006),#355);
#230=CARTESIAN_POINT('',(0.0,3.1115,-75.8253499971454));
#231=CURVE_STYLE('',#356,POSITIVE_LENGTH_MEASURE(1.0E-006),#357);
#232=CIRCLE('',#358,3.175);
#233=SURFACE_STYLE_USAGE(.BOTH.,#359);
#234=FACE_BOUND('',#360,.T.);
#235=FACE_OUTER_BOUND('',#361,.T.);
#236=PLANE('',#362);
#237=CURVE_STYLE('',#363,POSITIVE_LENGTH_MEASURE(1.0E-006),#364);
#238=LINE('',#365,#366);
#239=POINT_STYLE(' ',#367,POSITIVE_LENGTH_MEASURE(1.0E-006),#368);
#240=CARTESIAN_POINT('',(0.0,2.46258716,-76.2));
#241=POINT_STYLE(' ',#369,POSITIVE_LENGTH_MEASURE(1.0E-006),#370);
#242=CARTESIAN_POINT('',(0.0,3.1115,-57.1));
#243=SURFACE_STYLE_USAGE(.BOTH.,#371);
#244=FACE_OUTER_BOUND('',#372,.T.);
#245=PLANE('',#373);
#246=POINT_STYLE(' ',#374,POSITIVE_LENGTH_MEASURE(1.0E-006),#375);
#247=CARTESIAN_POINT('',(3.0156998829774E-016,-2.46258716,-76.2));
#248=POINT_STYLE(' ',#376,POSITIVE_LENGTH_MEASURE(1.0E-006),#377);
#249=CARTESIAN_POINT('',(0.0,3.175,-0.397000000000006));
#250=SURFACE_STYLE_USAGE(.BOTH.,#378);
#251=FACE_OUTER_BOUND('',#379,.T.);
#252=CYLINDRICAL_SURFACE('',#380,3.175);
#253=POINT_STYLE(' ',#381,POSITIVE_LENGTH_MEASURE(1.0E-006),#382);
#254=CARTESIAN_POINT('',(3.81036266991833E-016,-3.1115,-75.8253499971454));
#255=CURVE_STYLE('',#383,POSITIVE_LENGTH_MEASURE(1.0E-006),#384);
#256=CIRCLE('',#385,3.1115);
#257=CURVE_STYLE('',#386,POSITIVE_LENGTH_MEASURE(1.0E-006),#387);
#258=CIRCLE('',#388,3.175);
#259=SURFACE_STYLE_USAGE(.BOTH.,#389);
#260=FACE_OUTER_BOUND('',#390,.T.);
#261=CYLINDRICAL_SURFACE('',#391,3.1115);
#262=SURFACE_STYLE_USAGE(.BOTH.,#392);
#263=FACE_OUTER_BOUND('',#393,.T.);
#264=CONICAL_SURFACE('',#394,3.06039597156586,0.523598775598301);
#265=CURVE_STYLE('',#395,POSITIVE_LENGTH_MEASURE(1.0E-006),#396);
#266=LINE('',#397,#398);
#267=POINT_STYLE(' ',#399,POSITIVE_LENGTH_MEASURE(1.0E-006),#400);
#268=CARTESIAN_POINT('',(0.0,-3.175,-57.1));
#269=CURVE_STYLE('',#401,POSITIVE_LENGTH_MEASURE(1.0E-006),#402);
#270=CIRCLE('',#403,3.1115);
#271=PRODUCT_CONTEXT('',#54,'mechanical');
#272=PRODUCT_DEFINITION_FORMATION_WITH_SPECIFIED_SOURCE(' ','NONE',#155,.NOT_KNOWN.);
#273=CARTESIAN_POINT('',(0.0,0.0,0.0));
#274=DIRECTION('',(0.0,0.0,1.0));
#275=DIRECTION('',(1.0,0.0,0.0));
#276= (NAMED_UNIT(#163)LENGTH_UNIT()SI_UNIT(.MILLI.,.METRE.));
#277=DRAUGHTING_PRE_DEFINED_CURVE_FONT('continuous');
#278=COLOUR_RGB('',0.800000011920929,0.800000011920929,0.800000011920929);
#279=AXIS2_PLACEMENT_3D('',#405,#406,#407);
#280=DRAUGHTING_PRE_DEFINED_CURVE_FONT('continuous');
#281=COLOUR_RGB('',0.498039215803146,0.498039215803146,0.498039215803146);
#282=AXIS2_PLACEMENT_3D('',#408,#409,#410);
#283=DRAUGHTING_PRE_DEFINED_CURVE_FONT('continuous');
#284=COLOUR_RGB('',0.498039215803146,0.498039215803146,0.498039215803146);
#285=AXIS2_PLACEMENT_3D('',#411,#412,#413);
#286=DRAUGHTING_PRE_DEFINED_CURVE_FONT('continuous');
#287=COLOUR_RGB('',0.800000011920929,0.800000011920929,0.800000011920929);
#288=CARTESIAN_POINT('',(-3.81036266991833E-016,3.1115,-66.4626749985727));
#289=VECTOR('',#414,1.0);
#290=DRAUGHTING_PRE_DEFINED_CURVE_FONT('continuous');
#291=COLOUR_RGB('',0.800000011920929,0.800000011920929,0.800000011920929);
#292=CARTESIAN_POINT('',(3.81036266991833E-016,-3.1115,-66.4626749985727));
#293=VECTOR('',#415,1.0);
#294=SURFACE_SIDE_STYLE('',(#416));
#295=EDGE_LOOP('',(#417,#418,#419,#420));
#296=AXIS2_PLACEMENT_3D('',#421,#422,#423);
#297=SURFACE_SIDE_STYLE('',(#424));
#298=EDGE_LOOP('',(#425,#426,#427,#428));
#299=AXIS2_PLACEMENT_3D('',#429,#430,#431);
#300=DRAUGHTING_PRE_DEFINED_CURVE_FONT('continuous');
#301=COLOUR_RGB('',0.498039215803146,0.498039215803146,0.498039215803146);
#302=CARTESIAN_POINT('',(3.74778035199196E-016,-3.06039597156586,-0.198500000000003));
#303=VECTOR('',#432,1.0);
#304=DRAUGHTING_PRE_DEFINED_CURVE_FONT('continuous');
#305=COLOUR_RGB('',0.498039215803146,0.498039215803146,0.498039215803146);
#306=AXIS2_PLACEMENT_3D('',#433,#434,#435);
#307=PRE_DEFINED_MARKER('');
#308=COLOUR_RGB('',0.498039215803146,0.498039215803146,0.498039215803146);
#309=SURFACE_SIDE_STYLE('',(#436));
#310=EDGE_LOOP('',(#437,#438));
#311=AXIS2_PLACEMENT_3D('',#439,#440,#441);
#312=PRE_DEFINED_MARKER('');
#313=COLOUR_RGB('',0.498039215803146,0.498039215803146,0.498039215803146);
#314=DRAUGHTING_PRE_DEFINED_CURVE_FONT('continuous');
#315=COLOUR_RGB('',0.498039215803146,0.498039215803146,0.498039215803146);
#316=AXIS2_PLACEMENT_3D('',#442,#443,#444);
#317=SURFACE_SIDE_STYLE('',(#445));
#318=EDGE_LOOP('',(#446,#447,#448,#449));
#319=AXIS2_PLACEMENT_3D('',#450,#451,#452);
#320=DRAUGHTING_PRE_DEFINED_CURVE_FONT('continuous');
#321=COLOUR_RGB('',0.800000011920929,0.800000011920929,0.800000011920929);
#322=CARTESIAN_POINT('',(-3.41303127644786E-016,2.78704358,-76.0126749985727));
#323=VECTOR('',#453,1.0);
#324=DRAUGHTING_PRE_DEFINED_CURVE_FONT('continuous');
#325=COLOUR_RGB('',0.498039215803146,0.498039215803146,0.498039215803146);
#326=AXIS2_PLACEMENT_3D('',#454,#455,#456);
#327=PRE_DEFINED_MARKER('');
#328=COLOUR_RGB('',0.498039215803146,0.498039215803146,0.498039215803146);
#329=DRAUGHTING_PRE_DEFINED_CURVE_FONT('continuous');
#330=COLOUR_RGB('',0.498039215803146,0.498039215803146,0.498039215803146);
#331=AXIS2_PLACEMENT_3D('',#457,#458,#459);
#332=PRE_DEFINED_MARKER('');
#333=COLOUR_RGB('',0.498039215803146,0.498039215803146,0.498039215803146);
#334=SURFACE_SIDE_STYLE('',(#460));
#335=DRAUGHTING_PRE_DEFINED_CURVE_FONT('continuous');
#336=COLOUR_RGB('',0.800000011920929,0.800000011920929,0.800000011920929);
#337=CARTESIAN_POINT('',(3.41303127644786E-016,-2.78704358,-76.0126749985727));
#338=VECTOR('',#461,1.0);
#339=PRE_DEFINED_MARKER('');
#340=COLOUR_RGB('',0.498039215803146,0.498039215803146,0.498039215803146);
#341=SURFACE_SIDE_STYLE('',(#462));
#342=EDGE_LOOP('',(#463,#464,#465,#466));
#343=AXIS2_PLACEMENT_3D('',#467,#468,#469);
#344=DRAUGHTING_PRE_DEFINED_CURVE_FONT('continuous');
#345=COLOUR_RGB('',0.498039215803146,0.498039215803146,0.498039215803146);
#346=AXIS2_PLACEMENT_3D('',#470,#471,#472);
#347=SURFACE_SIDE_STYLE('',(#473));
#348=EDGE_LOOP('',(#474,#475,#476,#477));
#349=AXIS2_PLACEMENT_3D('',#478,#479,#480);
#350=DRAUGHTING_PRE_DEFINED_CURVE_FONT('continuous');
#351=COLOUR_RGB('',0.498039215803146,0.498039215803146,0.498039215803146);
#352=CARTESIAN_POINT('',(3.88812517338605E-016,-3.175,-24.0985));
#353=VECTOR('',#481,1.0);
#354=PRE_DEFINED_MARKER('');
#355=COLOUR_RGB('',0.800000011920929,0.800000011920929,0.800000011920929);
#356=DRAUGHTING_PRE_DEFINED_CURVE_FONT('continuous');
#357=COLOUR_RGB('',0.498039215803146,0.498039215803146,0.498039215803146);
#358=AXIS2_PLACEMENT_3D('',#482,#483,#484);
#359=SURFACE_SIDE_STYLE('',(#485));
#360=EDGE_LOOP('',(#486,#487));
#361=EDGE_LOOP('',(#488,#489));
#362=AXIS2_PLACEMENT_3D('',#490,#491,#492);
#363=DRAUGHTING_PRE_DEFINED_CURVE_FONT('continuous');
#364=COLOUR_RGB('',0.498039215803146,0.498039215803146,0.498039215803146);
#365=CARTESIAN_POINT('',(-3.74778035199196E-016,3.06039597156586,-0.198500000000003));
#366=VECTOR('',#493,1.0);
#367=PRE_DEFINED_MARKER('');
#368=COLOUR_RGB('',0.498039215803146,0.498039215803146,0.498039215803146);
#369=PRE_DEFINED_MARKER('');
#370=COLOUR_RGB('',0.498039215803146,0.498039215803146,0.498039215803146);
#371=SURFACE_SIDE_STYLE('',(#494));
#372=EDGE_LOOP('',(#495,#496));
#373=AXIS2_PLACEMENT_3D('',#497,#498,#499);
#374=PRE_DEFINED_MARKER('');
#375=COLOUR_RGB('',0.498039215803146,0.498039215803146,0.498039215803146);
#376=PRE_DEFINED_MARKER('');
#377=COLOUR_RGB('',0.498039215803146,0.498039215803146,0.498039215803146);
#378=SURFACE_SIDE_STYLE('',(#500));
#379=EDGE_LOOP('',(#501,#502,#503,#504));
#380=AXIS2_PLACEMENT_3D('',#505,#506,#507);
#381=PRE_DEFINED_MARKER('');
#382=COLOUR_RGB('',0.800000011920929,0.800000011920929,0.800000011920929);
#383=DRAUGHTING_PRE_DEFINED_CURVE_FONT('continuous');
#384=COLOUR_RGB('',0.800000011920929,0.800000011920929,0.800000011920929);
#385=AXIS2_PLACEMENT_3D('',#508,#509,#510);
#386=DRAUGHTING_PRE_DEFINED_CURVE_FONT('continuous');
#387=COLOUR_RGB('',0.498039215803146,0.498039215803146,0.498039215803146);
#388=AXIS2_PLACEMENT_3D('',#511,#512,#513);
#389=SURFACE_SIDE_STYLE('',(#514));
#390=EDGE_LOOP('',(#515,#516,#517,#518));
#391=AXIS2_PLACEMENT_3D('',#519,#520,#521);
#392=SURFACE_SIDE_STYLE('',(#522));
#393=EDGE_LOOP('',(#523,#524,#525,#526));
#394=AXIS2_PLACEMENT_3D('',#527,#528,#529);
#395=DRAUGHTING_PRE_DEFINED_CURVE_FONT('continuous');
#396=COLOUR_RGB('',0.498039215803146,0.498039215803146,0.498039215803146);
#397=CARTESIAN_POINT('',(-3.88812517338605E-016,3.175,-24.0985));
#398=VECTOR('',#530,1.0);
#399=PRE_DEFINED_MARKER('');
#400=COLOUR_RGB('',0.498039215803146,0.498039215803146,0.498039215803146);
#401=DRAUGHTING_PRE_DEFINED_CURVE_FONT('continuous');
#402=COLOUR_RGB('',0.498039215803146,0.498039215803146,0.498039215803146);
#403=AXIS2_PLACEMENT_3D('',#531,#532,#533);
#405=CARTESIAN_POINT('',(0.0,0.0,-75.8253499971454));
#406=DIRECTION('',(0.0,0.0,-1.0));
#407=DIRECTION('',(0.0,1.0,0.0));
#408=CARTESIAN_POINT('',(0.0,0.0,-57.1));
#409=DIRECTION('',(0.0,0.0,-1.0));
#410=DIRECTION('',(0.0,-1.0,0.0));
#411=CARTESIAN_POINT('',(0.0,0.0,-7.105427357601E-015));
#412=DIRECTION('',(0.0,0.0,-1.0));
#413=DIRECTION('',(0.0,1.0,0.0));
#414=DIRECTION('',(0.0,0.0,-1.0));
#415=DIRECTION('',(-0.0,-0.0,1.0));
#416=SURFACE_STYLE_FILL_AREA(#534);
#417=ORIENTED_EDGE('',*,*,#96,.F.);
#418=ORIENTED_EDGE('',*,*,#142,.T.);
#419=ORIENTED_EDGE('',*,*,#108,.F.);
#420=ORIENTED_EDGE('',*,*,#114,.F.);
#421=CARTESIAN_POINT('',(0.0,0.0,-76.0126749985727));
#422=DIRECTION('',(-0.0,-0.0,1.0));
#423=DIRECTION('',(0.0,1.0,0.0));
#424=SURFACE_STYLE_FILL_AREA(#535);
#425=ORIENTED_EDGE('',*,*,#96,.T.);
#426=ORIENTED_EDGE('',*,*,#102,.F.);
#427=ORIENTED_EDGE('',*,*,#108,.T.);
#428=ORIENTED_EDGE('',*,*,#68,.T.);
#429=CARTESIAN_POINT('',(0.0,0.0,-76.0126749985727));
#430=DIRECTION('',(-0.0,-0.0,1.0));
#431=DIRECTION('',(0.0,1.0,0.0));
#432=DIRECTION('',(-6.12303176911191E-017,0.500000000000002,0.866025403784438));
#433=CARTESIAN_POINT('',(0.0,0.0,-57.1));
#434=DIRECTION('',(0.0,-0.0,1.0));
#435=DIRECTION('',(0.0,1.0,0.0));
#436=SURFACE_STYLE_FILL_AREA(#536);
#437=ORIENTED_EDGE('',*,*,#114,.T.);
#438=ORIENTED_EDGE('',*,*,#102,.T.);
#439=CARTESIAN_POINT('',(0.0,1.23129358,-76.2));
#440=DIRECTION('',(0.0,0.0,-1.0));
#441=DIRECTION('',(0.0,1.0,0.0));
#442=CARTESIAN_POINT('',(0.0,0.0,-7.105427357601E-015));
#443=DIRECTION('',(0.0,0.0,-1.0));
#444=DIRECTION('',(0.0,1.0,0.0));
#445=SURFACE_STYLE_FILL_AREA(#537);
#446=ORIENTED_EDGE('',*,*,#150,.T.);
#447=ORIENTED_EDGE('',*,*,#70,.F.);
#448=ORIENTED_EDGE('',*,*,#118,.T.);
#449=ORIENTED_EDGE('',*,*,#122,.T.);
#450=CARTESIAN_POINT('',(0.0,0.0,-24.0985));
#451=DIRECTION('',(-0.0,-0.0,1.0));
#452=DIRECTION('',(0.0,1.0,0.0));
#453=DIRECTION('',(1.06054021204601E-016,-0.866025403784439,-0.5));
#454=CARTESIAN_POINT('',(0.0,0.0,-0.397000000000006));
#455=DIRECTION('',(0.0,0.0,-1.0));
#456=DIRECTION('',(0.0,1.0,0.0));
#457=CARTESIAN_POINT('',(0.0,0.0,-76.2));
#458=DIRECTION('',(0.0,0.0,-1.0));
#459=DIRECTION('',(0.0,1.0,0.0));
#460=SURFACE_STYLE_FILL_AREA(#538);
#461=DIRECTION('',(1.06054021204601E-016,-0.866025403784439,0.5));
#462=SURFACE_STYLE_FILL_AREA(#539);
#463=ORIENTED_EDGE('',*,*,#126,.T.);
#464=ORIENTED_EDGE('',*,*,#122,.F.);
#465=ORIENTED_EDGE('',*,*,#82,.T.);
#466=ORIENTED_EDGE('',*,*,#72,.T.);
#467=CARTESIAN_POINT('',(0.0,0.0,-0.198500000000003));
#468=DIRECTION('',(0.0,-0.0,-1.0));
#469=DIRECTION('',(0.0,1.0,0.0));
#470=CARTESIAN_POINT('',(0.0,0.0,-76.2));
#471=DIRECTION('',(0.0,0.0,-1.0));
#472=DIRECTION('',(0.0,1.0,0.0));
#473=SURFACE_STYLE_FILL_AREA(#540);
#474=ORIENTED_EDGE('',*,*,#74,.F.);
#475=ORIENTED_EDGE('',*,*,#154,.F.);
#476=ORIENTED_EDGE('',*,*,#76,.F.);
#477=ORIENTED_EDGE('',*,*,#142,.F.);
#478=CARTESIAN_POINT('',(0.0,0.0,-66.4626749985727));
#479=DIRECTION('',(-0.0,-0.0,1.0));
#480=DIRECTION('',(0.0,1.0,0.0));
#481=DIRECTION('',(-0.0,-0.0,1.0));
#482=CARTESIAN_POINT('',(0.0,0.0,-0.397000000000006));
#483=DIRECTION('',(0.0,0.0,-1.0));
#484=DIRECTION('',(0.0,1.0,0.0));
#485=SURFACE_STYLE_FILL_AREA(#541);
#486=ORIENTED_EDGE('',*,*,#84,.T.);
#487=ORIENTED_EDGE('',*,*,#154,.T.);
#488=ORIENTED_EDGE('',*,*,#70,.T.);
#489=ORIENTED_EDGE('',*,*,#144,.T.);
#490=CARTESIAN_POINT('',(0.0,0.0,-57.1));
#491=DIRECTION('',(0.0,0.0,-1.0));
#492=DIRECTION('',(0.0,-1.0,0.0));
#493=DIRECTION('',(-6.12303176911191E-017,0.500000000000002,-0.866025403784438));
#494=SURFACE_STYLE_FILL_AREA(#542);
#495=ORIENTED_EDGE('',*,*,#92,.F.);
#496=ORIENTED_EDGE('',*,*,#72,.F.);
#497=CARTESIAN_POINT('',(0.0,1.47289597156586,-7.105427357601E-015));
#498=DIRECTION('',(-0.0,0.0,1.0));
#499=DIRECTION('',(0.0,-1.0,0.0));
#500=SURFACE_STYLE_FILL_AREA(#543);
#501=ORIENTED_EDGE('',*,*,#150,.F.);
#502=ORIENTED_EDGE('',*,*,#98,.T.);
#503=ORIENTED_EDGE('',*,*,#118,.F.);
#504=ORIENTED_EDGE('',*,*,#144,.F.);
#505=CARTESIAN_POINT('',(0.0,0.0,-24.0985));
#506=DIRECTION('',(-0.0,-0.0,1.0));
#507=DIRECTION('',(0.0,1.0,0.0));
#508=CARTESIAN_POINT('',(0.0,0.0,-75.8253499971454));
#509=DIRECTION('',(0.0,0.0,-1.0));
#510=DIRECTION('',(0.0,1.0,0.0));
#511=CARTESIAN_POINT('',(0.0,0.0,-57.1));
#512=DIRECTION('',(0.0,0.0,-1.0));
#513=DIRECTION('',(0.0,-1.0,0.0));
#514=SURFACE_STYLE_FILL_AREA(#544);
#515=ORIENTED_EDGE('',*,*,#74,.T.);
#516=ORIENTED_EDGE('',*,*,#68,.F.);
#517=ORIENTED_EDGE('',*,*,#76,.T.);
#518=ORIENTED_EDGE('',*,*,#84,.F.);
#519=CARTESIAN_POINT('',(0.0,0.0,-66.4626749985727));
#520=DIRECTION('',(-0.0,-0.0,1.0));
#521=DIRECTION('',(0.0,1.0,0.0));
#522=SURFACE_STYLE_FILL_AREA(#545);
#523=ORIENTED_EDGE('',*,*,#126,.F.);
#524=ORIENTED_EDGE('',*,*,#92,.T.);
#525=ORIENTED_EDGE('',*,*,#82,.F.);
#526=ORIENTED_EDGE('',*,*,#98,.F.);
#527=CARTESIAN_POINT('',(0.0,0.0,-0.198500000000003));
#528=DIRECTION('',(0.0,-0.0,-1.0));
#529=DIRECTION('',(0.0,1.0,0.0));
#530=DIRECTION('',(0.0,0.0,-1.0));
#531=CARTESIAN_POINT('',(0.0,0.0,-57.1));
#532=DIRECTION('',(0.0,-0.0,1.0));
#533=DIRECTION('',(0.0,1.0,0.0));
#534=FILL_AREA_STYLE('',(#546));
#535=FILL_AREA_STYLE('',(#547));
#536=FILL_AREA_STYLE('',(#548));
#537=FILL_AREA_STYLE('',(#549));
#538=FILL_AREA_STYLE('',(#550));
#539=FILL_AREA_STYLE('',(#551));
#540=FILL_AREA_STYLE('',(#552));
#541=FILL_AREA_STYLE('',(#553));
#542=FILL_AREA_STYLE('',(#554));
#543=FILL_AREA_STYLE('',(#555));
#544=FILL_AREA_STYLE('',(#556));
#545=FILL_AREA_STYLE('',(#557));
#546=FILL_AREA_STYLE_COLOUR('',#558);
#547=FILL_AREA_STYLE_COLOUR('',#559);
#548=FILL_AREA_STYLE_COLOUR('',#560);
#549=FILL_AREA_STYLE_COLOUR('',#561);
#550=FILL_AREA_STYLE_COLOUR('',#562);
#551=FILL_AREA_STYLE_COLOUR('',#563);
#552=FILL_AREA_STYLE_COLOUR('',#564);
#553=FILL_AREA_STYLE_COLOUR('',#565);
#554=FILL_AREA_STYLE_COLOUR('',#566);
#555=FILL_AREA_STYLE_COLOUR('',#567);
#556=FILL_AREA_STYLE_COLOUR('',#568);
#557=FILL_AREA_STYLE_COLOUR('',#569);
#558=COLOUR_RGB('',0.800000011920929,0.800000011920929,0.800000011920929);
#559=COLOUR_RGB('',0.800000011920929,0.800000011920929,0.800000011920929);
#560=COLOUR_RGB('',0.498039215803146,0.498039215803146,0.498039215803146);
#561=COLOUR_RGB('',0.498039215803146,0.498039215803146,0.498039215803146);
#562=COLOUR_RGB('',0.498039215803146,0.498039215803146,0.498039215803146);
#563=COLOUR_RGB('',0.498039215803146,0.498039215803146,0.498039215803146);
#564=COLOUR_RGB('',0.800000011920929,0.800000011920929,0.800000011920929);
#565=COLOUR_RGB('',0.498039215803146,0.498039215803146,0.498039215803146);
#566=COLOUR_RGB('',0.498039215803146,0.498039215803146,0.498039215803146);
#567=COLOUR_RGB('',0.498039215803146,0.498039215803146,0.498039215803146);
#568=COLOUR_RGB('',0.800000011920929,0.800000011920929,0.800000011920929);
#569=COLOUR_RGB('',0.498039215803146,0.498039215803146,0.498039215803146);
#570=AXIS2_PLACEMENT_3D('PCS',#571,#572,#573);
#571=CARTESIAN_POINT('',(0.0,0.0,0.0));
#572=DIRECTION('',(0.0,0.0,1.0));
#573=DIRECTION('',(1.0,0.0,0.0));
#574=AXIS2_PLACEMENT_3D('CIP',#575,#576,#577);
#575=CARTESIAN_POINT('',(0.0,0.0,-76.2));
#576=DIRECTION('',(0.0,0.0,1.0));
#577=DIRECTION('',(1.0,0.0,0.0));
#578=AXIS2_PLACEMENT_3D('CRP',#579,#580,#581);
#579=CARTESIAN_POINT('',(-3.1115,0.0,-76.2));
#580=DIRECTION('',(0.0,0.0,1.0));
#581=DIRECTION('',(1.0,0.0,0.0));
#582=AXIS2_PLACEMENT_3D('MCS',#583,#584,#585);
#583=CARTESIAN_POINT('',(0.0,0.0,-47.8));
#584=DIRECTION('',(0.0,0.0,1.0));
#585=DIRECTION('',(1.0,0.0,0.0));
#586=CONSTRUCTIVE_GEOMETRY_REPRESENTATION_RELATIONSHIP('coordinate systems',$,#58,#587);
#587=CONSTRUCTIVE_GEOMETRY_REPRESENTATION('coordinate systems',(#570,#574,#578,#582),#6);
ENDSEC;
END-ISO-10303-21;
