ISO-10303-21;
HEADER;
FILE_DESCRIPTION(('no description'),'unknown implementation level');
FILE_NAME('solidsZ4hcwzfkg2mh15hIVcP_rsrFuU_1.STP','  ',('CIMSOURCE GmbH'),('CADClick - KiM GmbH - www.kimweb.de'),'unknown preprocess','ACIS','unknown authorization');
FILE_SCHEMA(('automotive_design'));
ENDSEC;
DATA;
#1=MECHANICAL_DESIGN_GEOMETRIC_PRESENTATION_REPRESENTATION(' ',(#10,#11,#12,#13,#14,#15,#16,#17,#18,#19,#20,#21,#22,#23,#24,#25,#26,#27,#28,#29,#30,#31,#32,#33,#34,#35,#36,#37,#38,#39,#40,#41,#42,#43,#44,#45,#46,#47,#48,#49,#50,#51,#52,#53),#6);
#2=PRODUCT_DEFINITION_CONTEXT('',#54,'design');
#3=APPLICATION_PROTOCOL_DEFINITION('INTERNATIONAL STANDARD','automotive_design',1994,#54);
#4=PRODUCT_CATEGORY_RELATIONSHIP('NONE','NONE',#55,#56);
#5=SHAPE_DEFINITION_REPRESENTATION(#57,#58);
#6= (GEOMETRIC_REPRESENTATION_CONTEXT(3)GLOBAL_UNCERTAINTY_ASSIGNED_CONTEXT((#61))GLOBAL_UNIT_ASSIGNED_CONTEXT((#63,#64,#65))REPRESENTATION_CONTEXT('NONE','WORKSPACE'));
#10=STYLED_ITEM('',(#67),#68);
#11=STYLED_ITEM('',(#69),#70);
#12=STYLED_ITEM('',(#71),#72);
#13=STYLED_ITEM('',(#73),#74);
#14=STYLED_ITEM('',(#75),#76);
#15=STYLED_ITEM('',(#77),#78);
#16=STYLED_ITEM('',(#79),#80);
#17=STYLED_ITEM('',(#81),#82);
#18=STYLED_ITEM('',(#83),#84);
#19=STYLED_ITEM('',(#85),#86);
#20=STYLED_ITEM('',(#87),#88);
#21=STYLED_ITEM('',(#89),#90);
#22=STYLED_ITEM('',(#91),#92);
#23=STYLED_ITEM('',(#93),#94);
#24=STYLED_ITEM('',(#95),#96);
#25=STYLED_ITEM('',(#97),#98);
#26=STYLED_ITEM('',(#99),#100);
#27=STYLED_ITEM('',(#101),#102);
#28=STYLED_ITEM('',(#103),#104);
#29=STYLED_ITEM('',(#105),#106);
#30=STYLED_ITEM('',(#107),#108);
#31=STYLED_ITEM('',(#109),#110);
#32=STYLED_ITEM('',(#111),#112);
#33=STYLED_ITEM('',(#113),#114);
#34=STYLED_ITEM('',(#115),#116);
#35=STYLED_ITEM('',(#117),#118);
#36=STYLED_ITEM('',(#119),#120);
#37=STYLED_ITEM('',(#121),#122);
#38=STYLED_ITEM('',(#123),#124);
#39=STYLED_ITEM('',(#125),#126);
#40=STYLED_ITEM('',(#127),#128);
#41=STYLED_ITEM('',(#129),#130);
#42=STYLED_ITEM('',(#131),#132);
#43=STYLED_ITEM('',(#133),#134);
#44=STYLED_ITEM('',(#135),#136);
#45=STYLED_ITEM('',(#137),#138);
#46=STYLED_ITEM('',(#139),#140);
#47=STYLED_ITEM('',(#141),#142);
#48=STYLED_ITEM('',(#143),#144);
#49=STYLED_ITEM('',(#145),#146);
#50=STYLED_ITEM('',(#147),#148);
#51=STYLED_ITEM('',(#149),#150);
#52=STYLED_ITEM('',(#151),#152);
#53=STYLED_ITEM('',(#153),#154);
#54=APPLICATION_CONTEXT(' ');
#55=PRODUCT_CATEGORY('part','NONE');
#56=PRODUCT_RELATED_PRODUCT_CATEGORY('detail',' ',(#155));
#57=PRODUCT_DEFINITION_SHAPE('NONE','NONE',#156);
#58=ADVANCED_BREP_SHAPE_REPRESENTATION('1',(#112,#157),#6);
#61=UNCERTAINTY_MEASURE_WITH_UNIT(LENGTH_MEASURE(1.0E-006),#63,'','');
#63= (CONVERSION_BASED_UNIT('MILLIMETRE',#160)LENGTH_UNIT()NAMED_UNIT(#163));
#64= (NAMED_UNIT(#165)PLANE_ANGLE_UNIT()SI_UNIT($,.RADIAN.));
#65= (NAMED_UNIT(#165)SOLID_ANGLE_UNIT()SI_UNIT($,.STERADIAN.));
#67=PRESENTATION_STYLE_ASSIGNMENT((#171));
#68=ADVANCED_FACE('',(#172,#173),#174,.T.);
#69=PRESENTATION_STYLE_ASSIGNMENT((#175));
#70=ADVANCED_FACE('',(#176),#177,.T.);
#71=PRESENTATION_STYLE_ASSIGNMENT((#178));
#72=VERTEX_POINT('',#179);
#73=PRESENTATION_STYLE_ASSIGNMENT((#180));
#74=EDGE_CURVE('',#134,#110,#181,.T.);
#75=PRESENTATION_STYLE_ASSIGNMENT((#182));
#76=EDGE_CURVE('',#120,#80,#183,.T.);
#77=PRESENTATION_STYLE_ASSIGNMENT((#184));
#78=ADVANCED_FACE('',(#185),#186,.T.);
#79=PRESENTATION_STYLE_ASSIGNMENT((#187));
#80=VERTEX_POINT('',#188);
#81=PRESENTATION_STYLE_ASSIGNMENT((#189));
#82=ADVANCED_FACE('',(#190),#191,.T.);
#83=PRESENTATION_STYLE_ASSIGNMENT((#192));
#84=VERTEX_POINT('',#193);
#85=PRESENTATION_STYLE_ASSIGNMENT((#194));
#86=VERTEX_POINT('',#195);
#87=PRESENTATION_STYLE_ASSIGNMENT((#196));
#88=EDGE_CURVE('',#132,#72,#197,.T.);
#89=PRESENTATION_STYLE_ASSIGNMENT((#198));
#90=EDGE_CURVE('',#72,#84,#199,.T.);
#91=PRESENTATION_STYLE_ASSIGNMENT((#200));
#92=EDGE_CURVE('',#98,#132,#201,.T.);
#93=PRESENTATION_STYLE_ASSIGNMENT((#202));
#94=EDGE_CURVE('',#124,#120,#203,.T.);
#95=PRESENTATION_STYLE_ASSIGNMENT((#204));
#96=ADVANCED_FACE('',(#205),#206,.T.);
#97=PRESENTATION_STYLE_ASSIGNMENT((#207));
#98=VERTEX_POINT('',#208);
#99=PRESENTATION_STYLE_ASSIGNMENT((#209));
#100=EDGE_CURVE('',#84,#98,#210,.T.);
#101=PRESENTATION_STYLE_ASSIGNMENT((#211));
#102=VERTEX_POINT('',#212);
#103=PRESENTATION_STYLE_ASSIGNMENT((#213));
#104=EDGE_CURVE('',#110,#72,#214,.T.);
#105=PRESENTATION_STYLE_ASSIGNMENT((#215));
#106=EDGE_CURVE('',#102,#124,#216,.T.);
#107=PRESENTATION_STYLE_ASSIGNMENT((#217));
#108=EDGE_CURVE('',#120,#124,#218,.T.);
#109=PRESENTATION_STYLE_ASSIGNMENT((#219));
#110=VERTEX_POINT('',#220);
#111=PRESENTATION_STYLE_ASSIGNMENT((#221));
#112=MANIFOLD_SOLID_BREP('1',#222);
#113=PRESENTATION_STYLE_ASSIGNMENT((#223));
#114=EDGE_CURVE('',#98,#84,#224,.T.);
#115=PRESENTATION_STYLE_ASSIGNMENT((#225));
#116=ADVANCED_FACE('',(#226),#227,.T.);
#117=PRESENTATION_STYLE_ASSIGNMENT((#228));
#118=EDGE_CURVE('',#80,#86,#229,.T.);
#119=PRESENTATION_STYLE_ASSIGNMENT((#230));
#120=VERTEX_POINT('',#231);
#121=PRESENTATION_STYLE_ASSIGNMENT((#232));
#122=ADVANCED_FACE('',(#233),#234,.T.);
#123=PRESENTATION_STYLE_ASSIGNMENT((#235));
#124=VERTEX_POINT('',#236);
#125=PRESENTATION_STYLE_ASSIGNMENT((#237));
#126=VERTEX_POINT('',#238);
#127=PRESENTATION_STYLE_ASSIGNMENT((#239));
#128=ADVANCED_FACE('',(#240),#241,.T.);
#129=PRESENTATION_STYLE_ASSIGNMENT((#242));
#130=ADVANCED_FACE('',(#243),#244,.T.);
#131=PRESENTATION_STYLE_ASSIGNMENT((#245));
#132=VERTEX_POINT('',#246);
#133=PRESENTATION_STYLE_ASSIGNMENT((#247));
#134=VERTEX_POINT('',#248);
#135=PRESENTATION_STYLE_ASSIGNMENT((#249));
#136=EDGE_CURVE('',#126,#102,#250,.T.);
#137=PRESENTATION_STYLE_ASSIGNMENT((#251));
#138=EDGE_CURVE('',#80,#102,#252,.T.);
#139=PRESENTATION_STYLE_ASSIGNMENT((#253));
#140=EDGE_CURVE('',#86,#126,#254,.T.);
#141=PRESENTATION_STYLE_ASSIGNMENT((#255));
#142=EDGE_CURVE('',#102,#80,#256,.T.);
#143=PRESENTATION_STYLE_ASSIGNMENT((#257));
#144=EDGE_CURVE('',#110,#134,#258,.T.);
#145=PRESENTATION_STYLE_ASSIGNMENT((#259));
#146=ADVANCED_FACE('',(#260),#261,.T.);
#147=PRESENTATION_STYLE_ASSIGNMENT((#262));
#148=EDGE_CURVE('',#72,#132,#263,.T.);
#149=PRESENTATION_STYLE_ASSIGNMENT((#264));
#150=ADVANCED_FACE('',(#265),#266,.T.);
#151=PRESENTATION_STYLE_ASSIGNMENT((#267));
#152=EDGE_CURVE('',#132,#134,#268,.T.);
#153=PRESENTATION_STYLE_ASSIGNMENT((#269));
#154=EDGE_CURVE('',#126,#86,#270,.T.);
#155=PRODUCT('1','1','PART-1-DESC',(#271));
#156=PRODUCT_DEFINITION('NONE','NONE',#272,#2);
#157=AXIS2_PLACEMENT_3D('',#273,#274,#275);
#160=LENGTH_MEASURE_WITH_UNIT(LENGTH_MEASURE(1.0),#276);
#163=DIMENSIONAL_EXPONENTS(1.0,0.0,0.0,0.0,0.0,0.0,0.0);
#165=DIMENSIONAL_EXPONENTS(0.0,0.0,0.0,0.0,0.0,0.0,0.0);
#171=SURFACE_STYLE_USAGE(.BOTH.,#277);
#172=FACE_BOUND('',#278,.T.);
#173=FACE_OUTER_BOUND('',#279,.T.);
#174=PLANE('',#280);
#175=SURFACE_STYLE_USAGE(.BOTH.,#281);
#176=FACE_OUTER_BOUND('',#282,.T.);
#177=CONICAL_SURFACE('',#283,3.323315375,1.0471975511966);
#178=POINT_STYLE(' ',#284,POSITIVE_LENGTH_MEASURE(1.0E-006),#285);
#179=CARTESIAN_POINT('',(0.0,3.975,-0.397000000000006));
#180=CURVE_STYLE('',#286,POSITIVE_LENGTH_MEASURE(1.0E-006),#287);
#181=CIRCLE('',#288,3.74579194313172);
#182=CURVE_STYLE('',#289,POSITIVE_LENGTH_MEASURE(1.0E-006),#290);
#183=LINE('',#291,#292);
#184=SURFACE_STYLE_USAGE(.BOTH.,#293);
#185=FACE_OUTER_BOUND('',#294,.T.);
#186=PLANE('',#295);
#187=POINT_STYLE(' ',#296,POSITIVE_LENGTH_MEASURE(1.0E-006),#297);
#188=CARTESIAN_POINT('',(0.0,3.81,-75.6380250014916));
#189=SURFACE_STYLE_USAGE(.BOTH.,#298);
#190=FACE_OUTER_BOUND('',#299,.T.);
#191=CONICAL_SURFACE('',#300,3.323315375,1.0471975511966);
#192=POINT_STYLE(' ',#301,POSITIVE_LENGTH_MEASURE(1.0E-006),#302);
#193=CARTESIAN_POINT('',(-4.86781025644395E-016,3.975,-54.0));
#194=POINT_STYLE(' ',#303,POSITIVE_LENGTH_MEASURE(1.0E-006),#304);
#195=CARTESIAN_POINT('',(0.0,2.83663075,-76.2));
#196=CURVE_STYLE('',#305,POSITIVE_LENGTH_MEASURE(1.0E-006),#306);
#197=CIRCLE('',#307,3.975);
#198=CURVE_STYLE('',#308,POSITIVE_LENGTH_MEASURE(1.0E-006),#309);
#199=LINE('',#310,#311);
#200=CURVE_STYLE('',#312,POSITIVE_LENGTH_MEASURE(1.0E-006),#313);
#201=LINE('',#314,#315);
#202=CURVE_STYLE('',#316,POSITIVE_LENGTH_MEASURE(1.0E-006),#317);
#203=CIRCLE('',#318,3.81);
#204=SURFACE_STYLE_USAGE(.BOTH.,#319);
#205=FACE_OUTER_BOUND('',#320,.T.);
#206=CYLINDRICAL_SURFACE('',#321,3.81);
#207=POINT_STYLE(' ',#322,POSITIVE_LENGTH_MEASURE(1.0E-006),#323);
#208=CARTESIAN_POINT('',(0.0,-3.975,-54.0));
#209=CURVE_STYLE('',#324,POSITIVE_LENGTH_MEASURE(1.0E-006),#325);
#210=CIRCLE('',#326,3.975);
#211=POINT_STYLE(' ',#327,POSITIVE_LENGTH_MEASURE(1.0E-006),#328);
#212=CARTESIAN_POINT('',(4.66575020806326E-016,-3.81,-75.6380250014916));
#213=CURVE_STYLE('',#329,POSITIVE_LENGTH_MEASURE(1.0E-006),#330);
#214=LINE('',#331,#332);
#215=CURVE_STYLE('',#333,POSITIVE_LENGTH_MEASURE(1.0E-006),#334);
#216=LINE('',#335,#336);
#217=CURVE_STYLE('',#337,POSITIVE_LENGTH_MEASURE(1.0E-006),#338);
#218=CIRCLE('',#339,3.81);
#219=POINT_STYLE(' ',#340,POSITIVE_LENGTH_MEASURE(1.0E-006),#341);
#220=CARTESIAN_POINT('',(0.0,3.74579194313172,-7.105427357601E-015));
#221=SURFACE_STYLE_USAGE(.BOTH.,#342);
#222=CLOSED_SHELL('',(#146,#130,#70,#96,#122,#82,#68,#78,#150,#128,#116));
#223=CURVE_STYLE('',#343,POSITIVE_LENGTH_MEASURE(1.0E-006),#344);
#224=CIRCLE('',#345,3.975);
#225=SURFACE_STYLE_USAGE(.BOTH.,#346);
#226=FACE_OUTER_BOUND('',#347,.T.);
#227=PLANE('',#348);
#228=CURVE_STYLE('',#349,POSITIVE_LENGTH_MEASURE(1.0E-006),#350);
#229=LINE('',#351,#352);
#230=POINT_STYLE(' ',#353,POSITIVE_LENGTH_MEASURE(1.0E-006),#354);
#231=CARTESIAN_POINT('',(0.0,3.81,-54.0));
#232=SURFACE_STYLE_USAGE(.BOTH.,#355);
#233=FACE_OUTER_BOUND('',#356,.T.);
#234=CYLINDRICAL_SURFACE('',#357,3.81);
#235=POINT_STYLE(' ',#358,POSITIVE_LENGTH_MEASURE(1.0E-006),#359);
#236=CARTESIAN_POINT('',(4.66575020806326E-016,-3.81,-54.0));
#237=POINT_STYLE(' ',#360,POSITIVE_LENGTH_MEASURE(1.0E-006),#361);
#238=CARTESIAN_POINT('',(3.47375603989794E-016,-2.83663075,-76.2));
#239=SURFACE_STYLE_USAGE(.BOTH.,#362);
#240=FACE_OUTER_BOUND('',#363,.T.);
#241=CYLINDRICAL_SURFACE('',#364,3.975);
#242=SURFACE_STYLE_USAGE(.BOTH.,#365);
#243=FACE_OUTER_BOUND('',#366,.T.);
#244=CONICAL_SURFACE('',#367,3.86039597156586,0.523598775598301);
#245=POINT_STYLE(' ',#368,POSITIVE_LENGTH_MEASURE(1.0E-006),#369);
#246=CARTESIAN_POINT('',(4.86781025644395E-016,-3.975,-0.397000000000006));
#247=POINT_STYLE(' ',#370,POSITIVE_LENGTH_MEASURE(1.0E-006),#371);
#248=CARTESIAN_POINT('',(4.58712061365577E-016,-3.74579194313172,-7.105427357601E-015));
#249=CURVE_STYLE('',#372,POSITIVE_LENGTH_MEASURE(1.0E-006),#373);
#250=LINE('',#374,#375);
#251=CURVE_STYLE('',#376,POSITIVE_LENGTH_MEASURE(1.0E-006),#377);
#252=CIRCLE('',#378,3.81);
#253=CURVE_STYLE('',#379,POSITIVE_LENGTH_MEASURE(1.0E-006),#380);
#254=CIRCLE('',#381,2.83663075);
#255=CURVE_STYLE('',#382,POSITIVE_LENGTH_MEASURE(1.0E-006),#383);
#256=CIRCLE('',#384,3.81);
#257=CURVE_STYLE('',#385,POSITIVE_LENGTH_MEASURE(1.0E-006),#386);
#258=CIRCLE('',#387,3.74579194313172);
#259=SURFACE_STYLE_USAGE(.BOTH.,#388);
#260=FACE_OUTER_BOUND('',#389,.T.);
#261=CYLINDRICAL_SURFACE('',#390,3.975);
#262=CURVE_STYLE('',#391,POSITIVE_LENGTH_MEASURE(1.0E-006),#392);
#263=CIRCLE('',#393,3.975);
#264=SURFACE_STYLE_USAGE(.BOTH.,#394);
#265=FACE_OUTER_BOUND('',#395,.T.);
#266=CONICAL_SURFACE('',#396,3.86039597156586,0.523598775598301);
#267=CURVE_STYLE('',#397,POSITIVE_LENGTH_MEASURE(1.0E-006),#398);
#268=LINE('',#399,#400);
#269=CURVE_STYLE('',#401,POSITIVE_LENGTH_MEASURE(1.0E-006),#402);
#270=CIRCLE('',#403,2.83663075);
#271=PRODUCT_CONTEXT('',#54,'mechanical');
#272=PRODUCT_DEFINITION_FORMATION_WITH_SPECIFIED_SOURCE(' ','NONE',#155,.NOT_KNOWN.);
#273=CARTESIAN_POINT('',(0.0,0.0,0.0));
#274=DIRECTION('',(0.0,0.0,1.0));
#275=DIRECTION('',(1.0,0.0,0.0));
#276= (NAMED_UNIT(#163)LENGTH_UNIT()SI_UNIT(.MILLI.,.METRE.));
#277=SURFACE_SIDE_STYLE('',(#405));
#278=EDGE_LOOP('',(#406,#407));
#279=EDGE_LOOP('',(#408,#409));
#280=AXIS2_PLACEMENT_3D('',#410,#411,#412);
#281=SURFACE_SIDE_STYLE('',(#413));
#282=EDGE_LOOP('',(#414,#415,#416,#417));
#283=AXIS2_PLACEMENT_3D('',#418,#419,#420);
#284=PRE_DEFINED_MARKER('');
#285=COLOUR_RGB('',0.498039215803146,0.498039215803146,0.498039215803146);
#286=DRAUGHTING_PRE_DEFINED_CURVE_FONT('continuous');
#287=COLOUR_RGB('',0.498039215803146,0.498039215803146,0.498039215803146);
#288=AXIS2_PLACEMENT_3D('',#421,#422,#423);
#289=DRAUGHTING_PRE_DEFINED_CURVE_FONT('continuous');
#290=COLOUR_RGB('',0.800000011920929,0.800000011920929,0.800000011920929);
#291=CARTESIAN_POINT('',(-4.66575020806326E-016,3.81,-64.8190125007458));
#292=VECTOR('',#424,1.0);
#293=SURFACE_SIDE_STYLE('',(#425));
#294=EDGE_LOOP('',(#426,#427));
#295=AXIS2_PLACEMENT_3D('',#428,#429,#430);
#296=PRE_DEFINED_MARKER('');
#297=COLOUR_RGB('',0.800000011920929,0.800000011920929,0.800000011920929);
#298=SURFACE_SIDE_STYLE('',(#431));
#299=EDGE_LOOP('',(#432,#433,#434,#435));
#300=AXIS2_PLACEMENT_3D('',#436,#437,#438);
#301=PRE_DEFINED_MARKER('');
#302=COLOUR_RGB('',0.498039215803146,0.498039215803146,0.498039215803146);
#303=PRE_DEFINED_MARKER('');
#304=COLOUR_RGB('',0.498039215803146,0.498039215803146,0.498039215803146);
#305=DRAUGHTING_PRE_DEFINED_CURVE_FONT('continuous');
#306=COLOUR_RGB('',0.498039215803146,0.498039215803146,0.498039215803146);
#307=AXIS2_PLACEMENT_3D('',#439,#440,#441);
#308=DRAUGHTING_PRE_DEFINED_CURVE_FONT('continuous');
#309=COLOUR_RGB('',0.498039215803146,0.498039215803146,0.498039215803146);
#310=CARTESIAN_POINT('',(-4.86781025644395E-016,3.975,-21.8485));
#311=VECTOR('',#442,1.0);
#312=DRAUGHTING_PRE_DEFINED_CURVE_FONT('continuous');
#313=COLOUR_RGB('',0.498039215803146,0.498039215803146,0.498039215803146);
#314=CARTESIAN_POINT('',(4.86781025644395E-016,-3.975,-21.8485));
#315=VECTOR('',#443,1.0);
#316=DRAUGHTING_PRE_DEFINED_CURVE_FONT('continuous');
#317=COLOUR_RGB('',0.498039215803146,0.498039215803146,0.498039215803146);
#318=AXIS2_PLACEMENT_3D('',#444,#445,#446);
#319=SURFACE_SIDE_STYLE('',(#447));
#320=EDGE_LOOP('',(#448,#449,#450,#451));
#321=AXIS2_PLACEMENT_3D('',#452,#453,#454);
#322=PRE_DEFINED_MARKER('');
#323=COLOUR_RGB('',0.498039215803146,0.498039215803146,0.498039215803146);
#324=DRAUGHTING_PRE_DEFINED_CURVE_FONT('continuous');
#325=COLOUR_RGB('',0.498039215803146,0.498039215803146,0.498039215803146);
#326=AXIS2_PLACEMENT_3D('',#455,#456,#457);
#327=PRE_DEFINED_MARKER('');
#328=COLOUR_RGB('',0.800000011920929,0.800000011920929,0.800000011920929);
#329=DRAUGHTING_PRE_DEFINED_CURVE_FONT('continuous');
#330=COLOUR_RGB('',0.498039215803146,0.498039215803146,0.498039215803146);
#331=CARTESIAN_POINT('',(-4.72746543504986E-016,3.86039597156586,-0.198500000000003));
#332=VECTOR('',#458,1.0);
#333=DRAUGHTING_PRE_DEFINED_CURVE_FONT('continuous');
#334=COLOUR_RGB('',0.800000011920929,0.800000011920929,0.800000011920929);
#335=CARTESIAN_POINT('',(4.66575020806326E-016,-3.81,-64.8190125007458));
#336=VECTOR('',#459,1.0);
#337=DRAUGHTING_PRE_DEFINED_CURVE_FONT('continuous');
#338=COLOUR_RGB('',0.498039215803146,0.498039215803146,0.498039215803146);
#339=AXIS2_PLACEMENT_3D('',#460,#461,#462);
#340=PRE_DEFINED_MARKER('');
#341=COLOUR_RGB('',0.498039215803146,0.498039215803146,0.498039215803146);
#342=SURFACE_SIDE_STYLE('',(#463));
#343=DRAUGHTING_PRE_DEFINED_CURVE_FONT('continuous');
#344=COLOUR_RGB('',0.498039215803146,0.498039215803146,0.498039215803146);
#345=AXIS2_PLACEMENT_3D('',#464,#465,#466);
#346=SURFACE_SIDE_STYLE('',(#467));
#347=EDGE_LOOP('',(#468,#469));
#348=AXIS2_PLACEMENT_3D('',#470,#471,#472);
#349=DRAUGHTING_PRE_DEFINED_CURVE_FONT('continuous');
#350=COLOUR_RGB('',0.800000011920929,0.800000011920929,0.800000011920929);
#351=CARTESIAN_POINT('',(-4.0697531239806E-016,3.323315375,-75.9190125007458));
#352=VECTOR('',#473,1.0);
#353=PRE_DEFINED_MARKER('');
#354=COLOUR_RGB('',0.498039215803146,0.498039215803146,0.498039215803146);
#355=SURFACE_SIDE_STYLE('',(#474));
#356=EDGE_LOOP('',(#475,#476,#477,#478));
#357=AXIS2_PLACEMENT_3D('',#479,#480,#481);
#358=PRE_DEFINED_MARKER('');
#359=COLOUR_RGB('',0.498039215803146,0.498039215803146,0.498039215803146);
#360=PRE_DEFINED_MARKER('');
#361=COLOUR_RGB('',0.498039215803146,0.498039215803146,0.498039215803146);
#362=SURFACE_SIDE_STYLE('',(#482));
#363=EDGE_LOOP('',(#483,#484,#485,#486));
#364=AXIS2_PLACEMENT_3D('',#487,#488,#489);
#365=SURFACE_SIDE_STYLE('',(#490));
#366=EDGE_LOOP('',(#491,#492,#493,#494));
#367=AXIS2_PLACEMENT_3D('',#495,#496,#497);
#368=PRE_DEFINED_MARKER('');
#369=COLOUR_RGB('',0.498039215803146,0.498039215803146,0.498039215803146);
#370=PRE_DEFINED_MARKER('');
#371=COLOUR_RGB('',0.498039215803146,0.498039215803146,0.498039215803146);
#372=DRAUGHTING_PRE_DEFINED_CURVE_FONT('continuous');
#373=COLOUR_RGB('',0.800000011920929,0.800000011920929,0.800000011920929);
#374=CARTESIAN_POINT('',(4.0697531239806E-016,-3.323315375,-75.9190125007458));
#375=VECTOR('',#498,1.0);
#376=DRAUGHTING_PRE_DEFINED_CURVE_FONT('continuous');
#377=COLOUR_RGB('',0.800000011920929,0.800000011920929,0.800000011920929);
#378=AXIS2_PLACEMENT_3D('',#499,#500,#501);
#379=DRAUGHTING_PRE_DEFINED_CURVE_FONT('continuous');
#380=COLOUR_RGB('',0.498039215803146,0.498039215803146,0.498039215803146);
#381=AXIS2_PLACEMENT_3D('',#502,#503,#504);
#382=DRAUGHTING_PRE_DEFINED_CURVE_FONT('continuous');
#383=COLOUR_RGB('',0.800000011920929,0.800000011920929,0.800000011920929);
#384=AXIS2_PLACEMENT_3D('',#505,#506,#507);
#385=DRAUGHTING_PRE_DEFINED_CURVE_FONT('continuous');
#386=COLOUR_RGB('',0.498039215803146,0.498039215803146,0.498039215803146);
#387=AXIS2_PLACEMENT_3D('',#508,#509,#510);
#388=SURFACE_SIDE_STYLE('',(#511));
#389=EDGE_LOOP('',(#512,#513,#514,#515));
#390=AXIS2_PLACEMENT_3D('',#516,#517,#518);
#391=DRAUGHTING_PRE_DEFINED_CURVE_FONT('continuous');
#392=COLOUR_RGB('',0.498039215803146,0.498039215803146,0.498039215803146);
#393=AXIS2_PLACEMENT_3D('',#519,#520,#521);
#394=SURFACE_SIDE_STYLE('',(#522));
#395=EDGE_LOOP('',(#523,#524,#525,#526));
#396=AXIS2_PLACEMENT_3D('',#527,#528,#529);
#397=DRAUGHTING_PRE_DEFINED_CURVE_FONT('continuous');
#398=COLOUR_RGB('',0.498039215803146,0.498039215803146,0.498039215803146);
#399=CARTESIAN_POINT('',(4.72746543504986E-016,-3.86039597156586,-0.198500000000003));
#400=VECTOR('',#530,1.0);
#401=DRAUGHTING_PRE_DEFINED_CURVE_FONT('continuous');
#402=COLOUR_RGB('',0.498039215803146,0.498039215803146,0.498039215803146);
#403=AXIS2_PLACEMENT_3D('',#531,#532,#533);
#405=SURFACE_STYLE_FILL_AREA(#534);
#406=ORIENTED_EDGE('',*,*,#108,.T.);
#407=ORIENTED_EDGE('',*,*,#94,.T.);
#408=ORIENTED_EDGE('',*,*,#114,.T.);
#409=ORIENTED_EDGE('',*,*,#100,.T.);
#410=CARTESIAN_POINT('',(0.0,0.0,-54.0));
#411=DIRECTION('',(0.0,0.0,-1.0));
#412=DIRECTION('',(0.0,-1.0,0.0));
#413=SURFACE_STYLE_FILL_AREA(#535);
#414=ORIENTED_EDGE('',*,*,#118,.F.);
#415=ORIENTED_EDGE('',*,*,#138,.T.);
#416=ORIENTED_EDGE('',*,*,#136,.F.);
#417=ORIENTED_EDGE('',*,*,#140,.F.);
#418=CARTESIAN_POINT('',(0.0,0.0,-75.9190125007458));
#419=DIRECTION('',(-0.0,-0.0,1.0));
#420=DIRECTION('',(0.0,1.0,0.0));
#421=CARTESIAN_POINT('',(0.0,0.0,-7.105427357601E-015));
#422=DIRECTION('',(0.0,0.0,-1.0));
#423=DIRECTION('',(0.0,1.0,0.0));
#424=DIRECTION('',(0.0,0.0,-1.0));
#425=SURFACE_STYLE_FILL_AREA(#536);
#426=ORIENTED_EDGE('',*,*,#144,.F.);
#427=ORIENTED_EDGE('',*,*,#74,.F.);
#428=CARTESIAN_POINT('',(0.0,1.87289597156586,-7.105427357601E-015));
#429=DIRECTION('',(-0.0,0.0,1.0));
#430=DIRECTION('',(0.0,-1.0,0.0));
#431=SURFACE_STYLE_FILL_AREA(#537);
#432=ORIENTED_EDGE('',*,*,#118,.T.);
#433=ORIENTED_EDGE('',*,*,#154,.F.);
#434=ORIENTED_EDGE('',*,*,#136,.T.);
#435=ORIENTED_EDGE('',*,*,#142,.T.);
#436=CARTESIAN_POINT('',(0.0,0.0,-75.9190125007458));
#437=DIRECTION('',(-0.0,-0.0,1.0));
#438=DIRECTION('',(0.0,1.0,0.0));
#439=CARTESIAN_POINT('',(0.0,0.0,-0.397000000000006));
#440=DIRECTION('',(0.0,0.0,-1.0));
#441=DIRECTION('',(0.0,1.0,0.0));
#442=DIRECTION('',(0.0,0.0,-1.0));
#443=DIRECTION('',(-0.0,-0.0,1.0));
#444=CARTESIAN_POINT('',(0.0,0.0,-54.0));
#445=DIRECTION('',(0.0,-0.0,1.0));
#446=DIRECTION('',(0.0,1.0,0.0));
#447=SURFACE_STYLE_FILL_AREA(#538);
#448=ORIENTED_EDGE('',*,*,#76,.F.);
#449=ORIENTED_EDGE('',*,*,#94,.F.);
#450=ORIENTED_EDGE('',*,*,#106,.F.);
#451=ORIENTED_EDGE('',*,*,#138,.F.);
#452=CARTESIAN_POINT('',(0.0,0.0,-64.8190125007458));
#453=DIRECTION('',(-0.0,-0.0,1.0));
#454=DIRECTION('',(0.0,1.0,0.0));
#455=CARTESIAN_POINT('',(0.0,0.0,-54.0));
#456=DIRECTION('',(0.0,0.0,-1.0));
#457=DIRECTION('',(0.0,-1.0,0.0));
#458=DIRECTION('',(-6.12303176911191E-017,0.500000000000002,-0.866025403784438));
#459=DIRECTION('',(-0.0,-0.0,1.0));
#460=CARTESIAN_POINT('',(0.0,0.0,-54.0));
#461=DIRECTION('',(0.0,-0.0,1.0));
#462=DIRECTION('',(0.0,1.0,0.0));
#463=SURFACE_STYLE_FILL_AREA(#539);
#464=CARTESIAN_POINT('',(0.0,0.0,-54.0));
#465=DIRECTION('',(0.0,0.0,-1.0));
#466=DIRECTION('',(0.0,-1.0,0.0));
#467=SURFACE_STYLE_FILL_AREA(#540);
#468=ORIENTED_EDGE('',*,*,#140,.T.);
#469=ORIENTED_EDGE('',*,*,#154,.T.);
#470=CARTESIAN_POINT('',(0.0,1.418315375,-76.2));
#471=DIRECTION('',(0.0,0.0,-1.0));
#472=DIRECTION('',(0.0,1.0,0.0));
#473=DIRECTION('',(1.06054021204601E-016,-0.866025403784439,-0.5));
#474=SURFACE_STYLE_FILL_AREA(#541);
#475=ORIENTED_EDGE('',*,*,#76,.T.);
#476=ORIENTED_EDGE('',*,*,#142,.F.);
#477=ORIENTED_EDGE('',*,*,#106,.T.);
#478=ORIENTED_EDGE('',*,*,#108,.F.);
#479=CARTESIAN_POINT('',(0.0,0.0,-64.8190125007458));
#480=DIRECTION('',(-0.0,-0.0,1.0));
#481=DIRECTION('',(0.0,1.0,0.0));
#482=SURFACE_STYLE_FILL_AREA(#542);
#483=ORIENTED_EDGE('',*,*,#90,.T.);
#484=ORIENTED_EDGE('',*,*,#114,.F.);
#485=ORIENTED_EDGE('',*,*,#92,.T.);
#486=ORIENTED_EDGE('',*,*,#88,.T.);
#487=CARTESIAN_POINT('',(0.0,0.0,-21.8485));
#488=DIRECTION('',(-0.0,-0.0,1.0));
#489=DIRECTION('',(0.0,1.0,0.0));
#490=SURFACE_STYLE_FILL_AREA(#543);
#491=ORIENTED_EDGE('',*,*,#104,.F.);
#492=ORIENTED_EDGE('',*,*,#144,.T.);
#493=ORIENTED_EDGE('',*,*,#152,.F.);
#494=ORIENTED_EDGE('',*,*,#148,.F.);
#495=CARTESIAN_POINT('',(0.0,0.0,-0.198500000000003));
#496=DIRECTION('',(0.0,-0.0,-1.0));
#497=DIRECTION('',(0.0,1.0,0.0));
#498=DIRECTION('',(1.06054021204601E-016,-0.866025403784439,0.5));
#499=CARTESIAN_POINT('',(0.0,0.0,-75.6380250014916));
#500=DIRECTION('',(0.0,0.0,-1.0));
#501=DIRECTION('',(0.0,1.0,0.0));
#502=CARTESIAN_POINT('',(0.0,0.0,-76.2));
#503=DIRECTION('',(0.0,0.0,-1.0));
#504=DIRECTION('',(0.0,1.0,0.0));
#505=CARTESIAN_POINT('',(0.0,0.0,-75.6380250014916));
#506=DIRECTION('',(0.0,0.0,-1.0));
#507=DIRECTION('',(0.0,1.0,0.0));
#508=CARTESIAN_POINT('',(0.0,0.0,-7.105427357601E-015));
#509=DIRECTION('',(0.0,0.0,-1.0));
#510=DIRECTION('',(0.0,1.0,0.0));
#511=SURFACE_STYLE_FILL_AREA(#544);
#512=ORIENTED_EDGE('',*,*,#90,.F.);
#513=ORIENTED_EDGE('',*,*,#148,.T.);
#514=ORIENTED_EDGE('',*,*,#92,.F.);
#515=ORIENTED_EDGE('',*,*,#100,.F.);
#516=CARTESIAN_POINT('',(0.0,0.0,-21.8485));
#517=DIRECTION('',(-0.0,-0.0,1.0));
#518=DIRECTION('',(0.0,1.0,0.0));
#519=CARTESIAN_POINT('',(0.0,0.0,-0.397000000000006));
#520=DIRECTION('',(0.0,0.0,-1.0));
#521=DIRECTION('',(0.0,1.0,0.0));
#522=SURFACE_STYLE_FILL_AREA(#545);
#523=ORIENTED_EDGE('',*,*,#104,.T.);
#524=ORIENTED_EDGE('',*,*,#88,.F.);
#525=ORIENTED_EDGE('',*,*,#152,.T.);
#526=ORIENTED_EDGE('',*,*,#74,.T.);
#527=CARTESIAN_POINT('',(0.0,0.0,-0.198500000000003));
#528=DIRECTION('',(0.0,-0.0,-1.0));
#529=DIRECTION('',(0.0,1.0,0.0));
#530=DIRECTION('',(-6.12303176911191E-017,0.500000000000002,0.866025403784438));
#531=CARTESIAN_POINT('',(0.0,0.0,-76.2));
#532=DIRECTION('',(0.0,0.0,-1.0));
#533=DIRECTION('',(0.0,1.0,0.0));
#534=FILL_AREA_STYLE('',(#546));
#535=FILL_AREA_STYLE('',(#547));
#536=FILL_AREA_STYLE('',(#548));
#537=FILL_AREA_STYLE('',(#549));
#538=FILL_AREA_STYLE('',(#550));
#539=FILL_AREA_STYLE('',(#551));
#540=FILL_AREA_STYLE('',(#552));
#541=FILL_AREA_STYLE('',(#553));
#542=FILL_AREA_STYLE('',(#554));
#543=FILL_AREA_STYLE('',(#555));
#544=FILL_AREA_STYLE('',(#556));
#545=FILL_AREA_STYLE('',(#557));
#546=FILL_AREA_STYLE_COLOUR('',#558);
#547=FILL_AREA_STYLE_COLOUR('',#559);
#548=FILL_AREA_STYLE_COLOUR('',#560);
#549=FILL_AREA_STYLE_COLOUR('',#561);
#550=FILL_AREA_STYLE_COLOUR('',#562);
#551=FILL_AREA_STYLE_COLOUR('',#563);
#552=FILL_AREA_STYLE_COLOUR('',#564);
#553=FILL_AREA_STYLE_COLOUR('',#565);
#554=FILL_AREA_STYLE_COLOUR('',#566);
#555=FILL_AREA_STYLE_COLOUR('',#567);
#556=FILL_AREA_STYLE_COLOUR('',#568);
#557=FILL_AREA_STYLE_COLOUR('',#569);
#558=COLOUR_RGB('',0.498039215803146,0.498039215803146,0.498039215803146);
#559=COLOUR_RGB('',0.800000011920929,0.800000011920929,0.800000011920929);
#560=COLOUR_RGB('',0.498039215803146,0.498039215803146,0.498039215803146);
#561=COLOUR_RGB('',0.800000011920929,0.800000011920929,0.800000011920929);
#562=COLOUR_RGB('',0.800000011920929,0.800000011920929,0.800000011920929);
#563=COLOUR_RGB('',0.498039215803146,0.498039215803146,0.498039215803146);
#564=COLOUR_RGB('',0.498039215803146,0.498039215803146,0.498039215803146);
#565=COLOUR_RGB('',0.800000011920929,0.800000011920929,0.800000011920929);
#566=COLOUR_RGB('',0.498039215803146,0.498039215803146,0.498039215803146);
#567=COLOUR_RGB('',0.498039215803146,0.498039215803146,0.498039215803146);
#568=COLOUR_RGB('',0.498039215803146,0.498039215803146,0.498039215803146);
#569=COLOUR_RGB('',0.498039215803146,0.498039215803146,0.498039215803146);
#570=AXIS2_PLACEMENT_3D('PCS',#571,#572,#573);
#571=CARTESIAN_POINT('',(0.0,0.0,0.0));
#572=DIRECTION('',(0.0,0.0,1.0));
#573=DIRECTION('',(1.0,0.0,0.0));
#574=AXIS2_PLACEMENT_3D('CIP',#575,#576,#577);
#575=CARTESIAN_POINT('',(0.0,0.0,-76.2));
#576=DIRECTION('',(0.0,0.0,1.0));
#577=DIRECTION('',(1.0,0.0,0.0));
#578=AXIS2_PLACEMENT_3D('CRP',#579,#580,#581);
#579=CARTESIAN_POINT('',(-3.81,0.0,-76.2));
#580=DIRECTION('',(0.0,0.0,1.0));
#581=DIRECTION('',(1.0,0.0,0.0));
#582=AXIS2_PLACEMENT_3D('MCS',#583,#584,#585);
#583=CARTESIAN_POINT('',(0.0,0.0,-43.3));
#584=DIRECTION('',(0.0,0.0,1.0));
#585=DIRECTION('',(1.0,0.0,0.0));
#586=CONSTRUCTIVE_GEOMETRY_REPRESENTATION_RELATIONSHIP('coordinate systems',$,#58,#587);
#587=CONSTRUCTIVE_GEOMETRY_REPRESENTATION('coordinate systems',(#570,#574,#578,#582),#6);
ENDSEC;
END-ISO-10303-21;
