ISO-10303-21;
HEADER;
FILE_DESCRIPTION(('no description'),'unknown implementation level');
FILE_NAME('solidV5pj90rCzRAC2psDSkGVIPpGJc4_1.STP','  ',('CIMSOURCE GmbH'),('CADClick - KiM GmbH - www.kimweb.de'),'unknown preprocess','ACIS','unknown authorization');
FILE_SCHEMA(('automotive_design'));
ENDSEC;
DATA;
#1=MECHANICAL_DESIGN_GEOMETRIC_PRESENTATION_REPRESENTATION(' ',(#10,#11,#12,#13,#14,#15,#16,#17,#18,#19,#20,#21,#22,#23,#24,#25,#26,#27,#28,#29,#30,#31,#32,#33,#34,#35,#36,#37,#38,#39,#40,#41,#42,#43,#44,#45,#46,#47,#48,#49,#50,#51,#52,#53),#6);
#2=PRODUCT_DEFINITION_CONTEXT('',#54,'design');
#3=APPLICATION_PROTOCOL_DEFINITION('INTERNATIONAL STANDARD','automotive_design',1994,#54);
#4=PRODUCT_CATEGORY_RELATIONSHIP('NONE','NONE',#55,#56);
#5=SHAPE_DEFINITION_REPRESENTATION(#57,#58);
#6= (GEOMETRIC_REPRESENTATION_CONTEXT(3)GLOBAL_UNCERTAINTY_ASSIGNED_CONTEXT((#61))GLOBAL_UNIT_ASSIGNED_CONTEXT((#63,#64,#65))REPRESENTATION_CONTEXT('NONE','WORKSPACE'));
#10=STYLED_ITEM('',(#67),#68);
#11=STYLED_ITEM('',(#69),#70);
#12=STYLED_ITEM('',(#71),#72);
#13=STYLED_ITEM('',(#73),#74);
#14=STYLED_ITEM('',(#75),#76);
#15=STYLED_ITEM('',(#77),#78);
#16=STYLED_ITEM('',(#79),#80);
#17=STYLED_ITEM('',(#81),#82);
#18=STYLED_ITEM('',(#83),#84);
#19=STYLED_ITEM('',(#85),#86);
#20=STYLED_ITEM('',(#87),#88);
#21=STYLED_ITEM('',(#89),#90);
#22=STYLED_ITEM('',(#91),#92);
#23=STYLED_ITEM('',(#93),#94);
#24=STYLED_ITEM('',(#95),#96);
#25=STYLED_ITEM('',(#97),#98);
#26=STYLED_ITEM('',(#99),#100);
#27=STYLED_ITEM('',(#101),#102);
#28=STYLED_ITEM('',(#103),#104);
#29=STYLED_ITEM('',(#105),#106);
#30=STYLED_ITEM('',(#107),#108);
#31=STYLED_ITEM('',(#109),#110);
#32=STYLED_ITEM('',(#111),#112);
#33=STYLED_ITEM('',(#113),#114);
#34=STYLED_ITEM('',(#115),#116);
#35=STYLED_ITEM('',(#117),#118);
#36=STYLED_ITEM('',(#119),#120);
#37=STYLED_ITEM('',(#121),#122);
#38=STYLED_ITEM('',(#123),#124);
#39=STYLED_ITEM('',(#125),#126);
#40=STYLED_ITEM('',(#127),#128);
#41=STYLED_ITEM('',(#129),#130);
#42=STYLED_ITEM('',(#131),#132);
#43=STYLED_ITEM('',(#133),#134);
#44=STYLED_ITEM('',(#135),#136);
#45=STYLED_ITEM('',(#137),#138);
#46=STYLED_ITEM('',(#139),#140);
#47=STYLED_ITEM('',(#141),#142);
#48=STYLED_ITEM('',(#143),#144);
#49=STYLED_ITEM('',(#145),#146);
#50=STYLED_ITEM('',(#147),#148);
#51=STYLED_ITEM('',(#149),#150);
#52=STYLED_ITEM('',(#151),#152);
#53=STYLED_ITEM('',(#153),#154);
#54=APPLICATION_CONTEXT(' ');
#55=PRODUCT_CATEGORY('part','NONE');
#56=PRODUCT_RELATED_PRODUCT_CATEGORY('detail',' ',(#155));
#57=PRODUCT_DEFINITION_SHAPE('NONE','NONE',#156);
#58=ADVANCED_BREP_SHAPE_REPRESENTATION('1',(#76,#157),#6);
#61=UNCERTAINTY_MEASURE_WITH_UNIT(LENGTH_MEASURE(1.0E-006),#63,'','');
#63= (CONVERSION_BASED_UNIT('MILLIMETRE',#160)LENGTH_UNIT()NAMED_UNIT(#163));
#64= (NAMED_UNIT(#165)PLANE_ANGLE_UNIT()SI_UNIT($,.RADIAN.));
#65= (NAMED_UNIT(#165)SOLID_ANGLE_UNIT()SI_UNIT($,.STERADIAN.));
#67=PRESENTATION_STYLE_ASSIGNMENT((#171));
#68=EDGE_CURVE('',#98,#80,#172,.T.);
#69=PRESENTATION_STYLE_ASSIGNMENT((#173));
#70=ADVANCED_FACE('',(#174),#175,.T.);
#71=PRESENTATION_STYLE_ASSIGNMENT((#176));
#72=VERTEX_POINT('',#177);
#73=PRESENTATION_STYLE_ASSIGNMENT((#178));
#74=EDGE_CURVE('',#78,#146,#179,.T.);
#75=PRESENTATION_STYLE_ASSIGNMENT((#180));
#76=MANIFOLD_SOLID_BREP('1',#181);
#77=PRESENTATION_STYLE_ASSIGNMENT((#182));
#78=VERTEX_POINT('',#183);
#79=PRESENTATION_STYLE_ASSIGNMENT((#184));
#80=VERTEX_POINT('',#185);
#81=PRESENTATION_STYLE_ASSIGNMENT((#186));
#82=EDGE_CURVE('',#132,#90,#187,.T.);
#83=PRESENTATION_STYLE_ASSIGNMENT((#188));
#84=EDGE_CURVE('',#126,#122,#189,.T.);
#85=PRESENTATION_STYLE_ASSIGNMENT((#190));
#86=EDGE_CURVE('',#148,#72,#191,.T.);
#87=PRESENTATION_STYLE_ASSIGNMENT((#192));
#88=EDGE_CURVE('',#80,#78,#193,.T.);
#89=PRESENTATION_STYLE_ASSIGNMENT((#194));
#90=VERTEX_POINT('',#195);
#91=PRESENTATION_STYLE_ASSIGNMENT((#196));
#92=EDGE_CURVE('',#122,#126,#197,.T.);
#93=PRESENTATION_STYLE_ASSIGNMENT((#198));
#94=EDGE_CURVE('',#138,#140,#199,.T.);
#95=PRESENTATION_STYLE_ASSIGNMENT((#200));
#96=EDGE_CURVE('',#90,#132,#201,.T.);
#97=PRESENTATION_STYLE_ASSIGNMENT((#202));
#98=VERTEX_POINT('',#203);
#99=PRESENTATION_STYLE_ASSIGNMENT((#204));
#100=ADVANCED_FACE('',(#205,#206),#207,.T.);
#101=PRESENTATION_STYLE_ASSIGNMENT((#208));
#102=EDGE_CURVE('',#146,#98,#209,.T.);
#103=PRESENTATION_STYLE_ASSIGNMENT((#210));
#104=EDGE_CURVE('',#72,#138,#211,.T.);
#105=PRESENTATION_STYLE_ASSIGNMENT((#212));
#106=ADVANCED_FACE('',(#213),#214,.T.);
#107=PRESENTATION_STYLE_ASSIGNMENT((#215));
#108=ADVANCED_FACE('',(#216),#217,.T.);
#109=PRESENTATION_STYLE_ASSIGNMENT((#218));
#110=EDGE_CURVE('',#72,#132,#219,.T.);
#111=PRESENTATION_STYLE_ASSIGNMENT((#220));
#112=ADVANCED_FACE('',(#221),#222,.T.);
#113=PRESENTATION_STYLE_ASSIGNMENT((#223));
#114=EDGE_CURVE('',#138,#72,#224,.T.);
#115=PRESENTATION_STYLE_ASSIGNMENT((#225));
#116=ADVANCED_FACE('',(#226),#227,.T.);
#117=PRESENTATION_STYLE_ASSIGNMENT((#228));
#118=EDGE_CURVE('',#146,#78,#229,.T.);
#119=PRESENTATION_STYLE_ASSIGNMENT((#230));
#120=EDGE_CURVE('',#140,#148,#231,.T.);
#121=PRESENTATION_STYLE_ASSIGNMENT((#232));
#122=VERTEX_POINT('',#233);
#123=PRESENTATION_STYLE_ASSIGNMENT((#234));
#124=ADVANCED_FACE('',(#235),#236,.T.);
#125=PRESENTATION_STYLE_ASSIGNMENT((#237));
#126=VERTEX_POINT('',#238);
#127=PRESENTATION_STYLE_ASSIGNMENT((#239));
#128=ADVANCED_FACE('',(#240),#241,.T.);
#129=PRESENTATION_STYLE_ASSIGNMENT((#242));
#130=ADVANCED_FACE('',(#243),#244,.T.);
#131=PRESENTATION_STYLE_ASSIGNMENT((#245));
#132=VERTEX_POINT('',#246);
#133=PRESENTATION_STYLE_ASSIGNMENT((#247));
#134=EDGE_CURVE('',#78,#126,#248,.T.);
#135=PRESENTATION_STYLE_ASSIGNMENT((#249));
#136=EDGE_CURVE('',#148,#140,#250,.T.);
#137=PRESENTATION_STYLE_ASSIGNMENT((#251));
#138=VERTEX_POINT('',#252);
#139=PRESENTATION_STYLE_ASSIGNMENT((#253));
#140=VERTEX_POINT('',#254);
#141=PRESENTATION_STYLE_ASSIGNMENT((#255));
#142=ADVANCED_FACE('',(#256),#257,.T.);
#143=PRESENTATION_STYLE_ASSIGNMENT((#258));
#144=ADVANCED_FACE('',(#259),#260,.T.);
#145=PRESENTATION_STYLE_ASSIGNMENT((#261));
#146=VERTEX_POINT('',#262);
#147=PRESENTATION_STYLE_ASSIGNMENT((#263));
#148=VERTEX_POINT('',#264);
#149=PRESENTATION_STYLE_ASSIGNMENT((#265));
#150=EDGE_CURVE('',#122,#146,#266,.T.);
#151=PRESENTATION_STYLE_ASSIGNMENT((#267));
#152=EDGE_CURVE('',#80,#98,#268,.T.);
#153=PRESENTATION_STYLE_ASSIGNMENT((#269));
#154=EDGE_CURVE('',#90,#138,#270,.T.);
#155=PRODUCT('1','1','PART-1-DESC',(#271));
#156=PRODUCT_DEFINITION('NONE','NONE',#272,#2);
#157=AXIS2_PLACEMENT_3D('',#273,#274,#275);
#160=LENGTH_MEASURE_WITH_UNIT(LENGTH_MEASURE(1.0),#276);
#163=DIMENSIONAL_EXPONENTS(1.0,0.0,0.0,0.0,0.0,0.0,0.0);
#165=DIMENSIONAL_EXPONENTS(0.0,0.0,0.0,0.0,0.0,0.0,0.0);
#171=CURVE_STYLE('',#277,POSITIVE_LENGTH_MEASURE(1.0E-006),#278);
#172=CIRCLE('',#279,3.975);
#173=SURFACE_STYLE_USAGE(.BOTH.,#280);
#174=FACE_OUTER_BOUND('',#281,.T.);
#175=CONICAL_SURFACE('',#282,3.86039597156586,0.523598775598301);
#176=POINT_STYLE(' ',#283,POSITIVE_LENGTH_MEASURE(1.0E-006),#284);
#177=CARTESIAN_POINT('',(0.0,3.81,-75.8253499971454));
#178=CURVE_STYLE('',#285,POSITIVE_LENGTH_MEASURE(1.0E-006),#286);
#179=CIRCLE('',#287,3.975);
#180=SURFACE_STYLE_USAGE(.BOTH.,#288);
#181=CLOSED_SHELL('',(#130,#70,#128,#106,#108,#116,#100,#124,#144,#112,#142));
#182=POINT_STYLE(' ',#289,POSITIVE_LENGTH_MEASURE(1.0E-006),#290);
#183=CARTESIAN_POINT('',(4.86781025644395E-016,-3.975,-0.397000000000006));
#184=POINT_STYLE(' ',#291,POSITIVE_LENGTH_MEASURE(1.0E-006),#292);
#185=CARTESIAN_POINT('',(0.0,-3.975,-54.0));
#186=CURVE_STYLE('',#293,POSITIVE_LENGTH_MEASURE(1.0E-006),#294);
#187=CIRCLE('',#295,3.16108716);
#188=CURVE_STYLE('',#296,POSITIVE_LENGTH_MEASURE(1.0E-006),#297);
#189=CIRCLE('',#298,3.74579194313172);
#190=CURVE_STYLE('',#299,POSITIVE_LENGTH_MEASURE(1.0E-006),#300);
#191=LINE('',#301,#302);
#192=CURVE_STYLE('',#303,POSITIVE_LENGTH_MEASURE(1.0E-006),#304);
#193=LINE('',#305,#306);
#194=POINT_STYLE(' ',#307,POSITIVE_LENGTH_MEASURE(1.0E-006),#308);
#195=CARTESIAN_POINT('',(3.87108742112233E-016,-3.16108716,-76.2));
#196=CURVE_STYLE('',#309,POSITIVE_LENGTH_MEASURE(1.0E-006),#310);
#197=CIRCLE('',#311,3.74579194313172);
#198=CURVE_STYLE('',#312,POSITIVE_LENGTH_MEASURE(1.0E-006),#313);
#199=LINE('',#314,#315);
#200=CURVE_STYLE('',#316,POSITIVE_LENGTH_MEASURE(1.0E-006),#317);
#201=CIRCLE('',#318,3.16108716);
#202=POINT_STYLE(' ',#319,POSITIVE_LENGTH_MEASURE(1.0E-006),#320);
#203=CARTESIAN_POINT('',(-4.86781025644395E-016,3.975,-54.0));
#204=SURFACE_STYLE_USAGE(.BOTH.,#321);
#205=FACE_BOUND('',#322,.T.);
#206=FACE_OUTER_BOUND('',#323,.T.);
#207=PLANE('',#324);
#208=CURVE_STYLE('',#325,POSITIVE_LENGTH_MEASURE(1.0E-006),#326);
#209=LINE('',#327,#328);
#210=CURVE_STYLE('',#329,POSITIVE_LENGTH_MEASURE(1.0E-006),#330);
#211=CIRCLE('',#331,3.81);
#212=SURFACE_STYLE_USAGE(.BOTH.,#332);
#213=FACE_OUTER_BOUND('',#333,.T.);
#214=CYLINDRICAL_SURFACE('',#334,3.81);
#215=SURFACE_STYLE_USAGE(.BOTH.,#335);
#216=FACE_OUTER_BOUND('',#336,.T.);
#217=CYLINDRICAL_SURFACE('',#337,3.81);
#218=CURVE_STYLE('',#338,POSITIVE_LENGTH_MEASURE(1.0E-006),#339);
#219=LINE('',#340,#341);
#220=SURFACE_STYLE_USAGE(.BOTH.,#342);
#221=FACE_OUTER_BOUND('',#343,.T.);
#222=CYLINDRICAL_SURFACE('',#344,3.975);
#223=CURVE_STYLE('',#345,POSITIVE_LENGTH_MEASURE(1.0E-006),#346);
#224=CIRCLE('',#347,3.81);
#225=SURFACE_STYLE_USAGE(.BOTH.,#348);
#226=FACE_OUTER_BOUND('',#349,.T.);
#227=CONICAL_SURFACE('',#350,3.48554358,1.0471975511966);
#228=CURVE_STYLE('',#351,POSITIVE_LENGTH_MEASURE(1.0E-006),#352);
#229=CIRCLE('',#353,3.975);
#230=CURVE_STYLE('',#354,POSITIVE_LENGTH_MEASURE(1.0E-006),#355);
#231=CIRCLE('',#356,3.81);
#232=POINT_STYLE(' ',#357,POSITIVE_LENGTH_MEASURE(1.0E-006),#358);
#233=CARTESIAN_POINT('',(0.0,3.74579194313172,-7.105427357601E-015));
#234=SURFACE_STYLE_USAGE(.BOTH.,#359);
#235=FACE_OUTER_BOUND('',#360,.T.);
#236=PLANE('',#361);
#237=POINT_STYLE(' ',#362,POSITIVE_LENGTH_MEASURE(1.0E-006),#363);
#238=CARTESIAN_POINT('',(4.58712061365577E-016,-3.74579194313172,-7.105427357601E-015));
#239=SURFACE_STYLE_USAGE(.BOTH.,#364);
#240=FACE_OUTER_BOUND('',#365,.T.);
#241=CONICAL_SURFACE('',#366,3.48554358,1.0471975511966);
#242=SURFACE_STYLE_USAGE(.BOTH.,#367);
#243=FACE_OUTER_BOUND('',#368,.T.);
#244=CYLINDRICAL_SURFACE('',#369,3.975);
#245=POINT_STYLE(' ',#370,POSITIVE_LENGTH_MEASURE(1.0E-006),#371);
#246=CARTESIAN_POINT('',(0.0,3.16108716,-76.2));
#247=CURVE_STYLE('',#372,POSITIVE_LENGTH_MEASURE(1.0E-006),#373);
#248=LINE('',#374,#375);
#249=CURVE_STYLE('',#376,POSITIVE_LENGTH_MEASURE(1.0E-006),#377);
#250=CIRCLE('',#378,3.81);
#251=POINT_STYLE(' ',#379,POSITIVE_LENGTH_MEASURE(1.0E-006),#380);
#252=CARTESIAN_POINT('',(4.66575020806326E-016,-3.81,-75.8253499971454));
#253=POINT_STYLE(' ',#381,POSITIVE_LENGTH_MEASURE(1.0E-006),#382);
#254=CARTESIAN_POINT('',(4.66575020806326E-016,-3.81,-54.0));
#255=SURFACE_STYLE_USAGE(.BOTH.,#383);
#256=FACE_OUTER_BOUND('',#384,.T.);
#257=PLANE('',#385);
#258=SURFACE_STYLE_USAGE(.BOTH.,#386);
#259=FACE_OUTER_BOUND('',#387,.T.);
#260=CONICAL_SURFACE('',#388,3.86039597156586,0.523598775598301);
#261=POINT_STYLE(' ',#389,POSITIVE_LENGTH_MEASURE(1.0E-006),#390);
#262=CARTESIAN_POINT('',(0.0,3.975,-0.397000000000006));
#263=POINT_STYLE(' ',#391,POSITIVE_LENGTH_MEASURE(1.0E-006),#392);
#264=CARTESIAN_POINT('',(0.0,3.81,-54.0));
#265=CURVE_STYLE('',#393,POSITIVE_LENGTH_MEASURE(1.0E-006),#394);
#266=LINE('',#395,#396);
#267=CURVE_STYLE('',#397,POSITIVE_LENGTH_MEASURE(1.0E-006),#398);
#268=CIRCLE('',#399,3.975);
#269=CURVE_STYLE('',#400,POSITIVE_LENGTH_MEASURE(1.0E-006),#401);
#270=LINE('',#402,#403);
#271=PRODUCT_CONTEXT('',#54,'mechanical');
#272=PRODUCT_DEFINITION_FORMATION_WITH_SPECIFIED_SOURCE(' ','NONE',#155,.NOT_KNOWN.);
#273=CARTESIAN_POINT('',(0.0,0.0,0.0));
#274=DIRECTION('',(0.0,0.0,1.0));
#275=DIRECTION('',(1.0,0.0,0.0));
#276= (NAMED_UNIT(#163)LENGTH_UNIT()SI_UNIT(.MILLI.,.METRE.));
#277=DRAUGHTING_PRE_DEFINED_CURVE_FONT('continuous');
#278=COLOUR_RGB('',0.498039215803146,0.498039215803146,0.498039215803146);
#279=AXIS2_PLACEMENT_3D('',#405,#406,#407);
#280=SURFACE_SIDE_STYLE('',(#408));
#281=EDGE_LOOP('',(#409,#410,#411,#412));
#282=AXIS2_PLACEMENT_3D('',#413,#414,#415);
#283=PRE_DEFINED_MARKER('');
#284=COLOUR_RGB('',0.800000011920929,0.800000011920929,0.800000011920929);
#285=DRAUGHTING_PRE_DEFINED_CURVE_FONT('continuous');
#286=COLOUR_RGB('',0.498039215803146,0.498039215803146,0.498039215803146);
#287=AXIS2_PLACEMENT_3D('',#416,#417,#418);
#288=SURFACE_SIDE_STYLE('',(#419));
#289=PRE_DEFINED_MARKER('');
#290=COLOUR_RGB('',0.498039215803146,0.498039215803146,0.498039215803146);
#291=PRE_DEFINED_MARKER('');
#292=COLOUR_RGB('',0.498039215803146,0.498039215803146,0.498039215803146);
#293=DRAUGHTING_PRE_DEFINED_CURVE_FONT('continuous');
#294=COLOUR_RGB('',0.498039215803146,0.498039215803146,0.498039215803146);
#295=AXIS2_PLACEMENT_3D('',#420,#421,#422);
#296=DRAUGHTING_PRE_DEFINED_CURVE_FONT('continuous');
#297=COLOUR_RGB('',0.498039215803146,0.498039215803146,0.498039215803146);
#298=AXIS2_PLACEMENT_3D('',#423,#424,#425);
#299=DRAUGHTING_PRE_DEFINED_CURVE_FONT('continuous');
#300=COLOUR_RGB('',0.800000011920929,0.800000011920929,0.800000011920929);
#301=CARTESIAN_POINT('',(-4.66575020806326E-016,3.81,-64.9126749985727));
#302=VECTOR('',#426,1.0);
#303=DRAUGHTING_PRE_DEFINED_CURVE_FONT('continuous');
#304=COLOUR_RGB('',0.498039215803146,0.498039215803146,0.498039215803146);
#305=CARTESIAN_POINT('',(4.86781025644395E-016,-3.975,-21.5985));
#306=VECTOR('',#427,1.0);
#307=PRE_DEFINED_MARKER('');
#308=COLOUR_RGB('',0.498039215803146,0.498039215803146,0.498039215803146);
#309=DRAUGHTING_PRE_DEFINED_CURVE_FONT('continuous');
#310=COLOUR_RGB('',0.498039215803146,0.498039215803146,0.498039215803146);
#311=AXIS2_PLACEMENT_3D('',#428,#429,#430);
#312=DRAUGHTING_PRE_DEFINED_CURVE_FONT('continuous');
#313=COLOUR_RGB('',0.800000011920929,0.800000011920929,0.800000011920929);
#314=CARTESIAN_POINT('',(4.66575020806326E-016,-3.81,-64.9126749985727));
#315=VECTOR('',#431,1.0);
#316=DRAUGHTING_PRE_DEFINED_CURVE_FONT('continuous');
#317=COLOUR_RGB('',0.498039215803146,0.498039215803146,0.498039215803146);
#318=AXIS2_PLACEMENT_3D('',#432,#433,#434);
#319=PRE_DEFINED_MARKER('');
#320=COLOUR_RGB('',0.498039215803146,0.498039215803146,0.498039215803146);
#321=SURFACE_SIDE_STYLE('',(#435));
#322=EDGE_LOOP('',(#436,#437));
#323=EDGE_LOOP('',(#438,#439));
#324=AXIS2_PLACEMENT_3D('',#440,#441,#442);
#325=DRAUGHTING_PRE_DEFINED_CURVE_FONT('continuous');
#326=COLOUR_RGB('',0.498039215803146,0.498039215803146,0.498039215803146);
#327=CARTESIAN_POINT('',(-4.86781025644395E-016,3.975,-21.5985));
#328=VECTOR('',#443,1.0);
#329=DRAUGHTING_PRE_DEFINED_CURVE_FONT('continuous');
#330=COLOUR_RGB('',0.800000011920929,0.800000011920929,0.800000011920929);
#331=AXIS2_PLACEMENT_3D('',#444,#445,#446);
#332=SURFACE_SIDE_STYLE('',(#447));
#333=EDGE_LOOP('',(#448,#449,#450,#451));
#334=AXIS2_PLACEMENT_3D('',#452,#453,#454);
#335=SURFACE_SIDE_STYLE('',(#455));
#336=EDGE_LOOP('',(#456,#457,#458,#459));
#337=AXIS2_PLACEMENT_3D('',#460,#461,#462);
#338=DRAUGHTING_PRE_DEFINED_CURVE_FONT('continuous');
#339=COLOUR_RGB('',0.800000011920929,0.800000011920929,0.800000011920929);
#340=CARTESIAN_POINT('',(-4.2684188145928E-016,3.48554358,-76.0126749985727));
#341=VECTOR('',#463,1.0);
#342=SURFACE_SIDE_STYLE('',(#464));
#343=EDGE_LOOP('',(#465,#466,#467,#468));
#344=AXIS2_PLACEMENT_3D('',#469,#470,#471);
#345=DRAUGHTING_PRE_DEFINED_CURVE_FONT('continuous');
#346=COLOUR_RGB('',0.800000011920929,0.800000011920929,0.800000011920929);
#347=AXIS2_PLACEMENT_3D('',#472,#473,#474);
#348=SURFACE_SIDE_STYLE('',(#475));
#349=EDGE_LOOP('',(#476,#477,#478,#479));
#350=AXIS2_PLACEMENT_3D('',#480,#481,#482);
#351=DRAUGHTING_PRE_DEFINED_CURVE_FONT('continuous');
#352=COLOUR_RGB('',0.498039215803146,0.498039215803146,0.498039215803146);
#353=AXIS2_PLACEMENT_3D('',#483,#484,#485);
#354=DRAUGHTING_PRE_DEFINED_CURVE_FONT('continuous');
#355=COLOUR_RGB('',0.498039215803146,0.498039215803146,0.498039215803146);
#356=AXIS2_PLACEMENT_3D('',#486,#487,#488);
#357=PRE_DEFINED_MARKER('');
#358=COLOUR_RGB('',0.498039215803146,0.498039215803146,0.498039215803146);
#359=SURFACE_SIDE_STYLE('',(#489));
#360=EDGE_LOOP('',(#490,#491));
#361=AXIS2_PLACEMENT_3D('',#492,#493,#494);
#362=PRE_DEFINED_MARKER('');
#363=COLOUR_RGB('',0.498039215803146,0.498039215803146,0.498039215803146);
#364=SURFACE_SIDE_STYLE('',(#495));
#365=EDGE_LOOP('',(#496,#497,#498,#499));
#366=AXIS2_PLACEMENT_3D('',#500,#501,#502);
#367=SURFACE_SIDE_STYLE('',(#503));
#368=EDGE_LOOP('',(#504,#505,#506,#507));
#369=AXIS2_PLACEMENT_3D('',#508,#509,#510);
#370=PRE_DEFINED_MARKER('');
#371=COLOUR_RGB('',0.498039215803146,0.498039215803146,0.498039215803146);
#372=DRAUGHTING_PRE_DEFINED_CURVE_FONT('continuous');
#373=COLOUR_RGB('',0.498039215803146,0.498039215803146,0.498039215803146);
#374=CARTESIAN_POINT('',(4.72746543504986E-016,-3.86039597156586,-0.19850000000001));
#375=VECTOR('',#511,1.0);
#376=DRAUGHTING_PRE_DEFINED_CURVE_FONT('continuous');
#377=COLOUR_RGB('',0.498039215803146,0.498039215803146,0.498039215803146);
#378=AXIS2_PLACEMENT_3D('',#512,#513,#514);
#379=PRE_DEFINED_MARKER('');
#380=COLOUR_RGB('',0.800000011920929,0.800000011920929,0.800000011920929);
#381=PRE_DEFINED_MARKER('');
#382=COLOUR_RGB('',0.498039215803146,0.498039215803146,0.498039215803146);
#383=SURFACE_SIDE_STYLE('',(#515));
#384=EDGE_LOOP('',(#516,#517));
#385=AXIS2_PLACEMENT_3D('',#518,#519,#520);
#386=SURFACE_SIDE_STYLE('',(#521));
#387=EDGE_LOOP('',(#522,#523,#524,#525));
#388=AXIS2_PLACEMENT_3D('',#526,#527,#528);
#389=PRE_DEFINED_MARKER('');
#390=COLOUR_RGB('',0.498039215803146,0.498039215803146,0.498039215803146);
#391=PRE_DEFINED_MARKER('');
#392=COLOUR_RGB('',0.498039215803146,0.498039215803146,0.498039215803146);
#393=DRAUGHTING_PRE_DEFINED_CURVE_FONT('continuous');
#394=COLOUR_RGB('',0.498039215803146,0.498039215803146,0.498039215803146);
#395=CARTESIAN_POINT('',(-4.72746543504986E-016,3.86039597156586,-0.19850000000001));
#396=VECTOR('',#529,1.0);
#397=DRAUGHTING_PRE_DEFINED_CURVE_FONT('continuous');
#398=COLOUR_RGB('',0.498039215803146,0.498039215803146,0.498039215803146);
#399=AXIS2_PLACEMENT_3D('',#530,#531,#532);
#400=DRAUGHTING_PRE_DEFINED_CURVE_FONT('continuous');
#401=COLOUR_RGB('',0.800000011920929,0.800000011920929,0.800000011920929);
#402=CARTESIAN_POINT('',(4.2684188145928E-016,-3.48554358,-76.0126749985727));
#403=VECTOR('',#533,1.0);
#405=CARTESIAN_POINT('',(0.0,0.0,-54.0));
#406=DIRECTION('',(0.0,0.0,-1.0));
#407=DIRECTION('',(0.0,-1.0,0.0));
#408=SURFACE_STYLE_FILL_AREA(#534);
#409=ORIENTED_EDGE('',*,*,#150,.F.);
#410=ORIENTED_EDGE('',*,*,#92,.T.);
#411=ORIENTED_EDGE('',*,*,#134,.F.);
#412=ORIENTED_EDGE('',*,*,#118,.F.);
#413=CARTESIAN_POINT('',(0.0,0.0,-0.19850000000001));
#414=DIRECTION('',(0.0,-0.0,-1.0));
#415=DIRECTION('',(0.0,1.0,0.0));
#416=CARTESIAN_POINT('',(0.0,0.0,-0.397000000000006));
#417=DIRECTION('',(0.0,0.0,-1.0));
#418=DIRECTION('',(0.0,1.0,0.0));
#419=SURFACE_STYLE_FILL_AREA(#535);
#420=CARTESIAN_POINT('',(0.0,0.0,-76.2));
#421=DIRECTION('',(0.0,0.0,-1.0));
#422=DIRECTION('',(0.0,1.0,0.0));
#423=CARTESIAN_POINT('',(0.0,0.0,-7.105427357601E-015));
#424=DIRECTION('',(0.0,0.0,-1.0));
#425=DIRECTION('',(0.0,1.0,0.0));
#426=DIRECTION('',(0.0,0.0,-1.0));
#427=DIRECTION('',(-0.0,-0.0,1.0));
#428=CARTESIAN_POINT('',(0.0,0.0,-7.105427357601E-015));
#429=DIRECTION('',(0.0,0.0,-1.0));
#430=DIRECTION('',(0.0,1.0,0.0));
#431=DIRECTION('',(-0.0,-0.0,1.0));
#432=CARTESIAN_POINT('',(0.0,0.0,-76.2));
#433=DIRECTION('',(0.0,0.0,-1.0));
#434=DIRECTION('',(0.0,1.0,0.0));
#435=SURFACE_STYLE_FILL_AREA(#536);
#436=ORIENTED_EDGE('',*,*,#136,.T.);
#437=ORIENTED_EDGE('',*,*,#120,.T.);
#438=ORIENTED_EDGE('',*,*,#152,.T.);
#439=ORIENTED_EDGE('',*,*,#68,.T.);
#440=CARTESIAN_POINT('',(0.0,0.0,-54.0));
#441=DIRECTION('',(0.0,0.0,-1.0));
#442=DIRECTION('',(0.0,-1.0,0.0));
#443=DIRECTION('',(0.0,0.0,-1.0));
#444=CARTESIAN_POINT('',(0.0,0.0,-75.8253499971454));
#445=DIRECTION('',(0.0,0.0,-1.0));
#446=DIRECTION('',(0.0,1.0,0.0));
#447=SURFACE_STYLE_FILL_AREA(#537);
#448=ORIENTED_EDGE('',*,*,#86,.F.);
#449=ORIENTED_EDGE('',*,*,#120,.F.);
#450=ORIENTED_EDGE('',*,*,#94,.F.);
#451=ORIENTED_EDGE('',*,*,#104,.F.);
#452=CARTESIAN_POINT('',(0.0,0.0,-64.9126749985727));
#453=DIRECTION('',(-0.0,-0.0,1.0));
#454=DIRECTION('',(0.0,1.0,0.0));
#455=SURFACE_STYLE_FILL_AREA(#538);
#456=ORIENTED_EDGE('',*,*,#86,.T.);
#457=ORIENTED_EDGE('',*,*,#114,.F.);
#458=ORIENTED_EDGE('',*,*,#94,.T.);
#459=ORIENTED_EDGE('',*,*,#136,.F.);
#460=CARTESIAN_POINT('',(0.0,0.0,-64.9126749985727));
#461=DIRECTION('',(-0.0,-0.0,1.0));
#462=DIRECTION('',(0.0,1.0,0.0));
#463=DIRECTION('',(1.06054021204601E-016,-0.866025403784439,-0.5));
#464=SURFACE_STYLE_FILL_AREA(#539);
#465=ORIENTED_EDGE('',*,*,#102,.T.);
#466=ORIENTED_EDGE('',*,*,#152,.F.);
#467=ORIENTED_EDGE('',*,*,#88,.T.);
#468=ORIENTED_EDGE('',*,*,#74,.T.);
#469=CARTESIAN_POINT('',(0.0,0.0,-21.5985));
#470=DIRECTION('',(-0.0,-0.0,1.0));
#471=DIRECTION('',(0.0,1.0,0.0));
#472=CARTESIAN_POINT('',(0.0,0.0,-75.8253499971454));
#473=DIRECTION('',(0.0,0.0,-1.0));
#474=DIRECTION('',(0.0,1.0,0.0));
#475=SURFACE_STYLE_FILL_AREA(#540);
#476=ORIENTED_EDGE('',*,*,#110,.T.);
#477=ORIENTED_EDGE('',*,*,#96,.F.);
#478=ORIENTED_EDGE('',*,*,#154,.T.);
#479=ORIENTED_EDGE('',*,*,#114,.T.);
#480=CARTESIAN_POINT('',(0.0,0.0,-76.0126749985727));
#481=DIRECTION('',(-0.0,-0.0,1.0));
#482=DIRECTION('',(0.0,1.0,0.0));
#483=CARTESIAN_POINT('',(0.0,0.0,-0.397000000000006));
#484=DIRECTION('',(0.0,0.0,-1.0));
#485=DIRECTION('',(0.0,1.0,0.0));
#486=CARTESIAN_POINT('',(0.0,0.0,-54.0));
#487=DIRECTION('',(0.0,-0.0,1.0));
#488=DIRECTION('',(0.0,1.0,0.0));
#489=SURFACE_STYLE_FILL_AREA(#541);
#490=ORIENTED_EDGE('',*,*,#92,.F.);
#491=ORIENTED_EDGE('',*,*,#84,.F.);
#492=CARTESIAN_POINT('',(0.0,1.87289597156586,-7.105427357601E-015));
#493=DIRECTION('',(-0.0,0.0,1.0));
#494=DIRECTION('',(0.0,-1.0,0.0));
#495=SURFACE_STYLE_FILL_AREA(#542);
#496=ORIENTED_EDGE('',*,*,#110,.F.);
#497=ORIENTED_EDGE('',*,*,#104,.T.);
#498=ORIENTED_EDGE('',*,*,#154,.F.);
#499=ORIENTED_EDGE('',*,*,#82,.F.);
#500=CARTESIAN_POINT('',(0.0,0.0,-76.0126749985727));
#501=DIRECTION('',(-0.0,-0.0,1.0));
#502=DIRECTION('',(0.0,1.0,0.0));
#503=SURFACE_STYLE_FILL_AREA(#543);
#504=ORIENTED_EDGE('',*,*,#102,.F.);
#505=ORIENTED_EDGE('',*,*,#118,.T.);
#506=ORIENTED_EDGE('',*,*,#88,.F.);
#507=ORIENTED_EDGE('',*,*,#68,.F.);
#508=CARTESIAN_POINT('',(0.0,0.0,-21.5985));
#509=DIRECTION('',(-0.0,-0.0,1.0));
#510=DIRECTION('',(0.0,1.0,0.0));
#511=DIRECTION('',(-6.12303176911191E-017,0.500000000000002,0.866025403784438));
#512=CARTESIAN_POINT('',(0.0,0.0,-54.0));
#513=DIRECTION('',(0.0,-0.0,1.0));
#514=DIRECTION('',(0.0,1.0,0.0));
#515=SURFACE_STYLE_FILL_AREA(#544);
#516=ORIENTED_EDGE('',*,*,#82,.T.);
#517=ORIENTED_EDGE('',*,*,#96,.T.);
#518=CARTESIAN_POINT('',(0.0,1.58054358,-76.2));
#519=DIRECTION('',(0.0,0.0,-1.0));
#520=DIRECTION('',(0.0,1.0,0.0));
#521=SURFACE_STYLE_FILL_AREA(#545);
#522=ORIENTED_EDGE('',*,*,#150,.T.);
#523=ORIENTED_EDGE('',*,*,#74,.F.);
#524=ORIENTED_EDGE('',*,*,#134,.T.);
#525=ORIENTED_EDGE('',*,*,#84,.T.);
#526=CARTESIAN_POINT('',(0.0,0.0,-0.19850000000001));
#527=DIRECTION('',(0.0,-0.0,-1.0));
#528=DIRECTION('',(0.0,1.0,0.0));
#529=DIRECTION('',(-6.12303176911191E-017,0.500000000000002,-0.866025403784438));
#530=CARTESIAN_POINT('',(0.0,0.0,-54.0));
#531=DIRECTION('',(0.0,0.0,-1.0));
#532=DIRECTION('',(0.0,-1.0,0.0));
#533=DIRECTION('',(1.06054021204601E-016,-0.866025403784439,0.5));
#534=FILL_AREA_STYLE('',(#546));
#535=FILL_AREA_STYLE('',(#547));
#536=FILL_AREA_STYLE('',(#548));
#537=FILL_AREA_STYLE('',(#549));
#538=FILL_AREA_STYLE('',(#550));
#539=FILL_AREA_STYLE('',(#551));
#540=FILL_AREA_STYLE('',(#552));
#541=FILL_AREA_STYLE('',(#553));
#542=FILL_AREA_STYLE('',(#554));
#543=FILL_AREA_STYLE('',(#555));
#544=FILL_AREA_STYLE('',(#556));
#545=FILL_AREA_STYLE('',(#557));
#546=FILL_AREA_STYLE_COLOUR('',#558);
#547=FILL_AREA_STYLE_COLOUR('',#559);
#548=FILL_AREA_STYLE_COLOUR('',#560);
#549=FILL_AREA_STYLE_COLOUR('',#561);
#550=FILL_AREA_STYLE_COLOUR('',#562);
#551=FILL_AREA_STYLE_COLOUR('',#563);
#552=FILL_AREA_STYLE_COLOUR('',#564);
#553=FILL_AREA_STYLE_COLOUR('',#565);
#554=FILL_AREA_STYLE_COLOUR('',#566);
#555=FILL_AREA_STYLE_COLOUR('',#567);
#556=FILL_AREA_STYLE_COLOUR('',#568);
#557=FILL_AREA_STYLE_COLOUR('',#569);
#558=COLOUR_RGB('',0.498039215803146,0.498039215803146,0.498039215803146);
#559=COLOUR_RGB('',0.498039215803146,0.498039215803146,0.498039215803146);
#560=COLOUR_RGB('',0.498039215803146,0.498039215803146,0.498039215803146);
#561=COLOUR_RGB('',0.800000011920929,0.800000011920929,0.800000011920929);
#562=COLOUR_RGB('',0.800000011920929,0.800000011920929,0.800000011920929);
#563=COLOUR_RGB('',0.498039215803146,0.498039215803146,0.498039215803146);
#564=COLOUR_RGB('',0.800000011920929,0.800000011920929,0.800000011920929);
#565=COLOUR_RGB('',0.498039215803146,0.498039215803146,0.498039215803146);
#566=COLOUR_RGB('',0.800000011920929,0.800000011920929,0.800000011920929);
#567=COLOUR_RGB('',0.498039215803146,0.498039215803146,0.498039215803146);
#568=COLOUR_RGB('',0.498039215803146,0.498039215803146,0.498039215803146);
#569=COLOUR_RGB('',0.498039215803146,0.498039215803146,0.498039215803146);
#570=AXIS2_PLACEMENT_3D('PCS',#571,#572,#573);
#571=CARTESIAN_POINT('',(0.0,0.0,0.0));
#572=DIRECTION('',(0.0,0.0,1.0));
#573=DIRECTION('',(1.0,0.0,0.0));
#574=AXIS2_PLACEMENT_3D('CIP',#575,#576,#577);
#575=CARTESIAN_POINT('',(0.0,0.0,-76.2));
#576=DIRECTION('',(0.0,0.0,1.0));
#577=DIRECTION('',(1.0,0.0,0.0));
#578=AXIS2_PLACEMENT_3D('CRP',#579,#580,#581);
#579=CARTESIAN_POINT('',(-3.81,0.0,-76.2));
#580=DIRECTION('',(0.0,0.0,1.0));
#581=DIRECTION('',(1.0,0.0,0.0));
#582=AXIS2_PLACEMENT_3D('MCS',#583,#584,#585);
#583=CARTESIAN_POINT('',(0.0,0.0,-42.8));
#584=DIRECTION('',(0.0,0.0,1.0));
#585=DIRECTION('',(1.0,0.0,0.0));
#586=CONSTRUCTIVE_GEOMETRY_REPRESENTATION_RELATIONSHIP('coordinate systems',$,#58,#587);
#587=CONSTRUCTIVE_GEOMETRY_REPRESENTATION('coordinate systems',(#570,#574,#578,#582),#6);
ENDSEC;
END-ISO-10303-21;
