ISO-10303-21;
HEADER;
FILE_DESCRIPTION(('no description'),'unknown implementation level');
FILE_NAME('solid5SD39XVFuPy_oRdVm5lvzRhczrw_1.STP','  ',('CIMSOURCE GmbH'),('CADClick - KiM GmbH - www.kimweb.de'),'unknown preprocess','ACIS','unknown authorization');
FILE_SCHEMA(('automotive_design'));
ENDSEC;
DATA;
#1=MECHANICAL_DESIGN_GEOMETRIC_PRESENTATION_REPRESENTATION(' ',(#10,#11,#12,#13,#14,#15,#16,#17,#18,#19,#20,#21,#22,#23,#24,#25,#26,#27,#28,#29,#30,#31,#32,#33,#34,#35,#36,#37,#38,#39,#40,#41,#42,#43,#44,#45,#46,#47,#48,#49,#50,#51,#52,#53),#6);
#2=PRODUCT_DEFINITION_CONTEXT('',#54,'design');
#3=APPLICATION_PROTOCOL_DEFINITION('INTERNATIONAL STANDARD','automotive_design',1994,#54);
#4=PRODUCT_CATEGORY_RELATIONSHIP('NONE','NONE',#55,#56);
#5=SHAPE_DEFINITION_REPRESENTATION(#57,#58);
#6= (GEOMETRIC_REPRESENTATION_CONTEXT(3)GLOBAL_UNCERTAINTY_ASSIGNED_CONTEXT((#61))GLOBAL_UNIT_ASSIGNED_CONTEXT((#63,#64,#65))REPRESENTATION_CONTEXT('NONE','WORKSPACE'));
#10=STYLED_ITEM('',(#67),#68);
#11=STYLED_ITEM('',(#69),#70);
#12=STYLED_ITEM('',(#71),#72);
#13=STYLED_ITEM('',(#73),#74);
#14=STYLED_ITEM('',(#75),#76);
#15=STYLED_ITEM('',(#77),#78);
#16=STYLED_ITEM('',(#79),#80);
#17=STYLED_ITEM('',(#81),#82);
#18=STYLED_ITEM('',(#83),#84);
#19=STYLED_ITEM('',(#85),#86);
#20=STYLED_ITEM('',(#87),#88);
#21=STYLED_ITEM('',(#89),#90);
#22=STYLED_ITEM('',(#91),#92);
#23=STYLED_ITEM('',(#93),#94);
#24=STYLED_ITEM('',(#95),#96);
#25=STYLED_ITEM('',(#97),#98);
#26=STYLED_ITEM('',(#99),#100);
#27=STYLED_ITEM('',(#101),#102);
#28=STYLED_ITEM('',(#103),#104);
#29=STYLED_ITEM('',(#105),#106);
#30=STYLED_ITEM('',(#107),#108);
#31=STYLED_ITEM('',(#109),#110);
#32=STYLED_ITEM('',(#111),#112);
#33=STYLED_ITEM('',(#113),#114);
#34=STYLED_ITEM('',(#115),#116);
#35=STYLED_ITEM('',(#117),#118);
#36=STYLED_ITEM('',(#119),#120);
#37=STYLED_ITEM('',(#121),#122);
#38=STYLED_ITEM('',(#123),#124);
#39=STYLED_ITEM('',(#125),#126);
#40=STYLED_ITEM('',(#127),#128);
#41=STYLED_ITEM('',(#129),#130);
#42=STYLED_ITEM('',(#131),#132);
#43=STYLED_ITEM('',(#133),#134);
#44=STYLED_ITEM('',(#135),#136);
#45=STYLED_ITEM('',(#137),#138);
#46=STYLED_ITEM('',(#139),#140);
#47=STYLED_ITEM('',(#141),#142);
#48=STYLED_ITEM('',(#143),#144);
#49=STYLED_ITEM('',(#145),#146);
#50=STYLED_ITEM('',(#147),#148);
#51=STYLED_ITEM('',(#149),#150);
#52=STYLED_ITEM('',(#151),#152);
#53=STYLED_ITEM('',(#153),#154);
#54=APPLICATION_CONTEXT(' ');
#55=PRODUCT_CATEGORY('part','NONE');
#56=PRODUCT_RELATED_PRODUCT_CATEGORY('detail',' ',(#155));
#57=PRODUCT_DEFINITION_SHAPE('NONE','NONE',#156);
#58=ADVANCED_BREP_SHAPE_REPRESENTATION('1',(#144,#157),#6);
#61=UNCERTAINTY_MEASURE_WITH_UNIT(LENGTH_MEASURE(1.0E-006),#63,'','');
#63= (CONVERSION_BASED_UNIT('MILLIMETRE',#160)LENGTH_UNIT()NAMED_UNIT(#163));
#64= (NAMED_UNIT(#165)PLANE_ANGLE_UNIT()SI_UNIT($,.RADIAN.));
#65= (NAMED_UNIT(#165)SOLID_ANGLE_UNIT()SI_UNIT($,.STERADIAN.));
#67=PRESENTATION_STYLE_ASSIGNMENT((#171));
#68=ADVANCED_FACE('',(#172),#173,.T.);
#69=PRESENTATION_STYLE_ASSIGNMENT((#174));
#70=EDGE_CURVE('',#140,#114,#175,.T.);
#71=PRESENTATION_STYLE_ASSIGNMENT((#176));
#72=ADVANCED_FACE('',(#177),#178,.T.);
#73=PRESENTATION_STYLE_ASSIGNMENT((#179));
#74=EDGE_CURVE('',#126,#150,#180,.T.);
#75=PRESENTATION_STYLE_ASSIGNMENT((#181));
#76=EDGE_CURVE('',#102,#150,#182,.T.);
#77=PRESENTATION_STYLE_ASSIGNMENT((#183));
#78=ADVANCED_FACE('',(#184),#185,.T.);
#79=PRESENTATION_STYLE_ASSIGNMENT((#186));
#80=ADVANCED_FACE('',(#187,#188),#189,.T.);
#81=PRESENTATION_STYLE_ASSIGNMENT((#190));
#82=ADVANCED_FACE('',(#191),#192,.T.);
#83=PRESENTATION_STYLE_ASSIGNMENT((#193));
#84=VERTEX_POINT('',#194);
#85=PRESENTATION_STYLE_ASSIGNMENT((#195));
#86=EDGE_CURVE('',#140,#84,#196,.T.);
#87=PRESENTATION_STYLE_ASSIGNMENT((#197));
#88=VERTEX_POINT('',#198);
#89=PRESENTATION_STYLE_ASSIGNMENT((#199));
#90=ADVANCED_FACE('',(#200),#201,.T.);
#91=PRESENTATION_STYLE_ASSIGNMENT((#202));
#92=VERTEX_POINT('',#203);
#93=PRESENTATION_STYLE_ASSIGNMENT((#204));
#94=EDGE_CURVE('',#92,#88,#205,.T.);
#95=PRESENTATION_STYLE_ASSIGNMENT((#206));
#96=EDGE_CURVE('',#150,#102,#207,.T.);
#97=PRESENTATION_STYLE_ASSIGNMENT((#208));
#98=VERTEX_POINT('',#209);
#99=PRESENTATION_STYLE_ASSIGNMENT((#210));
#100=EDGE_CURVE('',#102,#98,#211,.T.);
#101=PRESENTATION_STYLE_ASSIGNMENT((#212));
#102=VERTEX_POINT('',#213);
#103=PRESENTATION_STYLE_ASSIGNMENT((#214));
#104=EDGE_CURVE('',#134,#102,#215,.T.);
#105=PRESENTATION_STYLE_ASSIGNMENT((#216));
#106=ADVANCED_FACE('',(#217),#218,.T.);
#107=PRESENTATION_STYLE_ASSIGNMENT((#219));
#108=EDGE_CURVE('',#150,#154,#220,.T.);
#109=PRESENTATION_STYLE_ASSIGNMENT((#221));
#110=ADVANCED_FACE('',(#222),#223,.T.);
#111=PRESENTATION_STYLE_ASSIGNMENT((#224));
#112=ADVANCED_FACE('',(#225),#226,.T.);
#113=PRESENTATION_STYLE_ASSIGNMENT((#227));
#114=VERTEX_POINT('',#228);
#115=PRESENTATION_STYLE_ASSIGNMENT((#229));
#116=ADVANCED_FACE('',(#230),#231,.T.);
#117=PRESENTATION_STYLE_ASSIGNMENT((#232));
#118=EDGE_CURVE('',#88,#140,#233,.T.);
#119=PRESENTATION_STYLE_ASSIGNMENT((#234));
#120=EDGE_CURVE('',#114,#92,#235,.T.);
#121=PRESENTATION_STYLE_ASSIGNMENT((#236));
#122=EDGE_CURVE('',#134,#154,#237,.T.);
#123=PRESENTATION_STYLE_ASSIGNMENT((#238));
#124=EDGE_CURVE('',#114,#140,#239,.T.);
#125=PRESENTATION_STYLE_ASSIGNMENT((#240));
#126=VERTEX_POINT('',#241);
#127=PRESENTATION_STYLE_ASSIGNMENT((#242));
#128=VERTEX_POINT('',#243);
#129=PRESENTATION_STYLE_ASSIGNMENT((#244));
#130=EDGE_CURVE('',#154,#134,#245,.T.);
#131=PRESENTATION_STYLE_ASSIGNMENT((#246));
#132=EDGE_CURVE('',#98,#126,#247,.T.);
#133=PRESENTATION_STYLE_ASSIGNMENT((#248));
#134=VERTEX_POINT('',#249);
#135=PRESENTATION_STYLE_ASSIGNMENT((#250));
#136=ADVANCED_FACE('',(#251),#252,.T.);
#137=PRESENTATION_STYLE_ASSIGNMENT((#253));
#138=EDGE_CURVE('',#88,#92,#254,.T.);
#139=PRESENTATION_STYLE_ASSIGNMENT((#255));
#140=VERTEX_POINT('',#256);
#141=PRESENTATION_STYLE_ASSIGNMENT((#257));
#142=EDGE_CURVE('',#126,#98,#258,.T.);
#143=PRESENTATION_STYLE_ASSIGNMENT((#259));
#144=MANIFOLD_SOLID_BREP('1',#260);
#145=PRESENTATION_STYLE_ASSIGNMENT((#261));
#146=EDGE_CURVE('',#84,#128,#262,.T.);
#147=PRESENTATION_STYLE_ASSIGNMENT((#263));
#148=EDGE_CURVE('',#128,#84,#264,.T.);
#149=PRESENTATION_STYLE_ASSIGNMENT((#265));
#150=VERTEX_POINT('',#266);
#151=PRESENTATION_STYLE_ASSIGNMENT((#267));
#152=EDGE_CURVE('',#128,#114,#268,.T.);
#153=PRESENTATION_STYLE_ASSIGNMENT((#269));
#154=VERTEX_POINT('',#270);
#155=PRODUCT('1','1','PART-1-DESC',(#271));
#156=PRODUCT_DEFINITION('NONE','NONE',#272,#2);
#157=AXIS2_PLACEMENT_3D('',#273,#274,#275);
#160=LENGTH_MEASURE_WITH_UNIT(LENGTH_MEASURE(1.0),#276);
#163=DIMENSIONAL_EXPONENTS(1.0,0.0,0.0,0.0,0.0,0.0,0.0);
#165=DIMENSIONAL_EXPONENTS(0.0,0.0,0.0,0.0,0.0,0.0,0.0);
#171=SURFACE_STYLE_USAGE(.BOTH.,#277);
#172=FACE_OUTER_BOUND('',#278,.T.);
#173=CYLINDRICAL_SURFACE('',#279,4.7625);
#174=CURVE_STYLE('',#280,POSITIVE_LENGTH_MEASURE(1.0E-006),#281);
#175=CIRCLE('',#282,4.699);
#176=SURFACE_STYLE_USAGE(.BOTH.,#283);
#177=FACE_OUTER_BOUND('',#284,.T.);
#178=CONICAL_SURFACE('',#285,4.100003535,1.0471975511966);
#179=CURVE_STYLE('',#286,POSITIVE_LENGTH_MEASURE(1.0E-006),#287);
#180=LINE('',#288,#289);
#181=CURVE_STYLE('',#290,POSITIVE_LENGTH_MEASURE(1.0E-006),#291);
#182=CIRCLE('',#292,4.7625);
#183=SURFACE_STYLE_USAGE(.BOTH.,#293);
#184=FACE_OUTER_BOUND('',#294,.T.);
#185=CONICAL_SURFACE('',#295,4.53329194313172,0.523598775598301);
#186=SURFACE_STYLE_USAGE(.BOTH.,#296);
#187=FACE_BOUND('',#297,.T.);
#188=FACE_OUTER_BOUND('',#298,.T.);
#189=PLANE('',#299);
#190=SURFACE_STYLE_USAGE(.BOTH.,#300);
#191=FACE_OUTER_BOUND('',#301,.T.);
#192=CYLINDRICAL_SURFACE('',#302,4.7625);
#193=POINT_STYLE(' ',#303,POSITIVE_LENGTH_MEASURE(1.0E-006),#304);
#194=CARTESIAN_POINT('',(0.0,3.50100707,-76.2));
#195=CURVE_STYLE('',#305,POSITIVE_LENGTH_MEASURE(1.0E-006),#306);
#196=LINE('',#307,#308);
#197=POINT_STYLE(' ',#309,POSITIVE_LENGTH_MEASURE(1.0E-006),#310);
#198=CARTESIAN_POINT('',(0.0,4.699,-48.8));
#199=SURFACE_STYLE_USAGE(.BOTH.,#311);
#200=FACE_OUTER_BOUND('',#312,.T.);
#201=CONICAL_SURFACE('',#313,4.100003535,1.0471975511966);
#202=POINT_STYLE(' ',#314,POSITIVE_LENGTH_MEASURE(1.0E-006),#315);
#203=CARTESIAN_POINT('',(5.75442525661135E-016,-4.699,-48.8));
#204=CURVE_STYLE('',#316,POSITIVE_LENGTH_MEASURE(1.0E-006),#317);
#205=CIRCLE('',#318,4.699);
#206=CURVE_STYLE('',#319,POSITIVE_LENGTH_MEASURE(1.0E-006),#320);
#207=CIRCLE('',#321,4.7625);
#208=POINT_STYLE(' ',#322,POSITIVE_LENGTH_MEASURE(1.0E-006),#323);
#209=CARTESIAN_POINT('',(-5.83218776007907E-016,4.7625,-48.8));
#210=CURVE_STYLE('',#324,POSITIVE_LENGTH_MEASURE(1.0E-006),#325);
#211=LINE('',#326,#327);
#212=POINT_STYLE(' ',#328,POSITIVE_LENGTH_MEASURE(1.0E-006),#329);
#213=CARTESIAN_POINT('',(0.0,4.7625,-0.794000000000004));
#214=CURVE_STYLE('',#330,POSITIVE_LENGTH_MEASURE(1.0E-006),#331);
#215=LINE('',#332,#333);
#216=SURFACE_STYLE_USAGE(.BOTH.,#334);
#217=FACE_OUTER_BOUND('',#335,.T.);
#218=CYLINDRICAL_SURFACE('',#336,4.699);
#219=CURVE_STYLE('',#337,POSITIVE_LENGTH_MEASURE(1.0E-006),#338);
#220=LINE('',#339,#340);
#221=SURFACE_STYLE_USAGE(.BOTH.,#341);
#222=FACE_OUTER_BOUND('',#342,.T.);
#223=CYLINDRICAL_SURFACE('',#343,4.699);
#224=SURFACE_STYLE_USAGE(.BOTH.,#344);
#225=FACE_OUTER_BOUND('',#345,.T.);
#226=PLANE('',#346);
#227=POINT_STYLE(' ',#347,POSITIVE_LENGTH_MEASURE(1.0E-006),#348);
#228=CARTESIAN_POINT('',(5.75442525661135E-016,-4.699,-75.5083384593772));
#229=SURFACE_STYLE_USAGE(.BOTH.,#349);
#230=FACE_OUTER_BOUND('',#350,.T.);
#231=CONICAL_SURFACE('',#351,4.53329194313172,0.523598775598301);
#232=CURVE_STYLE('',#352,POSITIVE_LENGTH_MEASURE(1.0E-006),#353);
#233=LINE('',#354,#355);
#234=CURVE_STYLE('',#356,POSITIVE_LENGTH_MEASURE(1.0E-006),#357);
#235=LINE('',#358,#359);
#236=CURVE_STYLE('',#360,POSITIVE_LENGTH_MEASURE(1.0E-006),#361);
#237=CIRCLE('',#362,4.30408388626344);
#238=CURVE_STYLE('',#363,POSITIVE_LENGTH_MEASURE(1.0E-006),#364);
#239=CIRCLE('',#365,4.699);
#240=POINT_STYLE(' ',#366,POSITIVE_LENGTH_MEASURE(1.0E-006),#367);
#241=CARTESIAN_POINT('',(0.0,-4.7625,-48.8));
#242=POINT_STYLE(' ',#368,POSITIVE_LENGTH_MEASURE(1.0E-006),#369);
#243=CARTESIAN_POINT('',(4.28735550269906E-016,-3.50100707,-76.2));
#244=CURVE_STYLE('',#370,POSITIVE_LENGTH_MEASURE(1.0E-006),#371);
#245=CIRCLE('',#372,4.30408388626344);
#246=CURVE_STYLE('',#373,POSITIVE_LENGTH_MEASURE(1.0E-006),#374);
#247=CIRCLE('',#375,4.7625);
#248=POINT_STYLE(' ',#376,POSITIVE_LENGTH_MEASURE(1.0E-006),#377);
#249=CARTESIAN_POINT('',(0.0,4.30408388626344,-7.105427357601E-015));
#250=SURFACE_STYLE_USAGE(.BOTH.,#378);
#251=FACE_OUTER_BOUND('',#379,.T.);
#252=PLANE('',#380);
#253=CURVE_STYLE('',#381,POSITIVE_LENGTH_MEASURE(1.0E-006),#382);
#254=CIRCLE('',#383,4.699);
#255=POINT_STYLE(' ',#384,POSITIVE_LENGTH_MEASURE(1.0E-006),#385);
#256=CARTESIAN_POINT('',(0.0,4.699,-75.5083384593772));
#257=CURVE_STYLE('',#386,POSITIVE_LENGTH_MEASURE(1.0E-006),#387);
#258=CIRCLE('',#388,4.7625);
#259=SURFACE_STYLE_USAGE(.BOTH.,#389);
#260=CLOSED_SHELL('',(#68,#116,#90,#110,#106,#72,#80,#136,#78,#82,#112));
#261=CURVE_STYLE('',#390,POSITIVE_LENGTH_MEASURE(1.0E-006),#391);
#262=CIRCLE('',#392,3.50100707);
#263=CURVE_STYLE('',#393,POSITIVE_LENGTH_MEASURE(1.0E-006),#394);
#264=CIRCLE('',#395,3.50100707);
#265=POINT_STYLE(' ',#396,POSITIVE_LENGTH_MEASURE(1.0E-006),#397);
#266=CARTESIAN_POINT('',(5.83218776007907E-016,-4.7625,-0.794000000000004));
#267=CURVE_STYLE('',#398,POSITIVE_LENGTH_MEASURE(1.0E-006),#399);
#268=LINE('',#400,#401);
#269=POINT_STYLE(' ',#402,POSITIVE_LENGTH_MEASURE(1.0E-006),#403);
#270=CARTESIAN_POINT('',(5.27080847450271E-016,-4.30408388626344,-7.105427357601E-015));
#271=PRODUCT_CONTEXT('',#54,'mechanical');
#272=PRODUCT_DEFINITION_FORMATION_WITH_SPECIFIED_SOURCE(' ','NONE',#155,.NOT_KNOWN.);
#273=CARTESIAN_POINT('',(0.0,0.0,0.0));
#274=DIRECTION('',(0.0,0.0,1.0));
#275=DIRECTION('',(1.0,0.0,0.0));
#276= (NAMED_UNIT(#163)LENGTH_UNIT()SI_UNIT(.MILLI.,.METRE.));
#277=SURFACE_SIDE_STYLE('',(#405));
#278=EDGE_LOOP('',(#406,#407,#408,#409));
#279=AXIS2_PLACEMENT_3D('',#410,#411,#412);
#280=DRAUGHTING_PRE_DEFINED_CURVE_FONT('continuous');
#281=COLOUR_RGB('',0.800000011920929,0.800000011920929,0.800000011920929);
#282=AXIS2_PLACEMENT_3D('',#413,#414,#415);
#283=SURFACE_SIDE_STYLE('',(#416));
#284=EDGE_LOOP('',(#417,#418,#419,#420));
#285=AXIS2_PLACEMENT_3D('',#421,#422,#423);
#286=DRAUGHTING_PRE_DEFINED_CURVE_FONT('continuous');
#287=COLOUR_RGB('',0.498039215803146,0.498039215803146,0.498039215803146);
#288=CARTESIAN_POINT('',(5.83218776007907E-016,-4.7625,-20.047));
#289=VECTOR('',#424,1.0);
#290=DRAUGHTING_PRE_DEFINED_CURVE_FONT('continuous');
#291=COLOUR_RGB('',0.498039215803146,0.498039215803146,0.498039215803146);
#292=AXIS2_PLACEMENT_3D('',#425,#426,#427);
#293=SURFACE_SIDE_STYLE('',(#428));
#294=EDGE_LOOP('',(#429,#430,#431,#432));
#295=AXIS2_PLACEMENT_3D('',#433,#434,#435);
#296=SURFACE_SIDE_STYLE('',(#436));
#297=EDGE_LOOP('',(#437,#438));
#298=EDGE_LOOP('',(#439,#440));
#299=AXIS2_PLACEMENT_3D('',#441,#442,#443);
#300=SURFACE_SIDE_STYLE('',(#444));
#301=EDGE_LOOP('',(#445,#446,#447,#448));
#302=AXIS2_PLACEMENT_3D('',#449,#450,#451);
#303=PRE_DEFINED_MARKER('');
#304=COLOUR_RGB('',0.498039215803146,0.498039215803146,0.498039215803146);
#305=DRAUGHTING_PRE_DEFINED_CURVE_FONT('continuous');
#306=COLOUR_RGB('',0.800000011920929,0.800000011920929,0.800000011920929);
#307=CARTESIAN_POINT('',(-5.02089037965521E-016,4.100003535,-75.8541692296886));
#308=VECTOR('',#452,1.0);
#309=PRE_DEFINED_MARKER('');
#310=COLOUR_RGB('',0.498039215803146,0.498039215803146,0.498039215803146);
#311=SURFACE_SIDE_STYLE('',(#453));
#312=EDGE_LOOP('',(#454,#455,#456,#457));
#313=AXIS2_PLACEMENT_3D('',#458,#459,#460);
#314=PRE_DEFINED_MARKER('');
#315=COLOUR_RGB('',0.498039215803146,0.498039215803146,0.498039215803146);
#316=DRAUGHTING_PRE_DEFINED_CURVE_FONT('continuous');
#317=COLOUR_RGB('',0.498039215803146,0.498039215803146,0.498039215803146);
#318=AXIS2_PLACEMENT_3D('',#461,#462,#463);
#319=DRAUGHTING_PRE_DEFINED_CURVE_FONT('continuous');
#320=COLOUR_RGB('',0.498039215803146,0.498039215803146,0.498039215803146);
#321=AXIS2_PLACEMENT_3D('',#464,#465,#466);
#322=PRE_DEFINED_MARKER('');
#323=COLOUR_RGB('',0.498039215803146,0.498039215803146,0.498039215803146);
#324=DRAUGHTING_PRE_DEFINED_CURVE_FONT('continuous');
#325=COLOUR_RGB('',0.498039215803146,0.498039215803146,0.498039215803146);
#326=CARTESIAN_POINT('',(-5.83218776007907E-016,4.7625,-20.047));
#327=VECTOR('',#467,1.0);
#328=PRE_DEFINED_MARKER('');
#329=COLOUR_RGB('',0.498039215803146,0.498039215803146,0.498039215803146);
#330=DRAUGHTING_PRE_DEFINED_CURVE_FONT('continuous');
#331=COLOUR_RGB('',0.498039215803146,0.498039215803146,0.498039215803146);
#332=CARTESIAN_POINT('',(-5.5514981172909E-016,4.53329194313172,-0.397000000000006));
#333=VECTOR('',#468,1.0);
#334=SURFACE_SIDE_STYLE('',(#469));
#335=EDGE_LOOP('',(#470,#471,#472,#473));
#336=AXIS2_PLACEMENT_3D('',#474,#475,#476);
#337=DRAUGHTING_PRE_DEFINED_CURVE_FONT('continuous');
#338=COLOUR_RGB('',0.498039215803146,0.498039215803146,0.498039215803146);
#339=CARTESIAN_POINT('',(5.55149811729089E-016,-4.53329194313172,-0.397000000000006));
#340=VECTOR('',#477,1.0);
#341=SURFACE_SIDE_STYLE('',(#478));
#342=EDGE_LOOP('',(#479,#480,#481,#482));
#343=AXIS2_PLACEMENT_3D('',#483,#484,#485);
#344=SURFACE_SIDE_STYLE('',(#486));
#345=EDGE_LOOP('',(#487,#488));
#346=AXIS2_PLACEMENT_3D('',#489,#490,#491);
#347=PRE_DEFINED_MARKER('');
#348=COLOUR_RGB('',0.800000011920929,0.800000011920929,0.800000011920929);
#349=SURFACE_SIDE_STYLE('',(#492));
#350=EDGE_LOOP('',(#493,#494,#495,#496));
#351=AXIS2_PLACEMENT_3D('',#497,#498,#499);
#352=DRAUGHTING_PRE_DEFINED_CURVE_FONT('continuous');
#353=COLOUR_RGB('',0.800000011920929,0.800000011920929,0.800000011920929);
#354=CARTESIAN_POINT('',(-5.75442525661135E-016,4.699,-62.1541692296886));
#355=VECTOR('',#500,1.0);
#356=DRAUGHTING_PRE_DEFINED_CURVE_FONT('continuous');
#357=COLOUR_RGB('',0.800000011920929,0.800000011920929,0.800000011920929);
#358=CARTESIAN_POINT('',(5.75442525661135E-016,-4.699,-62.1541692296886));
#359=VECTOR('',#501,1.0);
#360=DRAUGHTING_PRE_DEFINED_CURVE_FONT('continuous');
#361=COLOUR_RGB('',0.498039215803146,0.498039215803146,0.498039215803146);
#362=AXIS2_PLACEMENT_3D('',#502,#503,#504);
#363=DRAUGHTING_PRE_DEFINED_CURVE_FONT('continuous');
#364=COLOUR_RGB('',0.800000011920929,0.800000011920929,0.800000011920929);
#365=AXIS2_PLACEMENT_3D('',#505,#506,#507);
#366=PRE_DEFINED_MARKER('');
#367=COLOUR_RGB('',0.498039215803146,0.498039215803146,0.498039215803146);
#368=PRE_DEFINED_MARKER('');
#369=COLOUR_RGB('',0.498039215803146,0.498039215803146,0.498039215803146);
#370=DRAUGHTING_PRE_DEFINED_CURVE_FONT('continuous');
#371=COLOUR_RGB('',0.498039215803146,0.498039215803146,0.498039215803146);
#372=AXIS2_PLACEMENT_3D('',#508,#509,#510);
#373=DRAUGHTING_PRE_DEFINED_CURVE_FONT('continuous');
#374=COLOUR_RGB('',0.498039215803146,0.498039215803146,0.498039215803146);
#375=AXIS2_PLACEMENT_3D('',#511,#512,#513);
#376=PRE_DEFINED_MARKER('');
#377=COLOUR_RGB('',0.498039215803146,0.498039215803146,0.498039215803146);
#378=SURFACE_SIDE_STYLE('',(#514));
#379=EDGE_LOOP('',(#515,#516));
#380=AXIS2_PLACEMENT_3D('',#517,#518,#519);
#381=DRAUGHTING_PRE_DEFINED_CURVE_FONT('continuous');
#382=COLOUR_RGB('',0.498039215803146,0.498039215803146,0.498039215803146);
#383=AXIS2_PLACEMENT_3D('',#520,#521,#522);
#384=PRE_DEFINED_MARKER('');
#385=COLOUR_RGB('',0.800000011920929,0.800000011920929,0.800000011920929);
#386=DRAUGHTING_PRE_DEFINED_CURVE_FONT('continuous');
#387=COLOUR_RGB('',0.498039215803146,0.498039215803146,0.498039215803146);
#388=AXIS2_PLACEMENT_3D('',#523,#524,#525);
#389=SURFACE_SIDE_STYLE('',(#526));
#390=DRAUGHTING_PRE_DEFINED_CURVE_FONT('continuous');
#391=COLOUR_RGB('',0.498039215803146,0.498039215803146,0.498039215803146);
#392=AXIS2_PLACEMENT_3D('',#527,#528,#529);
#393=DRAUGHTING_PRE_DEFINED_CURVE_FONT('continuous');
#394=COLOUR_RGB('',0.498039215803146,0.498039215803146,0.498039215803146);
#395=AXIS2_PLACEMENT_3D('',#530,#531,#532);
#396=PRE_DEFINED_MARKER('');
#397=COLOUR_RGB('',0.498039215803146,0.498039215803146,0.498039215803146);
#398=DRAUGHTING_PRE_DEFINED_CURVE_FONT('continuous');
#399=COLOUR_RGB('',0.800000011920929,0.800000011920929,0.800000011920929);
#400=CARTESIAN_POINT('',(5.02089037965521E-016,-4.100003535,-75.8541692296886));
#401=VECTOR('',#533,1.0);
#402=PRE_DEFINED_MARKER('');
#403=COLOUR_RGB('',0.498039215803146,0.498039215803146,0.498039215803146);
#405=SURFACE_STYLE_FILL_AREA(#534);
#406=ORIENTED_EDGE('',*,*,#100,.F.);
#407=ORIENTED_EDGE('',*,*,#76,.T.);
#408=ORIENTED_EDGE('',*,*,#74,.F.);
#409=ORIENTED_EDGE('',*,*,#132,.F.);
#410=CARTESIAN_POINT('',(0.0,0.0,-20.047));
#411=DIRECTION('',(-0.0,-0.0,1.0));
#412=DIRECTION('',(0.0,1.0,0.0));
#413=CARTESIAN_POINT('',(0.0,0.0,-75.5083384593772));
#414=DIRECTION('',(0.0,0.0,-1.0));
#415=DIRECTION('',(0.0,1.0,0.0));
#416=SURFACE_STYLE_FILL_AREA(#535);
#417=ORIENTED_EDGE('',*,*,#86,.T.);
#418=ORIENTED_EDGE('',*,*,#148,.F.);
#419=ORIENTED_EDGE('',*,*,#152,.T.);
#420=ORIENTED_EDGE('',*,*,#124,.T.);
#421=CARTESIAN_POINT('',(0.0,0.0,-75.8541692296886));
#422=DIRECTION('',(-0.0,-0.0,1.0));
#423=DIRECTION('',(0.0,1.0,0.0));
#424=DIRECTION('',(-0.0,-0.0,1.0));
#425=CARTESIAN_POINT('',(0.0,0.0,-0.794000000000004));
#426=DIRECTION('',(0.0,0.0,-1.0));
#427=DIRECTION('',(0.0,1.0,0.0));
#428=SURFACE_STYLE_FILL_AREA(#536);
#429=ORIENTED_EDGE('',*,*,#104,.T.);
#430=ORIENTED_EDGE('',*,*,#96,.F.);
#431=ORIENTED_EDGE('',*,*,#108,.T.);
#432=ORIENTED_EDGE('',*,*,#130,.T.);
#433=CARTESIAN_POINT('',(0.0,0.0,-0.397000000000006));
#434=DIRECTION('',(0.0,-0.0,-1.0));
#435=DIRECTION('',(0.0,1.0,0.0));
#436=SURFACE_STYLE_FILL_AREA(#537);
#437=ORIENTED_EDGE('',*,*,#138,.T.);
#438=ORIENTED_EDGE('',*,*,#94,.T.);
#439=ORIENTED_EDGE('',*,*,#142,.T.);
#440=ORIENTED_EDGE('',*,*,#132,.T.);
#441=CARTESIAN_POINT('',(0.0,0.0,-48.8));
#442=DIRECTION('',(0.0,0.0,-1.0));
#443=DIRECTION('',(0.0,-1.0,0.0));
#444=SURFACE_STYLE_FILL_AREA(#538);
#445=ORIENTED_EDGE('',*,*,#100,.T.);
#446=ORIENTED_EDGE('',*,*,#142,.F.);
#447=ORIENTED_EDGE('',*,*,#74,.T.);
#448=ORIENTED_EDGE('',*,*,#96,.T.);
#449=CARTESIAN_POINT('',(0.0,0.0,-20.047));
#450=DIRECTION('',(-0.0,-0.0,1.0));
#451=DIRECTION('',(0.0,1.0,0.0));
#452=DIRECTION('',(1.06054021204601E-016,-0.866025403784438,-0.500000000000002));
#453=SURFACE_STYLE_FILL_AREA(#539);
#454=ORIENTED_EDGE('',*,*,#86,.F.);
#455=ORIENTED_EDGE('',*,*,#70,.T.);
#456=ORIENTED_EDGE('',*,*,#152,.F.);
#457=ORIENTED_EDGE('',*,*,#146,.F.);
#458=CARTESIAN_POINT('',(0.0,0.0,-75.8541692296886));
#459=DIRECTION('',(-0.0,-0.0,1.0));
#460=DIRECTION('',(0.0,1.0,0.0));
#461=CARTESIAN_POINT('',(0.0,0.0,-48.8));
#462=DIRECTION('',(0.0,-0.0,1.0));
#463=DIRECTION('',(0.0,1.0,0.0));
#464=CARTESIAN_POINT('',(0.0,0.0,-0.794000000000004));
#465=DIRECTION('',(0.0,0.0,-1.0));
#466=DIRECTION('',(0.0,1.0,0.0));
#467=DIRECTION('',(0.0,0.0,-1.0));
#468=DIRECTION('',(-6.12303176911191E-017,0.500000000000002,-0.866025403784438));
#469=SURFACE_STYLE_FILL_AREA(#540);
#470=ORIENTED_EDGE('',*,*,#118,.T.);
#471=ORIENTED_EDGE('',*,*,#124,.F.);
#472=ORIENTED_EDGE('',*,*,#120,.T.);
#473=ORIENTED_EDGE('',*,*,#138,.F.);
#474=CARTESIAN_POINT('',(0.0,0.0,-62.1541692296886));
#475=DIRECTION('',(-0.0,-0.0,1.0));
#476=DIRECTION('',(0.0,1.0,0.0));
#477=DIRECTION('',(-6.12303176911191E-017,0.500000000000002,0.866025403784438));
#478=SURFACE_STYLE_FILL_AREA(#541);
#479=ORIENTED_EDGE('',*,*,#118,.F.);
#480=ORIENTED_EDGE('',*,*,#94,.F.);
#481=ORIENTED_EDGE('',*,*,#120,.F.);
#482=ORIENTED_EDGE('',*,*,#70,.F.);
#483=CARTESIAN_POINT('',(0.0,0.0,-62.1541692296886));
#484=DIRECTION('',(-0.0,-0.0,1.0));
#485=DIRECTION('',(0.0,1.0,0.0));
#486=SURFACE_STYLE_FILL_AREA(#542);
#487=ORIENTED_EDGE('',*,*,#146,.T.);
#488=ORIENTED_EDGE('',*,*,#148,.T.);
#489=CARTESIAN_POINT('',(0.0,1.750503535,-76.2));
#490=DIRECTION('',(0.0,0.0,-1.0));
#491=DIRECTION('',(0.0,1.0,0.0));
#492=SURFACE_STYLE_FILL_AREA(#543);
#493=ORIENTED_EDGE('',*,*,#104,.F.);
#494=ORIENTED_EDGE('',*,*,#122,.T.);
#495=ORIENTED_EDGE('',*,*,#108,.F.);
#496=ORIENTED_EDGE('',*,*,#76,.F.);
#497=CARTESIAN_POINT('',(0.0,0.0,-0.397000000000006));
#498=DIRECTION('',(0.0,-0.0,-1.0));
#499=DIRECTION('',(0.0,1.0,0.0));
#500=DIRECTION('',(0.0,0.0,-1.0));
#501=DIRECTION('',(-0.0,-0.0,1.0));
#502=CARTESIAN_POINT('',(0.0,0.0,-7.105427357601E-015));
#503=DIRECTION('',(0.0,0.0,-1.0));
#504=DIRECTION('',(0.0,1.0,0.0));
#505=CARTESIAN_POINT('',(0.0,0.0,-75.5083384593772));
#506=DIRECTION('',(0.0,0.0,-1.0));
#507=DIRECTION('',(0.0,1.0,0.0));
#508=CARTESIAN_POINT('',(0.0,0.0,-7.105427357601E-015));
#509=DIRECTION('',(0.0,0.0,-1.0));
#510=DIRECTION('',(0.0,1.0,0.0));
#511=CARTESIAN_POINT('',(0.0,0.0,-48.8));
#512=DIRECTION('',(0.0,0.0,-1.0));
#513=DIRECTION('',(0.0,-1.0,0.0));
#514=SURFACE_STYLE_FILL_AREA(#544);
#515=ORIENTED_EDGE('',*,*,#122,.F.);
#516=ORIENTED_EDGE('',*,*,#130,.F.);
#517=CARTESIAN_POINT('',(0.0,2.15204194313172,-7.105427357601E-015));
#518=DIRECTION('',(-0.0,0.0,1.0));
#519=DIRECTION('',(0.0,-1.0,0.0));
#520=CARTESIAN_POINT('',(0.0,0.0,-48.8));
#521=DIRECTION('',(0.0,-0.0,1.0));
#522=DIRECTION('',(0.0,1.0,0.0));
#523=CARTESIAN_POINT('',(0.0,0.0,-48.8));
#524=DIRECTION('',(0.0,0.0,-1.0));
#525=DIRECTION('',(0.0,-1.0,0.0));
#526=SURFACE_STYLE_FILL_AREA(#545);
#527=CARTESIAN_POINT('',(0.0,0.0,-76.2));
#528=DIRECTION('',(0.0,0.0,-1.0));
#529=DIRECTION('',(0.0,1.0,0.0));
#530=CARTESIAN_POINT('',(0.0,0.0,-76.2));
#531=DIRECTION('',(0.0,0.0,-1.0));
#532=DIRECTION('',(0.0,1.0,0.0));
#533=DIRECTION('',(1.06054021204601E-016,-0.866025403784438,0.500000000000002));
#534=FILL_AREA_STYLE('',(#546));
#535=FILL_AREA_STYLE('',(#547));
#536=FILL_AREA_STYLE('',(#548));
#537=FILL_AREA_STYLE('',(#549));
#538=FILL_AREA_STYLE('',(#550));
#539=FILL_AREA_STYLE('',(#551));
#540=FILL_AREA_STYLE('',(#552));
#541=FILL_AREA_STYLE('',(#553));
#542=FILL_AREA_STYLE('',(#554));
#543=FILL_AREA_STYLE('',(#555));
#544=FILL_AREA_STYLE('',(#556));
#545=FILL_AREA_STYLE('',(#557));
#546=FILL_AREA_STYLE_COLOUR('',#558);
#547=FILL_AREA_STYLE_COLOUR('',#559);
#548=FILL_AREA_STYLE_COLOUR('',#560);
#549=FILL_AREA_STYLE_COLOUR('',#561);
#550=FILL_AREA_STYLE_COLOUR('',#562);
#551=FILL_AREA_STYLE_COLOUR('',#563);
#552=FILL_AREA_STYLE_COLOUR('',#564);
#553=FILL_AREA_STYLE_COLOUR('',#565);
#554=FILL_AREA_STYLE_COLOUR('',#566);
#555=FILL_AREA_STYLE_COLOUR('',#567);
#556=FILL_AREA_STYLE_COLOUR('',#568);
#557=FILL_AREA_STYLE_COLOUR('',#569);
#558=COLOUR_RGB('',0.498039215803146,0.498039215803146,0.498039215803146);
#559=COLOUR_RGB('',0.800000011920929,0.800000011920929,0.800000011920929);
#560=COLOUR_RGB('',0.498039215803146,0.498039215803146,0.498039215803146);
#561=COLOUR_RGB('',0.498039215803146,0.498039215803146,0.498039215803146);
#562=COLOUR_RGB('',0.498039215803146,0.498039215803146,0.498039215803146);
#563=COLOUR_RGB('',0.800000011920929,0.800000011920929,0.800000011920929);
#564=COLOUR_RGB('',0.800000011920929,0.800000011920929,0.800000011920929);
#565=COLOUR_RGB('',0.800000011920929,0.800000011920929,0.800000011920929);
#566=COLOUR_RGB('',0.498039215803146,0.498039215803146,0.498039215803146);
#567=COLOUR_RGB('',0.498039215803146,0.498039215803146,0.498039215803146);
#568=COLOUR_RGB('',0.498039215803146,0.498039215803146,0.498039215803146);
#569=COLOUR_RGB('',0.498039215803146,0.498039215803146,0.498039215803146);
#570=AXIS2_PLACEMENT_3D('PCS',#571,#572,#573);
#571=CARTESIAN_POINT('',(0.0,0.0,0.0));
#572=DIRECTION('',(0.0,0.0,1.0));
#573=DIRECTION('',(1.0,0.0,0.0));
#574=AXIS2_PLACEMENT_3D('CIP',#575,#576,#577);
#575=CARTESIAN_POINT('',(0.0,0.0,-76.2));
#576=DIRECTION('',(0.0,0.0,1.0));
#577=DIRECTION('',(1.0,0.0,0.0));
#578=AXIS2_PLACEMENT_3D('CRP',#579,#580,#581);
#579=CARTESIAN_POINT('',(-4.699,0.0,-76.2));
#580=DIRECTION('',(0.0,0.0,1.0));
#581=DIRECTION('',(1.0,0.0,0.0));
#582=AXIS2_PLACEMENT_3D('MCS',#583,#584,#585);
#583=CARTESIAN_POINT('',(0.0,0.0,-39.3));
#584=DIRECTION('',(0.0,0.0,1.0));
#585=DIRECTION('',(1.0,0.0,0.0));
#586=CONSTRUCTIVE_GEOMETRY_REPRESENTATION_RELATIONSHIP('coordinate systems',$,#58,#587);
#587=CONSTRUCTIVE_GEOMETRY_REPRESENTATION('coordinate systems',(#570,#574,#578,#582),#6);
ENDSEC;
END-ISO-10303-21;
