ISO-10303-21;
HEADER;
FILE_DESCRIPTION(('no description'),'unknown implementation level');
FILE_NAME('solidIJC_oFzE_gxb4QVFExJIrPgi1Es_1.STP','  ',('CIMSOURCE GmbH'),('CADClick - KiM GmbH - www.kimweb.de'),'unknown preprocess','ACIS','unknown authorization');
FILE_SCHEMA(('automotive_design'));
ENDSEC;
DATA;
#1=MECHANICAL_DESIGN_GEOMETRIC_PRESENTATION_REPRESENTATION(' ',(#10,#11,#12,#13,#14,#15,#16,#17,#18,#19,#20,#21,#22,#23,#24,#25,#26,#27,#28,#29,#30,#31,#32,#33,#34,#35,#36,#37,#38,#39,#40,#41,#42,#43,#44,#45,#46,#47,#48,#49,#50,#51,#52,#53),#6);
#2=PRODUCT_DEFINITION_CONTEXT('',#54,'design');
#3=APPLICATION_PROTOCOL_DEFINITION('INTERNATIONAL STANDARD','automotive_design',1994,#54);
#4=PRODUCT_CATEGORY_RELATIONSHIP('NONE','NONE',#55,#56);
#5=SHAPE_DEFINITION_REPRESENTATION(#57,#58);
#6= (GEOMETRIC_REPRESENTATION_CONTEXT(3)GLOBAL_UNCERTAINTY_ASSIGNED_CONTEXT((#61))GLOBAL_UNIT_ASSIGNED_CONTEXT((#63,#64,#65))REPRESENTATION_CONTEXT('NONE','WORKSPACE'));
#10=STYLED_ITEM('',(#67),#68);
#11=STYLED_ITEM('',(#69),#70);
#12=STYLED_ITEM('',(#71),#72);
#13=STYLED_ITEM('',(#73),#74);
#14=STYLED_ITEM('',(#75),#76);
#15=STYLED_ITEM('',(#77),#78);
#16=STYLED_ITEM('',(#79),#80);
#17=STYLED_ITEM('',(#81),#82);
#18=STYLED_ITEM('',(#83),#84);
#19=STYLED_ITEM('',(#85),#86);
#20=STYLED_ITEM('',(#87),#88);
#21=STYLED_ITEM('',(#89),#90);
#22=STYLED_ITEM('',(#91),#92);
#23=STYLED_ITEM('',(#93),#94);
#24=STYLED_ITEM('',(#95),#96);
#25=STYLED_ITEM('',(#97),#98);
#26=STYLED_ITEM('',(#99),#100);
#27=STYLED_ITEM('',(#101),#102);
#28=STYLED_ITEM('',(#103),#104);
#29=STYLED_ITEM('',(#105),#106);
#30=STYLED_ITEM('',(#107),#108);
#31=STYLED_ITEM('',(#109),#110);
#32=STYLED_ITEM('',(#111),#112);
#33=STYLED_ITEM('',(#113),#114);
#34=STYLED_ITEM('',(#115),#116);
#35=STYLED_ITEM('',(#117),#118);
#36=STYLED_ITEM('',(#119),#120);
#37=STYLED_ITEM('',(#121),#122);
#38=STYLED_ITEM('',(#123),#124);
#39=STYLED_ITEM('',(#125),#126);
#40=STYLED_ITEM('',(#127),#128);
#41=STYLED_ITEM('',(#129),#130);
#42=STYLED_ITEM('',(#131),#132);
#43=STYLED_ITEM('',(#133),#134);
#44=STYLED_ITEM('',(#135),#136);
#45=STYLED_ITEM('',(#137),#138);
#46=STYLED_ITEM('',(#139),#140);
#47=STYLED_ITEM('',(#141),#142);
#48=STYLED_ITEM('',(#143),#144);
#49=STYLED_ITEM('',(#145),#146);
#50=STYLED_ITEM('',(#147),#148);
#51=STYLED_ITEM('',(#149),#150);
#52=STYLED_ITEM('',(#151),#152);
#53=STYLED_ITEM('',(#153),#154);
#54=APPLICATION_CONTEXT(' ');
#55=PRODUCT_CATEGORY('part','NONE');
#56=PRODUCT_RELATED_PRODUCT_CATEGORY('detail',' ',(#155));
#57=PRODUCT_DEFINITION_SHAPE('NONE','NONE',#156);
#58=ADVANCED_BREP_SHAPE_REPRESENTATION('1',(#78,#157),#6);
#61=UNCERTAINTY_MEASURE_WITH_UNIT(LENGTH_MEASURE(1.0E-006),#63,'','');
#63= (CONVERSION_BASED_UNIT('MILLIMETRE',#160)LENGTH_UNIT()NAMED_UNIT(#163));
#64= (NAMED_UNIT(#165)PLANE_ANGLE_UNIT()SI_UNIT($,.RADIAN.));
#65= (NAMED_UNIT(#165)SOLID_ANGLE_UNIT()SI_UNIT($,.STERADIAN.));
#67=PRESENTATION_STYLE_ASSIGNMENT((#171));
#68=ADVANCED_FACE('',(#172,#173),#174,.T.);
#69=PRESENTATION_STYLE_ASSIGNMENT((#175));
#70=VERTEX_POINT('',#176);
#71=PRESENTATION_STYLE_ASSIGNMENT((#177));
#72=ADVANCED_FACE('',(#178),#179,.T.);
#73=PRESENTATION_STYLE_ASSIGNMENT((#180));
#74=EDGE_CURVE('',#104,#116,#181,.T.);
#75=PRESENTATION_STYLE_ASSIGNMENT((#182));
#76=EDGE_CURVE('',#70,#154,#183,.T.);
#77=PRESENTATION_STYLE_ASSIGNMENT((#184));
#78=MANIFOLD_SOLID_BREP('1',#185);
#79=PRESENTATION_STYLE_ASSIGNMENT((#186));
#80=EDGE_CURVE('',#154,#70,#187,.T.);
#81=PRESENTATION_STYLE_ASSIGNMENT((#188));
#82=ADVANCED_FACE('',(#189),#190,.T.);
#83=PRESENTATION_STYLE_ASSIGNMENT((#191));
#84=ADVANCED_FACE('',(#192),#193,.T.);
#85=PRESENTATION_STYLE_ASSIGNMENT((#194));
#86=EDGE_CURVE('',#70,#110,#195,.T.);
#87=PRESENTATION_STYLE_ASSIGNMENT((#196));
#88=EDGE_CURVE('',#132,#102,#197,.T.);
#89=PRESENTATION_STYLE_ASSIGNMENT((#198));
#90=VERTEX_POINT('',#199);
#91=PRESENTATION_STYLE_ASSIGNMENT((#200));
#92=VERTEX_POINT('',#201);
#93=PRESENTATION_STYLE_ASSIGNMENT((#202));
#94=EDGE_CURVE('',#110,#104,#203,.T.);
#95=PRESENTATION_STYLE_ASSIGNMENT((#204));
#96=ADVANCED_FACE('',(#205),#206,.T.);
#97=PRESENTATION_STYLE_ASSIGNMENT((#207));
#98=EDGE_CURVE('',#92,#132,#208,.T.);
#99=PRESENTATION_STYLE_ASSIGNMENT((#209));
#100=EDGE_CURVE('',#134,#92,#210,.T.);
#101=PRESENTATION_STYLE_ASSIGNMENT((#211));
#102=VERTEX_POINT('',#212);
#103=PRESENTATION_STYLE_ASSIGNMENT((#213));
#104=VERTEX_POINT('',#214);
#105=PRESENTATION_STYLE_ASSIGNMENT((#215));
#106=EDGE_CURVE('',#136,#110,#216,.T.);
#107=PRESENTATION_STYLE_ASSIGNMENT((#217));
#108=ADVANCED_FACE('',(#218),#219,.T.);
#109=PRESENTATION_STYLE_ASSIGNMENT((#220));
#110=VERTEX_POINT('',#221);
#111=PRESENTATION_STYLE_ASSIGNMENT((#222));
#112=EDGE_CURVE('',#102,#134,#223,.T.);
#113=PRESENTATION_STYLE_ASSIGNMENT((#224));
#114=EDGE_CURVE('',#124,#90,#225,.T.);
#115=PRESENTATION_STYLE_ASSIGNMENT((#226));
#116=VERTEX_POINT('',#227);
#117=PRESENTATION_STYLE_ASSIGNMENT((#228));
#118=EDGE_CURVE('',#92,#134,#229,.T.);
#119=PRESENTATION_STYLE_ASSIGNMENT((#230));
#120=ADVANCED_FACE('',(#231),#232,.T.);
#121=PRESENTATION_STYLE_ASSIGNMENT((#233));
#122=EDGE_CURVE('',#110,#136,#234,.T.);
#123=PRESENTATION_STYLE_ASSIGNMENT((#235));
#124=VERTEX_POINT('',#236);
#125=PRESENTATION_STYLE_ASSIGNMENT((#237));
#126=EDGE_CURVE('',#90,#124,#238,.T.);
#127=PRESENTATION_STYLE_ASSIGNMENT((#239));
#128=EDGE_CURVE('',#116,#136,#240,.T.);
#129=PRESENTATION_STYLE_ASSIGNMENT((#241));
#130=ADVANCED_FACE('',(#242),#243,.T.);
#131=PRESENTATION_STYLE_ASSIGNMENT((#244));
#132=VERTEX_POINT('',#245);
#133=PRESENTATION_STYLE_ASSIGNMENT((#246));
#134=VERTEX_POINT('',#247);
#135=PRESENTATION_STYLE_ASSIGNMENT((#248));
#136=VERTEX_POINT('',#249);
#137=PRESENTATION_STYLE_ASSIGNMENT((#250));
#138=ADVANCED_FACE('',(#251),#252,.T.);
#139=PRESENTATION_STYLE_ASSIGNMENT((#253));
#140=EDGE_CURVE('',#102,#132,#254,.T.);
#141=PRESENTATION_STYLE_ASSIGNMENT((#255));
#142=EDGE_CURVE('',#136,#154,#256,.T.);
#143=PRESENTATION_STYLE_ASSIGNMENT((#257));
#144=EDGE_CURVE('',#116,#104,#258,.T.);
#145=PRESENTATION_STYLE_ASSIGNMENT((#259));
#146=EDGE_CURVE('',#124,#92,#260,.T.);
#147=PRESENTATION_STYLE_ASSIGNMENT((#261));
#148=ADVANCED_FACE('',(#262),#263,.T.);
#149=PRESENTATION_STYLE_ASSIGNMENT((#264));
#150=ADVANCED_FACE('',(#265),#266,.T.);
#151=PRESENTATION_STYLE_ASSIGNMENT((#267));
#152=EDGE_CURVE('',#134,#90,#268,.T.);
#153=PRESENTATION_STYLE_ASSIGNMENT((#269));
#154=VERTEX_POINT('',#270);
#155=PRODUCT('1','1','PART-1-DESC',(#271));
#156=PRODUCT_DEFINITION('NONE','NONE',#272,#2);
#157=AXIS2_PLACEMENT_3D('',#273,#274,#275);
#160=LENGTH_MEASURE_WITH_UNIT(LENGTH_MEASURE(1.0),#276);
#163=DIMENSIONAL_EXPONENTS(1.0,0.0,0.0,0.0,0.0,0.0,0.0);
#165=DIMENSIONAL_EXPONENTS(0.0,0.0,0.0,0.0,0.0,0.0,0.0);
#171=SURFACE_STYLE_USAGE(.BOTH.,#277);
#172=FACE_BOUND('',#278,.T.);
#173=FACE_OUTER_BOUND('',#279,.T.);
#174=PLANE('',#280);
#175=POINT_STYLE(' ',#281,POSITIVE_LENGTH_MEASURE(1.0E-006),#282);
#176=CARTESIAN_POINT('',(0.0,4.699,-48.3));
#177=SURFACE_STYLE_USAGE(.BOTH.,#283);
#178=FACE_OUTER_BOUND('',#284,.T.);
#179=CYLINDRICAL_SURFACE('',#285,4.699);
#180=CURVE_STYLE('',#286,POSITIVE_LENGTH_MEASURE(1.0E-006),#287);
#181=CIRCLE('',#288,3.9203046);
#182=CURVE_STYLE('',#289,POSITIVE_LENGTH_MEASURE(1.0E-006),#290);
#183=CIRCLE('',#291,4.699);
#184=SURFACE_STYLE_USAGE(.BOTH.,#292);
#185=CLOSED_SHELL('',(#108,#120,#150,#72,#148,#138,#68,#96,#84,#82,#130));
#186=CURVE_STYLE('',#293,POSITIVE_LENGTH_MEASURE(1.0E-006),#294);
#187=CIRCLE('',#295,4.699);
#188=SURFACE_STYLE_USAGE(.BOTH.,#296);
#189=FACE_OUTER_BOUND('',#297,.T.);
#190=CYLINDRICAL_SURFACE('',#298,4.7625);
#191=SURFACE_STYLE_USAGE(.BOTH.,#299);
#192=FACE_OUTER_BOUND('',#300,.T.);
#193=CONICAL_SURFACE('',#301,4.53329194313172,0.523598775598301);
#194=CURVE_STYLE('',#302,POSITIVE_LENGTH_MEASURE(1.0E-006),#303);
#195=LINE('',#304,#305);
#196=CURVE_STYLE('',#306,POSITIVE_LENGTH_MEASURE(1.0E-006),#307);
#197=CIRCLE('',#308,4.30408388626344);
#198=POINT_STYLE(' ',#309,POSITIVE_LENGTH_MEASURE(1.0E-006),#310);
#199=CARTESIAN_POINT('',(-5.83218776007907E-016,4.7625,-48.3));
#200=POINT_STYLE(' ',#311,POSITIVE_LENGTH_MEASURE(1.0E-006),#312);
#201=CARTESIAN_POINT('',(5.83218776007907E-016,-4.7625,-0.794000000000004));
#202=CURVE_STYLE('',#313,POSITIVE_LENGTH_MEASURE(1.0E-006),#314);
#203=LINE('',#315,#316);
#204=SURFACE_STYLE_USAGE(.BOTH.,#317);
#205=FACE_OUTER_BOUND('',#318,.T.);
#206=PLANE('',#319);
#207=CURVE_STYLE('',#320,POSITIVE_LENGTH_MEASURE(1.0E-006),#321);
#208=LINE('',#322,#323);
#209=CURVE_STYLE('',#324,POSITIVE_LENGTH_MEASURE(1.0E-006),#325);
#210=CIRCLE('',#326,4.7625);
#211=POINT_STYLE(' ',#327,POSITIVE_LENGTH_MEASURE(1.0E-006),#328);
#212=CARTESIAN_POINT('',(0.0,4.30408388626344,-7.105427357601E-015));
#213=POINT_STYLE(' ',#329,POSITIVE_LENGTH_MEASURE(1.0E-006),#330);
#214=CARTESIAN_POINT('',(0.0,3.9203046,-76.2));
#215=CURVE_STYLE('',#331,POSITIVE_LENGTH_MEASURE(1.0E-006),#332);
#216=CIRCLE('',#333,4.699);
#217=SURFACE_STYLE_USAGE(.BOTH.,#334);
#218=FACE_OUTER_BOUND('',#335,.T.);
#219=CYLINDRICAL_SURFACE('',#336,4.7625);
#220=POINT_STYLE(' ',#337,POSITIVE_LENGTH_MEASURE(1.0E-006),#338);
#221=CARTESIAN_POINT('',(0.0,4.699,-75.7504200011933));
#222=CURVE_STYLE('',#339,POSITIVE_LENGTH_MEASURE(1.0E-006),#340);
#223=LINE('',#341,#342);
#224=CURVE_STYLE('',#343,POSITIVE_LENGTH_MEASURE(1.0E-006),#344);
#225=CIRCLE('',#345,4.7625);
#226=POINT_STYLE(' ',#346,POSITIVE_LENGTH_MEASURE(1.0E-006),#347);
#227=CARTESIAN_POINT('',(4.80082992207909E-016,-3.9203046,-76.2));
#228=CURVE_STYLE('',#348,POSITIVE_LENGTH_MEASURE(1.0E-006),#349);
#229=CIRCLE('',#350,4.7625);
#230=SURFACE_STYLE_USAGE(.BOTH.,#351);
#231=FACE_OUTER_BOUND('',#352,.T.);
#232=CONICAL_SURFACE('',#353,4.53329194313172,0.523598775598301);
#233=CURVE_STYLE('',#354,POSITIVE_LENGTH_MEASURE(1.0E-006),#355);
#234=CIRCLE('',#356,4.699);
#235=POINT_STYLE(' ',#357,POSITIVE_LENGTH_MEASURE(1.0E-006),#358);
#236=CARTESIAN_POINT('',(0.0,-4.7625,-48.3));
#237=CURVE_STYLE('',#359,POSITIVE_LENGTH_MEASURE(1.0E-006),#360);
#238=CIRCLE('',#361,4.7625);
#239=CURVE_STYLE('',#362,POSITIVE_LENGTH_MEASURE(1.0E-006),#363);
#240=LINE('',#364,#365);
#241=SURFACE_STYLE_USAGE(.BOTH.,#366);
#242=FACE_OUTER_BOUND('',#367,.T.);
#243=PLANE('',#368);
#244=POINT_STYLE(' ',#369,POSITIVE_LENGTH_MEASURE(1.0E-006),#370);
#245=CARTESIAN_POINT('',(5.27080847450271E-016,-4.30408388626344,-7.105427357601E-015));
#246=POINT_STYLE(' ',#371,POSITIVE_LENGTH_MEASURE(1.0E-006),#372);
#247=CARTESIAN_POINT('',(0.0,4.7625,-0.794000000000004));
#248=POINT_STYLE(' ',#373,POSITIVE_LENGTH_MEASURE(1.0E-006),#374);
#249=CARTESIAN_POINT('',(5.75442525661135E-016,-4.699,-75.7504200011933));
#250=SURFACE_STYLE_USAGE(.BOTH.,#375);
#251=FACE_OUTER_BOUND('',#376,.T.);
#252=CONICAL_SURFACE('',#377,4.3096523,1.0471975511966);
#253=CURVE_STYLE('',#378,POSITIVE_LENGTH_MEASURE(1.0E-006),#379);
#254=CIRCLE('',#380,4.30408388626344);
#255=CURVE_STYLE('',#381,POSITIVE_LENGTH_MEASURE(1.0E-006),#382);
#256=LINE('',#383,#384);
#257=CURVE_STYLE('',#385,POSITIVE_LENGTH_MEASURE(1.0E-006),#386);
#258=CIRCLE('',#387,3.9203046);
#259=CURVE_STYLE('',#388,POSITIVE_LENGTH_MEASURE(1.0E-006),#389);
#260=LINE('',#390,#391);
#261=SURFACE_STYLE_USAGE(.BOTH.,#392);
#262=FACE_OUTER_BOUND('',#393,.T.);
#263=CYLINDRICAL_SURFACE('',#394,4.699);
#264=SURFACE_STYLE_USAGE(.BOTH.,#395);
#265=FACE_OUTER_BOUND('',#396,.T.);
#266=CONICAL_SURFACE('',#397,4.3096523,1.0471975511966);
#267=CURVE_STYLE('',#398,POSITIVE_LENGTH_MEASURE(1.0E-006),#399);
#268=LINE('',#400,#401);
#269=POINT_STYLE(' ',#402,POSITIVE_LENGTH_MEASURE(1.0E-006),#403);
#270=CARTESIAN_POINT('',(5.75442525661135E-016,-4.699,-48.3));
#271=PRODUCT_CONTEXT('',#54,'mechanical');
#272=PRODUCT_DEFINITION_FORMATION_WITH_SPECIFIED_SOURCE(' ','NONE',#155,.NOT_KNOWN.);
#273=CARTESIAN_POINT('',(0.0,0.0,0.0));
#274=DIRECTION('',(0.0,0.0,1.0));
#275=DIRECTION('',(1.0,0.0,0.0));
#276= (NAMED_UNIT(#163)LENGTH_UNIT()SI_UNIT(.MILLI.,.METRE.));
#277=SURFACE_SIDE_STYLE('',(#405));
#278=EDGE_LOOP('',(#406,#407));
#279=EDGE_LOOP('',(#408,#409));
#280=AXIS2_PLACEMENT_3D('',#410,#411,#412);
#281=PRE_DEFINED_MARKER('');
#282=COLOUR_RGB('',0.498039215803146,0.498039215803146,0.498039215803146);
#283=SURFACE_SIDE_STYLE('',(#413));
#284=EDGE_LOOP('',(#414,#415,#416,#417));
#285=AXIS2_PLACEMENT_3D('',#418,#419,#420);
#286=DRAUGHTING_PRE_DEFINED_CURVE_FONT('continuous');
#287=COLOUR_RGB('',0.498039215803146,0.498039215803146,0.498039215803146);
#288=AXIS2_PLACEMENT_3D('',#421,#422,#423);
#289=DRAUGHTING_PRE_DEFINED_CURVE_FONT('continuous');
#290=COLOUR_RGB('',0.498039215803146,0.498039215803146,0.498039215803146);
#291=AXIS2_PLACEMENT_3D('',#424,#425,#426);
#292=SURFACE_SIDE_STYLE('',(#427));
#293=DRAUGHTING_PRE_DEFINED_CURVE_FONT('continuous');
#294=COLOUR_RGB('',0.498039215803146,0.498039215803146,0.498039215803146);
#295=AXIS2_PLACEMENT_3D('',#428,#429,#430);
#296=SURFACE_SIDE_STYLE('',(#431));
#297=EDGE_LOOP('',(#432,#433,#434,#435));
#298=AXIS2_PLACEMENT_3D('',#436,#437,#438);
#299=SURFACE_SIDE_STYLE('',(#439));
#300=EDGE_LOOP('',(#440,#441,#442,#443));
#301=AXIS2_PLACEMENT_3D('',#444,#445,#446);
#302=DRAUGHTING_PRE_DEFINED_CURVE_FONT('continuous');
#303=COLOUR_RGB('',0.800000011920929,0.800000011920929,0.800000011920929);
#304=CARTESIAN_POINT('',(-5.75442525661135E-016,4.699,-62.0252100005966));
#305=VECTOR('',#447,1.0);
#306=DRAUGHTING_PRE_DEFINED_CURVE_FONT('continuous');
#307=COLOUR_RGB('',0.498039215803146,0.498039215803146,0.498039215803146);
#308=AXIS2_PLACEMENT_3D('',#448,#449,#450);
#309=PRE_DEFINED_MARKER('');
#310=COLOUR_RGB('',0.498039215803146,0.498039215803146,0.498039215803146);
#311=PRE_DEFINED_MARKER('');
#312=COLOUR_RGB('',0.498039215803146,0.498039215803146,0.498039215803146);
#313=DRAUGHTING_PRE_DEFINED_CURVE_FONT('continuous');
#314=COLOUR_RGB('',0.800000011920929,0.800000011920929,0.800000011920929);
#315=CARTESIAN_POINT('',(-5.27762758934522E-016,4.3096523,-75.9752100005966));
#316=VECTOR('',#451,1.0);
#317=SURFACE_SIDE_STYLE('',(#452));
#318=EDGE_LOOP('',(#453,#454));
#319=AXIS2_PLACEMENT_3D('',#455,#456,#457);
#320=DRAUGHTING_PRE_DEFINED_CURVE_FONT('continuous');
#321=COLOUR_RGB('',0.498039215803146,0.498039215803146,0.498039215803146);
#322=CARTESIAN_POINT('',(5.55149811729089E-016,-4.53329194313172,-0.397000000000006));
#323=VECTOR('',#458,1.0);
#324=DRAUGHTING_PRE_DEFINED_CURVE_FONT('continuous');
#325=COLOUR_RGB('',0.498039215803146,0.498039215803146,0.498039215803146);
#326=AXIS2_PLACEMENT_3D('',#459,#460,#461);
#327=PRE_DEFINED_MARKER('');
#328=COLOUR_RGB('',0.498039215803146,0.498039215803146,0.498039215803146);
#329=PRE_DEFINED_MARKER('');
#330=COLOUR_RGB('',0.498039215803146,0.498039215803146,0.498039215803146);
#331=DRAUGHTING_PRE_DEFINED_CURVE_FONT('continuous');
#332=COLOUR_RGB('',0.800000011920929,0.800000011920929,0.800000011920929);
#333=AXIS2_PLACEMENT_3D('',#462,#463,#464);
#334=SURFACE_SIDE_STYLE('',(#465));
#335=EDGE_LOOP('',(#466,#467,#468,#469));
#336=AXIS2_PLACEMENT_3D('',#470,#471,#472);
#337=PRE_DEFINED_MARKER('');
#338=COLOUR_RGB('',0.800000011920929,0.800000011920929,0.800000011920929);
#339=DRAUGHTING_PRE_DEFINED_CURVE_FONT('continuous');
#340=COLOUR_RGB('',0.498039215803146,0.498039215803146,0.498039215803146);
#341=CARTESIAN_POINT('',(-5.5514981172909E-016,4.53329194313172,-0.397000000000006));
#342=VECTOR('',#473,1.0);
#343=DRAUGHTING_PRE_DEFINED_CURVE_FONT('continuous');
#344=COLOUR_RGB('',0.498039215803146,0.498039215803146,0.498039215803146);
#345=AXIS2_PLACEMENT_3D('',#474,#475,#476);
#346=PRE_DEFINED_MARKER('');
#347=COLOUR_RGB('',0.498039215803146,0.498039215803146,0.498039215803146);
#348=DRAUGHTING_PRE_DEFINED_CURVE_FONT('continuous');
#349=COLOUR_RGB('',0.498039215803146,0.498039215803146,0.498039215803146);
#350=AXIS2_PLACEMENT_3D('',#477,#478,#479);
#351=SURFACE_SIDE_STYLE('',(#480));
#352=EDGE_LOOP('',(#481,#482,#483,#484));
#353=AXIS2_PLACEMENT_3D('',#485,#486,#487);
#354=DRAUGHTING_PRE_DEFINED_CURVE_FONT('continuous');
#355=COLOUR_RGB('',0.800000011920929,0.800000011920929,0.800000011920929);
#356=AXIS2_PLACEMENT_3D('',#488,#489,#490);
#357=PRE_DEFINED_MARKER('');
#358=COLOUR_RGB('',0.498039215803146,0.498039215803146,0.498039215803146);
#359=DRAUGHTING_PRE_DEFINED_CURVE_FONT('continuous');
#360=COLOUR_RGB('',0.498039215803146,0.498039215803146,0.498039215803146);
#361=AXIS2_PLACEMENT_3D('',#491,#492,#493);
#362=DRAUGHTING_PRE_DEFINED_CURVE_FONT('continuous');
#363=COLOUR_RGB('',0.800000011920929,0.800000011920929,0.800000011920929);
#364=CARTESIAN_POINT('',(5.27762758934522E-016,-4.3096523,-75.9752100005966));
#365=VECTOR('',#494,1.0);
#366=SURFACE_SIDE_STYLE('',(#495));
#367=EDGE_LOOP('',(#496,#497));
#368=AXIS2_PLACEMENT_3D('',#498,#499,#500);
#369=PRE_DEFINED_MARKER('');
#370=COLOUR_RGB('',0.498039215803146,0.498039215803146,0.498039215803146);
#371=PRE_DEFINED_MARKER('');
#372=COLOUR_RGB('',0.498039215803146,0.498039215803146,0.498039215803146);
#373=PRE_DEFINED_MARKER('');
#374=COLOUR_RGB('',0.800000011920929,0.800000011920929,0.800000011920929);
#375=SURFACE_SIDE_STYLE('',(#501));
#376=EDGE_LOOP('',(#502,#503,#504,#505));
#377=AXIS2_PLACEMENT_3D('',#506,#507,#508);
#378=DRAUGHTING_PRE_DEFINED_CURVE_FONT('continuous');
#379=COLOUR_RGB('',0.498039215803146,0.498039215803146,0.498039215803146);
#380=AXIS2_PLACEMENT_3D('',#509,#510,#511);
#381=DRAUGHTING_PRE_DEFINED_CURVE_FONT('continuous');
#382=COLOUR_RGB('',0.800000011920929,0.800000011920929,0.800000011920929);
#383=CARTESIAN_POINT('',(5.75442525661135E-016,-4.699,-62.0252100005966));
#384=VECTOR('',#512,1.0);
#385=DRAUGHTING_PRE_DEFINED_CURVE_FONT('continuous');
#386=COLOUR_RGB('',0.498039215803146,0.498039215803146,0.498039215803146);
#387=AXIS2_PLACEMENT_3D('',#513,#514,#515);
#388=DRAUGHTING_PRE_DEFINED_CURVE_FONT('continuous');
#389=COLOUR_RGB('',0.498039215803146,0.498039215803146,0.498039215803146);
#390=CARTESIAN_POINT('',(5.83218776007907E-016,-4.7625,-19.797));
#391=VECTOR('',#516,1.0);
#392=SURFACE_SIDE_STYLE('',(#517));
#393=EDGE_LOOP('',(#518,#519,#520,#521));
#394=AXIS2_PLACEMENT_3D('',#522,#523,#524);
#395=SURFACE_SIDE_STYLE('',(#525));
#396=EDGE_LOOP('',(#526,#527,#528,#529));
#397=AXIS2_PLACEMENT_3D('',#530,#531,#532);
#398=DRAUGHTING_PRE_DEFINED_CURVE_FONT('continuous');
#399=COLOUR_RGB('',0.498039215803146,0.498039215803146,0.498039215803146);
#400=CARTESIAN_POINT('',(-5.83218776007907E-016,4.7625,-19.797));
#401=VECTOR('',#533,1.0);
#402=PRE_DEFINED_MARKER('');
#403=COLOUR_RGB('',0.498039215803146,0.498039215803146,0.498039215803146);
#405=SURFACE_STYLE_FILL_AREA(#534);
#406=ORIENTED_EDGE('',*,*,#76,.T.);
#407=ORIENTED_EDGE('',*,*,#80,.T.);
#408=ORIENTED_EDGE('',*,*,#114,.T.);
#409=ORIENTED_EDGE('',*,*,#126,.T.);
#410=CARTESIAN_POINT('',(0.0,0.0,-48.3));
#411=DIRECTION('',(0.0,0.0,-1.0));
#412=DIRECTION('',(0.0,-1.0,0.0));
#413=SURFACE_STYLE_FILL_AREA(#535);
#414=ORIENTED_EDGE('',*,*,#86,.F.);
#415=ORIENTED_EDGE('',*,*,#80,.F.);
#416=ORIENTED_EDGE('',*,*,#142,.F.);
#417=ORIENTED_EDGE('',*,*,#122,.F.);
#418=CARTESIAN_POINT('',(0.0,0.0,-62.0252100005966));
#419=DIRECTION('',(-0.0,-0.0,1.0));
#420=DIRECTION('',(0.0,1.0,0.0));
#421=CARTESIAN_POINT('',(0.0,0.0,-76.2));
#422=DIRECTION('',(0.0,0.0,-1.0));
#423=DIRECTION('',(0.0,1.0,0.0));
#424=CARTESIAN_POINT('',(0.0,0.0,-48.3));
#425=DIRECTION('',(0.0,-0.0,1.0));
#426=DIRECTION('',(0.0,1.0,0.0));
#427=SURFACE_STYLE_FILL_AREA(#536);
#428=CARTESIAN_POINT('',(0.0,0.0,-48.3));
#429=DIRECTION('',(0.0,-0.0,1.0));
#430=DIRECTION('',(0.0,1.0,0.0));
#431=SURFACE_STYLE_FILL_AREA(#537);
#432=ORIENTED_EDGE('',*,*,#152,.T.);
#433=ORIENTED_EDGE('',*,*,#114,.F.);
#434=ORIENTED_EDGE('',*,*,#146,.T.);
#435=ORIENTED_EDGE('',*,*,#118,.T.);
#436=CARTESIAN_POINT('',(0.0,0.0,-19.797));
#437=DIRECTION('',(-0.0,-0.0,1.0));
#438=DIRECTION('',(0.0,1.0,0.0));
#439=SURFACE_STYLE_FILL_AREA(#538);
#440=ORIENTED_EDGE('',*,*,#112,.T.);
#441=ORIENTED_EDGE('',*,*,#118,.F.);
#442=ORIENTED_EDGE('',*,*,#98,.T.);
#443=ORIENTED_EDGE('',*,*,#88,.T.);
#444=CARTESIAN_POINT('',(0.0,0.0,-0.397000000000006));
#445=DIRECTION('',(0.0,-0.0,-1.0));
#446=DIRECTION('',(0.0,1.0,0.0));
#447=DIRECTION('',(0.0,0.0,-1.0));
#448=CARTESIAN_POINT('',(0.0,0.0,-7.105427357601E-015));
#449=DIRECTION('',(0.0,0.0,-1.0));
#450=DIRECTION('',(0.0,1.0,0.0));
#451=DIRECTION('',(1.06054021204601E-016,-0.866025403784439,-0.5));
#452=SURFACE_STYLE_FILL_AREA(#539);
#453=ORIENTED_EDGE('',*,*,#140,.F.);
#454=ORIENTED_EDGE('',*,*,#88,.F.);
#455=CARTESIAN_POINT('',(0.0,2.15204194313172,-7.105427357601E-015));
#456=DIRECTION('',(-0.0,0.0,1.0));
#457=DIRECTION('',(0.0,-1.0,0.0));
#458=DIRECTION('',(-6.12303176911191E-017,0.500000000000002,0.866025403784438));
#459=CARTESIAN_POINT('',(0.0,0.0,-0.794000000000004));
#460=DIRECTION('',(0.0,0.0,-1.0));
#461=DIRECTION('',(0.0,1.0,0.0));
#462=CARTESIAN_POINT('',(0.0,0.0,-75.7504200011933));
#463=DIRECTION('',(0.0,0.0,-1.0));
#464=DIRECTION('',(0.0,1.0,0.0));
#465=SURFACE_STYLE_FILL_AREA(#540);
#466=ORIENTED_EDGE('',*,*,#152,.F.);
#467=ORIENTED_EDGE('',*,*,#100,.T.);
#468=ORIENTED_EDGE('',*,*,#146,.F.);
#469=ORIENTED_EDGE('',*,*,#126,.F.);
#470=CARTESIAN_POINT('',(0.0,0.0,-19.797));
#471=DIRECTION('',(-0.0,-0.0,1.0));
#472=DIRECTION('',(0.0,1.0,0.0));
#473=DIRECTION('',(-6.12303176911191E-017,0.500000000000002,-0.866025403784438));
#474=CARTESIAN_POINT('',(0.0,0.0,-48.3));
#475=DIRECTION('',(0.0,0.0,-1.0));
#476=DIRECTION('',(0.0,-1.0,0.0));
#477=CARTESIAN_POINT('',(0.0,0.0,-0.794000000000004));
#478=DIRECTION('',(0.0,0.0,-1.0));
#479=DIRECTION('',(0.0,1.0,0.0));
#480=SURFACE_STYLE_FILL_AREA(#541);
#481=ORIENTED_EDGE('',*,*,#112,.F.);
#482=ORIENTED_EDGE('',*,*,#140,.T.);
#483=ORIENTED_EDGE('',*,*,#98,.F.);
#484=ORIENTED_EDGE('',*,*,#100,.F.);
#485=CARTESIAN_POINT('',(0.0,0.0,-0.397000000000006));
#486=DIRECTION('',(0.0,-0.0,-1.0));
#487=DIRECTION('',(0.0,1.0,0.0));
#488=CARTESIAN_POINT('',(0.0,0.0,-75.7504200011933));
#489=DIRECTION('',(0.0,0.0,-1.0));
#490=DIRECTION('',(0.0,1.0,0.0));
#491=CARTESIAN_POINT('',(0.0,0.0,-48.3));
#492=DIRECTION('',(0.0,0.0,-1.0));
#493=DIRECTION('',(0.0,-1.0,0.0));
#494=DIRECTION('',(1.06054021204601E-016,-0.866025403784439,0.5));
#495=SURFACE_STYLE_FILL_AREA(#542);
#496=ORIENTED_EDGE('',*,*,#74,.T.);
#497=ORIENTED_EDGE('',*,*,#144,.T.);
#498=CARTESIAN_POINT('',(0.0,1.9601523,-76.2));
#499=DIRECTION('',(0.0,0.0,-1.0));
#500=DIRECTION('',(0.0,1.0,0.0));
#501=SURFACE_STYLE_FILL_AREA(#543);
#502=ORIENTED_EDGE('',*,*,#94,.T.);
#503=ORIENTED_EDGE('',*,*,#144,.F.);
#504=ORIENTED_EDGE('',*,*,#128,.T.);
#505=ORIENTED_EDGE('',*,*,#106,.T.);
#506=CARTESIAN_POINT('',(0.0,0.0,-75.9752100005966));
#507=DIRECTION('',(-0.0,-0.0,1.0));
#508=DIRECTION('',(0.0,1.0,0.0));
#509=CARTESIAN_POINT('',(0.0,0.0,-7.105427357601E-015));
#510=DIRECTION('',(0.0,0.0,-1.0));
#511=DIRECTION('',(0.0,1.0,0.0));
#512=DIRECTION('',(-0.0,-0.0,1.0));
#513=CARTESIAN_POINT('',(0.0,0.0,-76.2));
#514=DIRECTION('',(0.0,0.0,-1.0));
#515=DIRECTION('',(0.0,1.0,0.0));
#516=DIRECTION('',(-0.0,-0.0,1.0));
#517=SURFACE_STYLE_FILL_AREA(#544);
#518=ORIENTED_EDGE('',*,*,#86,.T.);
#519=ORIENTED_EDGE('',*,*,#106,.F.);
#520=ORIENTED_EDGE('',*,*,#142,.T.);
#521=ORIENTED_EDGE('',*,*,#76,.F.);
#522=CARTESIAN_POINT('',(0.0,0.0,-62.0252100005966));
#523=DIRECTION('',(-0.0,-0.0,1.0));
#524=DIRECTION('',(0.0,1.0,0.0));
#525=SURFACE_STYLE_FILL_AREA(#545);
#526=ORIENTED_EDGE('',*,*,#94,.F.);
#527=ORIENTED_EDGE('',*,*,#122,.T.);
#528=ORIENTED_EDGE('',*,*,#128,.F.);
#529=ORIENTED_EDGE('',*,*,#74,.F.);
#530=CARTESIAN_POINT('',(0.0,0.0,-75.9752100005966));
#531=DIRECTION('',(-0.0,-0.0,1.0));
#532=DIRECTION('',(0.0,1.0,0.0));
#533=DIRECTION('',(0.0,0.0,-1.0));
#534=FILL_AREA_STYLE('',(#546));
#535=FILL_AREA_STYLE('',(#547));
#536=FILL_AREA_STYLE('',(#548));
#537=FILL_AREA_STYLE('',(#549));
#538=FILL_AREA_STYLE('',(#550));
#539=FILL_AREA_STYLE('',(#551));
#540=FILL_AREA_STYLE('',(#552));
#541=FILL_AREA_STYLE('',(#553));
#542=FILL_AREA_STYLE('',(#554));
#543=FILL_AREA_STYLE('',(#555));
#544=FILL_AREA_STYLE('',(#556));
#545=FILL_AREA_STYLE('',(#557));
#546=FILL_AREA_STYLE_COLOUR('',#558);
#547=FILL_AREA_STYLE_COLOUR('',#559);
#548=FILL_AREA_STYLE_COLOUR('',#560);
#549=FILL_AREA_STYLE_COLOUR('',#561);
#550=FILL_AREA_STYLE_COLOUR('',#562);
#551=FILL_AREA_STYLE_COLOUR('',#563);
#552=FILL_AREA_STYLE_COLOUR('',#564);
#553=FILL_AREA_STYLE_COLOUR('',#565);
#554=FILL_AREA_STYLE_COLOUR('',#566);
#555=FILL_AREA_STYLE_COLOUR('',#567);
#556=FILL_AREA_STYLE_COLOUR('',#568);
#557=FILL_AREA_STYLE_COLOUR('',#569);
#558=COLOUR_RGB('',0.498039215803146,0.498039215803146,0.498039215803146);
#559=COLOUR_RGB('',0.800000011920929,0.800000011920929,0.800000011920929);
#560=COLOUR_RGB('',0.498039215803146,0.498039215803146,0.498039215803146);
#561=COLOUR_RGB('',0.498039215803146,0.498039215803146,0.498039215803146);
#562=COLOUR_RGB('',0.498039215803146,0.498039215803146,0.498039215803146);
#563=COLOUR_RGB('',0.498039215803146,0.498039215803146,0.498039215803146);
#564=COLOUR_RGB('',0.498039215803146,0.498039215803146,0.498039215803146);
#565=COLOUR_RGB('',0.498039215803146,0.498039215803146,0.498039215803146);
#566=COLOUR_RGB('',0.498039215803146,0.498039215803146,0.498039215803146);
#567=COLOUR_RGB('',0.800000011920929,0.800000011920929,0.800000011920929);
#568=COLOUR_RGB('',0.800000011920929,0.800000011920929,0.800000011920929);
#569=COLOUR_RGB('',0.800000011920929,0.800000011920929,0.800000011920929);
#570=AXIS2_PLACEMENT_3D('PCS',#571,#572,#573);
#571=CARTESIAN_POINT('',(0.0,0.0,0.0));
#572=DIRECTION('',(0.0,0.0,1.0));
#573=DIRECTION('',(1.0,0.0,0.0));
#574=AXIS2_PLACEMENT_3D('CIP',#575,#576,#577);
#575=CARTESIAN_POINT('',(0.0,0.0,-76.2));
#576=DIRECTION('',(0.0,0.0,1.0));
#577=DIRECTION('',(1.0,0.0,0.0));
#578=AXIS2_PLACEMENT_3D('CRP',#579,#580,#581);
#579=CARTESIAN_POINT('',(-4.699,0.0,-76.2));
#580=DIRECTION('',(0.0,0.0,1.0));
#581=DIRECTION('',(1.0,0.0,0.0));
#582=AXIS2_PLACEMENT_3D('MCS',#583,#584,#585);
#583=CARTESIAN_POINT('',(0.0,0.0,-38.8));
#584=DIRECTION('',(0.0,0.0,1.0));
#585=DIRECTION('',(1.0,0.0,0.0));
#586=CONSTRUCTIVE_GEOMETRY_REPRESENTATION_RELATIONSHIP('coordinate systems',$,#58,#587);
#587=CONSTRUCTIVE_GEOMETRY_REPRESENTATION('coordinate systems',(#570,#574,#578,#582),#6);
ENDSEC;
END-ISO-10303-21;
