ISO-10303-21;
HEADER;
FILE_DESCRIPTION(('no description'),'unknown implementation level');
FILE_NAME('solidajnap6F_ZmTIo4ELrP1i_wey1Kg_1.STP','  ',('CIMSOURCE GmbH'),('CADClick - KiM GmbH - www.kimweb.de'),'unknown preprocess','ACIS','unknown authorization');
FILE_SCHEMA(('automotive_design'));
ENDSEC;
DATA;
#1=MECHANICAL_DESIGN_GEOMETRIC_PRESENTATION_REPRESENTATION(' ',(#10,#11,#12,#13,#14,#15,#16,#17,#18,#19,#20,#21,#22,#23,#24,#25,#26,#27,#28,#29,#30,#31,#32,#33,#34,#35,#36,#37,#38,#39,#40,#41,#42,#43,#44,#45,#46,#47,#48,#49,#50,#51,#52,#53),#6);
#2=PRODUCT_DEFINITION_CONTEXT('',#54,'design');
#3=APPLICATION_PROTOCOL_DEFINITION('INTERNATIONAL STANDARD','automotive_design',1994,#54);
#4=PRODUCT_CATEGORY_RELATIONSHIP('NONE','NONE',#55,#56);
#5=SHAPE_DEFINITION_REPRESENTATION(#57,#58);
#6= (GEOMETRIC_REPRESENTATION_CONTEXT(3)GLOBAL_UNCERTAINTY_ASSIGNED_CONTEXT((#61))GLOBAL_UNIT_ASSIGNED_CONTEXT((#63,#64,#65))REPRESENTATION_CONTEXT('NONE','WORKSPACE'));
#10=STYLED_ITEM('',(#67),#68);
#11=STYLED_ITEM('',(#69),#70);
#12=STYLED_ITEM('',(#71),#72);
#13=STYLED_ITEM('',(#73),#74);
#14=STYLED_ITEM('',(#75),#76);
#15=STYLED_ITEM('',(#77),#78);
#16=STYLED_ITEM('',(#79),#80);
#17=STYLED_ITEM('',(#81),#82);
#18=STYLED_ITEM('',(#83),#84);
#19=STYLED_ITEM('',(#85),#86);
#20=STYLED_ITEM('',(#87),#88);
#21=STYLED_ITEM('',(#89),#90);
#22=STYLED_ITEM('',(#91),#92);
#23=STYLED_ITEM('',(#93),#94);
#24=STYLED_ITEM('',(#95),#96);
#25=STYLED_ITEM('',(#97),#98);
#26=STYLED_ITEM('',(#99),#100);
#27=STYLED_ITEM('',(#101),#102);
#28=STYLED_ITEM('',(#103),#104);
#29=STYLED_ITEM('',(#105),#106);
#30=STYLED_ITEM('',(#107),#108);
#31=STYLED_ITEM('',(#109),#110);
#32=STYLED_ITEM('',(#111),#112);
#33=STYLED_ITEM('',(#113),#114);
#34=STYLED_ITEM('',(#115),#116);
#35=STYLED_ITEM('',(#117),#118);
#36=STYLED_ITEM('',(#119),#120);
#37=STYLED_ITEM('',(#121),#122);
#38=STYLED_ITEM('',(#123),#124);
#39=STYLED_ITEM('',(#125),#126);
#40=STYLED_ITEM('',(#127),#128);
#41=STYLED_ITEM('',(#129),#130);
#42=STYLED_ITEM('',(#131),#132);
#43=STYLED_ITEM('',(#133),#134);
#44=STYLED_ITEM('',(#135),#136);
#45=STYLED_ITEM('',(#137),#138);
#46=STYLED_ITEM('',(#139),#140);
#47=STYLED_ITEM('',(#141),#142);
#48=STYLED_ITEM('',(#143),#144);
#49=STYLED_ITEM('',(#145),#146);
#50=STYLED_ITEM('',(#147),#148);
#51=STYLED_ITEM('',(#149),#150);
#52=STYLED_ITEM('',(#151),#152);
#53=STYLED_ITEM('',(#153),#154);
#54=APPLICATION_CONTEXT(' ');
#55=PRODUCT_CATEGORY('part','NONE');
#56=PRODUCT_RELATED_PRODUCT_CATEGORY('detail',' ',(#155));
#57=PRODUCT_DEFINITION_SHAPE('NONE','NONE',#156);
#58=ADVANCED_BREP_SHAPE_REPRESENTATION('1',(#72,#157),#6);
#61=UNCERTAINTY_MEASURE_WITH_UNIT(LENGTH_MEASURE(1.0E-006),#63,'','');
#63= (CONVERSION_BASED_UNIT('MILLIMETRE',#160)LENGTH_UNIT()NAMED_UNIT(#163));
#64= (NAMED_UNIT(#165)PLANE_ANGLE_UNIT()SI_UNIT($,.RADIAN.));
#65= (NAMED_UNIT(#165)SOLID_ANGLE_UNIT()SI_UNIT($,.STERADIAN.));
#67=PRESENTATION_STYLE_ASSIGNMENT((#171));
#68=VERTEX_POINT('',#172);
#69=PRESENTATION_STYLE_ASSIGNMENT((#173));
#70=ADVANCED_FACE('',(#174),#175,.T.);
#71=PRESENTATION_STYLE_ASSIGNMENT((#176));
#72=MANIFOLD_SOLID_BREP('1',#177);
#73=PRESENTATION_STYLE_ASSIGNMENT((#178));
#74=ADVANCED_FACE('',(#179),#180,.T.);
#75=PRESENTATION_STYLE_ASSIGNMENT((#181));
#76=ADVANCED_FACE('',(#182),#183,.T.);
#77=PRESENTATION_STYLE_ASSIGNMENT((#184));
#78=ADVANCED_FACE('',(#185),#186,.T.);
#79=PRESENTATION_STYLE_ASSIGNMENT((#187));
#80=VERTEX_POINT('',#188);
#81=PRESENTATION_STYLE_ASSIGNMENT((#189));
#82=VERTEX_POINT('',#190);
#83=PRESENTATION_STYLE_ASSIGNMENT((#191));
#84=EDGE_CURVE('',#150,#134,#192,.T.);
#85=PRESENTATION_STYLE_ASSIGNMENT((#193));
#86=EDGE_CURVE('',#152,#136,#194,.T.);
#87=PRESENTATION_STYLE_ASSIGNMENT((#195));
#88=EDGE_CURVE('',#80,#130,#196,.T.);
#89=PRESENTATION_STYLE_ASSIGNMENT((#197));
#90=ADVANCED_FACE('',(#198,#199),#200,.T.);
#91=PRESENTATION_STYLE_ASSIGNMENT((#201));
#92=VERTEX_POINT('',#202);
#93=PRESENTATION_STYLE_ASSIGNMENT((#203));
#94=EDGE_CURVE('',#92,#82,#204,.T.);
#95=PRESENTATION_STYLE_ASSIGNMENT((#205));
#96=EDGE_CURVE('',#130,#80,#206,.T.);
#97=PRESENTATION_STYLE_ASSIGNMENT((#207));
#98=EDGE_CURVE('',#126,#148,#208,.T.);
#99=PRESENTATION_STYLE_ASSIGNMENT((#209));
#100=EDGE_CURVE('',#126,#136,#210,.T.);
#101=PRESENTATION_STYLE_ASSIGNMENT((#211));
#102=EDGE_CURVE('',#68,#134,#212,.T.);
#103=PRESENTATION_STYLE_ASSIGNMENT((#213));
#104=EDGE_CURVE('',#152,#148,#214,.T.);
#105=PRESENTATION_STYLE_ASSIGNMENT((#215));
#106=EDGE_CURVE('',#134,#82,#216,.T.);
#107=PRESENTATION_STYLE_ASSIGNMENT((#217));
#108=EDGE_CURVE('',#150,#142,#218,.T.);
#109=PRESENTATION_STYLE_ASSIGNMENT((#219));
#110=ADVANCED_FACE('',(#220),#221,.T.);
#111=PRESENTATION_STYLE_ASSIGNMENT((#222));
#112=ADVANCED_FACE('',(#223),#224,.T.);
#113=PRESENTATION_STYLE_ASSIGNMENT((#225));
#114=ADVANCED_FACE('',(#226),#227,.T.);
#115=PRESENTATION_STYLE_ASSIGNMENT((#228));
#116=EDGE_CURVE('',#148,#152,#229,.T.);
#117=PRESENTATION_STYLE_ASSIGNMENT((#230));
#118=ADVANCED_FACE('',(#231),#232,.T.);
#119=PRESENTATION_STYLE_ASSIGNMENT((#233));
#120=EDGE_CURVE('',#142,#68,#234,.T.);
#121=PRESENTATION_STYLE_ASSIGNMENT((#235));
#122=EDGE_CURVE('',#92,#150,#236,.T.);
#123=PRESENTATION_STYLE_ASSIGNMENT((#237));
#124=EDGE_CURVE('',#68,#142,#238,.T.);
#125=PRESENTATION_STYLE_ASSIGNMENT((#239));
#126=VERTEX_POINT('',#240);
#127=PRESENTATION_STYLE_ASSIGNMENT((#241));
#128=EDGE_CURVE('',#82,#92,#242,.T.);
#129=PRESENTATION_STYLE_ASSIGNMENT((#243));
#130=VERTEX_POINT('',#244);
#131=PRESENTATION_STYLE_ASSIGNMENT((#245));
#132=ADVANCED_FACE('',(#246),#247,.T.);
#133=PRESENTATION_STYLE_ASSIGNMENT((#248));
#134=VERTEX_POINT('',#249);
#135=PRESENTATION_STYLE_ASSIGNMENT((#250));
#136=VERTEX_POINT('',#251);
#137=PRESENTATION_STYLE_ASSIGNMENT((#252));
#138=EDGE_CURVE('',#130,#152,#253,.T.);
#139=PRESENTATION_STYLE_ASSIGNMENT((#254));
#140=EDGE_CURVE('',#136,#126,#255,.T.);
#141=PRESENTATION_STYLE_ASSIGNMENT((#256));
#142=VERTEX_POINT('',#257);
#143=PRESENTATION_STYLE_ASSIGNMENT((#258));
#144=EDGE_CURVE('',#134,#150,#259,.T.);
#145=PRESENTATION_STYLE_ASSIGNMENT((#260));
#146=ADVANCED_FACE('',(#261),#262,.T.);
#147=PRESENTATION_STYLE_ASSIGNMENT((#263));
#148=VERTEX_POINT('',#264);
#149=PRESENTATION_STYLE_ASSIGNMENT((#265));
#150=VERTEX_POINT('',#266);
#151=PRESENTATION_STYLE_ASSIGNMENT((#267));
#152=VERTEX_POINT('',#268);
#153=PRESENTATION_STYLE_ASSIGNMENT((#269));
#154=EDGE_CURVE('',#148,#80,#270,.T.);
#155=PRODUCT('1','1','PART-1-DESC',(#271));
#156=PRODUCT_DEFINITION('NONE','NONE',#272,#2);
#157=AXIS2_PLACEMENT_3D('',#273,#274,#275);
#160=LENGTH_MEASURE_WITH_UNIT(LENGTH_MEASURE(1.0),#276);
#163=DIMENSIONAL_EXPONENTS(1.0,0.0,0.0,0.0,0.0,0.0,0.0);
#165=DIMENSIONAL_EXPONENTS(0.0,0.0,0.0,0.0,0.0,0.0,0.0);
#171=POINT_STYLE(' ',#277,POSITIVE_LENGTH_MEASURE(1.0E-006),#278);
#172=CARTESIAN_POINT('',(6.63893747296254E-016,-5.42128289,-101.6));
#173=SURFACE_STYLE_USAGE(.BOTH.,#279);
#174=FACE_OUTER_BOUND('',#280,.T.);
#175=CONICAL_SURFACE('',#281,5.853891445,1.0471975511966);
#176=SURFACE_STYLE_USAGE(.BOTH.,#282);
#177=CLOSED_SHELL('',(#74,#76,#146,#132,#118,#70,#90,#112,#110,#78,#114));
#178=SURFACE_STYLE_USAGE(.BOTH.,#283);
#179=FACE_OUTER_BOUND('',#284,.T.);
#180=CYLINDRICAL_SURFACE('',#285,6.35);
#181=SURFACE_STYLE_USAGE(.BOTH.,#286);
#182=FACE_OUTER_BOUND('',#287,.T.);
#183=CONICAL_SURFACE('',#288,6.12079194313172,0.523598775598301);
#184=SURFACE_STYLE_USAGE(.BOTH.,#289);
#185=FACE_OUTER_BOUND('',#290,.T.);
#186=CYLINDRICAL_SURFACE('',#291,6.35);
#187=POINT_STYLE(' ',#292,POSITIVE_LENGTH_MEASURE(1.0E-006),#293);
#188=CARTESIAN_POINT('',(-7.7762503467721E-016,6.35,-63.5));
#189=POINT_STYLE(' ',#294,POSITIVE_LENGTH_MEASURE(1.0E-006),#295);
#190=CARTESIAN_POINT('',(7.69848784330437E-016,-6.2865,-63.5));
#191=CURVE_STYLE('',#296,POSITIVE_LENGTH_MEASURE(1.0E-006),#297);
#192=CIRCLE('',#298,6.2865);
#193=CURVE_STYLE('',#299,POSITIVE_LENGTH_MEASURE(1.0E-006),#300);
#194=LINE('',#301,#302);
#195=CURVE_STYLE('',#303,POSITIVE_LENGTH_MEASURE(1.0E-006),#304);
#196=CIRCLE('',#305,6.35);
#197=SURFACE_STYLE_USAGE(.BOTH.,#306);
#198=FACE_BOUND('',#307,.T.);
#199=FACE_OUTER_BOUND('',#308,.T.);
#200=PLANE('',#309);
#201=POINT_STYLE(' ',#310,POSITIVE_LENGTH_MEASURE(1.0E-006),#311);
#202=CARTESIAN_POINT('',(0.0,6.2865,-63.5));
#203=CURVE_STYLE('',#312,POSITIVE_LENGTH_MEASURE(1.0E-006),#313);
#204=CIRCLE('',#314,6.2865);
#205=CURVE_STYLE('',#315,POSITIVE_LENGTH_MEASURE(1.0E-006),#316);
#206=CIRCLE('',#317,6.35);
#207=CURVE_STYLE('',#318,POSITIVE_LENGTH_MEASURE(1.0E-006),#319);
#208=LINE('',#320,#321);
#209=CURVE_STYLE('',#322,POSITIVE_LENGTH_MEASURE(1.0E-006),#323);
#210=CIRCLE('',#324,5.89158388626344);
#211=CURVE_STYLE('',#325,POSITIVE_LENGTH_MEASURE(1.0E-006),#326);
#212=LINE('',#327,#328);
#213=CURVE_STYLE('',#329,POSITIVE_LENGTH_MEASURE(1.0E-006),#330);
#214=CIRCLE('',#331,6.35);
#215=CURVE_STYLE('',#332,POSITIVE_LENGTH_MEASURE(1.0E-006),#333);
#216=LINE('',#334,#335);
#217=CURVE_STYLE('',#336,POSITIVE_LENGTH_MEASURE(1.0E-006),#337);
#218=LINE('',#338,#339);
#219=SURFACE_STYLE_USAGE(.BOTH.,#340);
#220=FACE_OUTER_BOUND('',#341,.T.);
#221=CONICAL_SURFACE('',#342,6.12079194313172,0.523598775598301);
#222=SURFACE_STYLE_USAGE(.BOTH.,#343);
#223=FACE_OUTER_BOUND('',#344,.T.);
#224=PLANE('',#345);
#225=SURFACE_STYLE_USAGE(.BOTH.,#346);
#226=FACE_OUTER_BOUND('',#347,.T.);
#227=PLANE('',#348);
#228=CURVE_STYLE('',#349,POSITIVE_LENGTH_MEASURE(1.0E-006),#350);
#229=CIRCLE('',#351,6.35);
#230=SURFACE_STYLE_USAGE(.BOTH.,#352);
#231=FACE_OUTER_BOUND('',#353,.T.);
#232=CYLINDRICAL_SURFACE('',#354,6.2865);
#233=CURVE_STYLE('',#355,POSITIVE_LENGTH_MEASURE(1.0E-006),#356);
#234=CIRCLE('',#357,5.42128289);
#235=CURVE_STYLE('',#358,POSITIVE_LENGTH_MEASURE(1.0E-006),#359);
#236=LINE('',#360,#361);
#237=CURVE_STYLE('',#362,POSITIVE_LENGTH_MEASURE(1.0E-006),#363);
#238=CIRCLE('',#364,5.42128289);
#239=POINT_STYLE(' ',#365,POSITIVE_LENGTH_MEASURE(1.0E-006),#366);
#240=CARTESIAN_POINT('',(0.0,5.89158388626344,7.105427357601E-015));
#241=CURVE_STYLE('',#367,POSITIVE_LENGTH_MEASURE(1.0E-006),#368);
#242=CIRCLE('',#369,6.2865);
#243=POINT_STYLE(' ',#370,POSITIVE_LENGTH_MEASURE(1.0E-006),#371);
#244=CARTESIAN_POINT('',(0.0,-6.35,-63.5));
#245=SURFACE_STYLE_USAGE(.BOTH.,#372);
#246=FACE_OUTER_BOUND('',#373,.T.);
#247=CYLINDRICAL_SURFACE('',#374,6.2865);
#248=POINT_STYLE(' ',#375,POSITIVE_LENGTH_MEASURE(1.0E-006),#376);
#249=CARTESIAN_POINT('',(7.69848784330437E-016,-6.2865,-101.100466668634));
#250=POINT_STYLE(' ',#377,POSITIVE_LENGTH_MEASURE(1.0E-006),#378);
#251=CARTESIAN_POINT('',(7.21487106119574E-016,-5.89158388626344,7.105427357601E-015));
#252=CURVE_STYLE('',#379,POSITIVE_LENGTH_MEASURE(1.0E-006),#380);
#253=LINE('',#381,#382);
#254=CURVE_STYLE('',#383,POSITIVE_LENGTH_MEASURE(1.0E-006),#384);
#255=CIRCLE('',#385,5.89158388626344);
#256=POINT_STYLE(' ',#386,POSITIVE_LENGTH_MEASURE(1.0E-006),#387);
#257=CARTESIAN_POINT('',(0.0,5.42128289,-101.6));
#258=CURVE_STYLE('',#388,POSITIVE_LENGTH_MEASURE(1.0E-006),#389);
#259=CIRCLE('',#390,6.2865);
#260=SURFACE_STYLE_USAGE(.BOTH.,#391);
#261=FACE_OUTER_BOUND('',#392,.T.);
#262=CONICAL_SURFACE('',#393,5.853891445,1.0471975511966);
#263=POINT_STYLE(' ',#394,POSITIVE_LENGTH_MEASURE(1.0E-006),#395);
#264=CARTESIAN_POINT('',(0.0,6.35,-0.79399999999999));
#265=POINT_STYLE(' ',#396,POSITIVE_LENGTH_MEASURE(1.0E-006),#397);
#266=CARTESIAN_POINT('',(0.0,6.2865,-101.100466668634));
#267=POINT_STYLE(' ',#398,POSITIVE_LENGTH_MEASURE(1.0E-006),#399);
#268=CARTESIAN_POINT('',(7.7762503467721E-016,-6.35,-0.79399999999999));
#269=CURVE_STYLE('',#400,POSITIVE_LENGTH_MEASURE(1.0E-006),#401);
#270=LINE('',#402,#403);
#271=PRODUCT_CONTEXT('',#54,'mechanical');
#272=PRODUCT_DEFINITION_FORMATION_WITH_SPECIFIED_SOURCE(' ','NONE',#155,.NOT_KNOWN.);
#273=CARTESIAN_POINT('',(0.0,0.0,0.0));
#274=DIRECTION('',(0.0,0.0,1.0));
#275=DIRECTION('',(1.0,0.0,0.0));
#276= (NAMED_UNIT(#163)LENGTH_UNIT()SI_UNIT(.MILLI.,.METRE.));
#277=PRE_DEFINED_MARKER('');
#278=COLOUR_RGB('',0.498039215803146,0.498039215803146,0.498039215803146);
#279=SURFACE_SIDE_STYLE('',(#405));
#280=EDGE_LOOP('',(#406,#407,#408,#409));
#281=AXIS2_PLACEMENT_3D('',#410,#411,#412);
#282=SURFACE_SIDE_STYLE('',(#413));
#283=SURFACE_SIDE_STYLE('',(#414));
#284=EDGE_LOOP('',(#415,#416,#417,#418));
#285=AXIS2_PLACEMENT_3D('',#419,#420,#421);
#286=SURFACE_SIDE_STYLE('',(#422));
#287=EDGE_LOOP('',(#423,#424,#425,#426));
#288=AXIS2_PLACEMENT_3D('',#427,#428,#429);
#289=SURFACE_SIDE_STYLE('',(#430));
#290=EDGE_LOOP('',(#431,#432,#433,#434));
#291=AXIS2_PLACEMENT_3D('',#435,#436,#437);
#292=PRE_DEFINED_MARKER('');
#293=COLOUR_RGB('',0.498039215803146,0.498039215803146,0.498039215803146);
#294=PRE_DEFINED_MARKER('');
#295=COLOUR_RGB('',0.498039215803146,0.498039215803146,0.498039215803146);
#296=DRAUGHTING_PRE_DEFINED_CURVE_FONT('continuous');
#297=COLOUR_RGB('',0.800000011920929,0.800000011920929,0.800000011920929);
#298=AXIS2_PLACEMENT_3D('',#438,#439,#440);
#299=DRAUGHTING_PRE_DEFINED_CURVE_FONT('continuous');
#300=COLOUR_RGB('',0.498039215803146,0.498039215803146,0.498039215803146);
#301=CARTESIAN_POINT('',(7.49556070398392E-016,-6.12079194313172,-0.396999999999991));
#302=VECTOR('',#441,1.0);
#303=DRAUGHTING_PRE_DEFINED_CURVE_FONT('continuous');
#304=COLOUR_RGB('',0.498039215803146,0.498039215803146,0.498039215803146);
#305=AXIS2_PLACEMENT_3D('',#442,#443,#444);
#306=SURFACE_SIDE_STYLE('',(#445));
#307=EDGE_LOOP('',(#446,#447));
#308=EDGE_LOOP('',(#448,#449));
#309=AXIS2_PLACEMENT_3D('',#450,#451,#452);
#310=PRE_DEFINED_MARKER('');
#311=COLOUR_RGB('',0.498039215803146,0.498039215803146,0.498039215803146);
#312=DRAUGHTING_PRE_DEFINED_CURVE_FONT('continuous');
#313=COLOUR_RGB('',0.498039215803146,0.498039215803146,0.498039215803146);
#314=AXIS2_PLACEMENT_3D('',#453,#454,#455);
#315=DRAUGHTING_PRE_DEFINED_CURVE_FONT('continuous');
#316=COLOUR_RGB('',0.498039215803146,0.498039215803146,0.498039215803146);
#317=AXIS2_PLACEMENT_3D('',#456,#457,#458);
#318=DRAUGHTING_PRE_DEFINED_CURVE_FONT('continuous');
#319=COLOUR_RGB('',0.498039215803146,0.498039215803146,0.498039215803146);
#320=CARTESIAN_POINT('',(-7.49556070398392E-016,6.12079194313172,-0.396999999999991));
#321=VECTOR('',#459,1.0);
#322=DRAUGHTING_PRE_DEFINED_CURVE_FONT('continuous');
#323=COLOUR_RGB('',0.498039215803146,0.498039215803146,0.498039215803146);
#324=AXIS2_PLACEMENT_3D('',#460,#461,#462);
#325=DRAUGHTING_PRE_DEFINED_CURVE_FONT('continuous');
#326=COLOUR_RGB('',0.800000011920929,0.800000011920929,0.800000011920929);
#327=CARTESIAN_POINT('',(7.16871265813346E-016,-5.853891445,-101.350233334317));
#328=VECTOR('',#463,1.0);
#329=DRAUGHTING_PRE_DEFINED_CURVE_FONT('continuous');
#330=COLOUR_RGB('',0.498039215803146,0.498039215803146,0.498039215803146);
#331=AXIS2_PLACEMENT_3D('',#464,#465,#466);
#332=DRAUGHTING_PRE_DEFINED_CURVE_FONT('continuous');
#333=COLOUR_RGB('',0.800000011920929,0.800000011920929,0.800000011920929);
#334=CARTESIAN_POINT('',(7.69848784330437E-016,-6.2865,-82.300233334317));
#335=VECTOR('',#467,1.0);
#336=DRAUGHTING_PRE_DEFINED_CURVE_FONT('continuous');
#337=COLOUR_RGB('',0.800000011920929,0.800000011920929,0.800000011920929);
#338=CARTESIAN_POINT('',(-7.16871265813346E-016,5.853891445,-101.350233334317));
#339=VECTOR('',#468,1.0);
#340=SURFACE_SIDE_STYLE('',(#469));
#341=EDGE_LOOP('',(#470,#471,#472,#473));
#342=AXIS2_PLACEMENT_3D('',#474,#475,#476);
#343=SURFACE_SIDE_STYLE('',(#477));
#344=EDGE_LOOP('',(#478,#479));
#345=AXIS2_PLACEMENT_3D('',#480,#481,#482);
#346=SURFACE_SIDE_STYLE('',(#483));
#347=EDGE_LOOP('',(#484,#485));
#348=AXIS2_PLACEMENT_3D('',#486,#487,#488);
#349=DRAUGHTING_PRE_DEFINED_CURVE_FONT('continuous');
#350=COLOUR_RGB('',0.498039215803146,0.498039215803146,0.498039215803146);
#351=AXIS2_PLACEMENT_3D('',#489,#490,#491);
#352=SURFACE_SIDE_STYLE('',(#492));
#353=EDGE_LOOP('',(#493,#494,#495,#496));
#354=AXIS2_PLACEMENT_3D('',#497,#498,#499);
#355=DRAUGHTING_PRE_DEFINED_CURVE_FONT('continuous');
#356=COLOUR_RGB('',0.498039215803146,0.498039215803146,0.498039215803146);
#357=AXIS2_PLACEMENT_3D('',#500,#501,#502);
#358=DRAUGHTING_PRE_DEFINED_CURVE_FONT('continuous');
#359=COLOUR_RGB('',0.800000011920929,0.800000011920929,0.800000011920929);
#360=CARTESIAN_POINT('',(-7.69848784330437E-016,6.2865,-82.300233334317));
#361=VECTOR('',#503,1.0);
#362=DRAUGHTING_PRE_DEFINED_CURVE_FONT('continuous');
#363=COLOUR_RGB('',0.498039215803146,0.498039215803146,0.498039215803146);
#364=AXIS2_PLACEMENT_3D('',#504,#505,#506);
#365=PRE_DEFINED_MARKER('');
#366=COLOUR_RGB('',0.498039215803146,0.498039215803146,0.498039215803146);
#367=DRAUGHTING_PRE_DEFINED_CURVE_FONT('continuous');
#368=COLOUR_RGB('',0.498039215803146,0.498039215803146,0.498039215803146);
#369=AXIS2_PLACEMENT_3D('',#507,#508,#509);
#370=PRE_DEFINED_MARKER('');
#371=COLOUR_RGB('',0.498039215803146,0.498039215803146,0.498039215803146);
#372=SURFACE_SIDE_STYLE('',(#510));
#373=EDGE_LOOP('',(#511,#512,#513,#514));
#374=AXIS2_PLACEMENT_3D('',#515,#516,#517);
#375=PRE_DEFINED_MARKER('');
#376=COLOUR_RGB('',0.800000011920929,0.800000011920929,0.800000011920929);
#377=PRE_DEFINED_MARKER('');
#378=COLOUR_RGB('',0.498039215803146,0.498039215803146,0.498039215803146);
#379=DRAUGHTING_PRE_DEFINED_CURVE_FONT('continuous');
#380=COLOUR_RGB('',0.498039215803146,0.498039215803146,0.498039215803146);
#381=CARTESIAN_POINT('',(7.7762503467721E-016,-6.35,-24.647));
#382=VECTOR('',#518,1.0);
#383=DRAUGHTING_PRE_DEFINED_CURVE_FONT('continuous');
#384=COLOUR_RGB('',0.498039215803146,0.498039215803146,0.498039215803146);
#385=AXIS2_PLACEMENT_3D('',#519,#520,#521);
#386=PRE_DEFINED_MARKER('');
#387=COLOUR_RGB('',0.498039215803146,0.498039215803146,0.498039215803146);
#388=DRAUGHTING_PRE_DEFINED_CURVE_FONT('continuous');
#389=COLOUR_RGB('',0.800000011920929,0.800000011920929,0.800000011920929);
#390=AXIS2_PLACEMENT_3D('',#522,#523,#524);
#391=SURFACE_SIDE_STYLE('',(#525));
#392=EDGE_LOOP('',(#526,#527,#528,#529));
#393=AXIS2_PLACEMENT_3D('',#530,#531,#532);
#394=PRE_DEFINED_MARKER('');
#395=COLOUR_RGB('',0.498039215803146,0.498039215803146,0.498039215803146);
#396=PRE_DEFINED_MARKER('');
#397=COLOUR_RGB('',0.800000011920929,0.800000011920929,0.800000011920929);
#398=PRE_DEFINED_MARKER('');
#399=COLOUR_RGB('',0.498039215803146,0.498039215803146,0.498039215803146);
#400=DRAUGHTING_PRE_DEFINED_CURVE_FONT('continuous');
#401=COLOUR_RGB('',0.498039215803146,0.498039215803146,0.498039215803146);
#402=CARTESIAN_POINT('',(-7.7762503467721E-016,6.35,-24.647));
#403=VECTOR('',#533,1.0);
#405=SURFACE_STYLE_FILL_AREA(#534);
#406=ORIENTED_EDGE('',*,*,#108,.T.);
#407=ORIENTED_EDGE('',*,*,#124,.F.);
#408=ORIENTED_EDGE('',*,*,#102,.T.);
#409=ORIENTED_EDGE('',*,*,#144,.T.);
#410=CARTESIAN_POINT('',(0.0,0.0,-101.350233334317));
#411=DIRECTION('',(-0.0,-0.0,1.0));
#412=DIRECTION('',(0.0,1.0,0.0));
#413=SURFACE_STYLE_FILL_AREA(#535);
#414=SURFACE_STYLE_FILL_AREA(#536);
#415=ORIENTED_EDGE('',*,*,#154,.F.);
#416=ORIENTED_EDGE('',*,*,#116,.T.);
#417=ORIENTED_EDGE('',*,*,#138,.F.);
#418=ORIENTED_EDGE('',*,*,#88,.F.);
#419=CARTESIAN_POINT('',(0.0,0.0,-24.647));
#420=DIRECTION('',(-0.0,-0.0,1.0));
#421=DIRECTION('',(0.0,1.0,0.0));
#422=SURFACE_STYLE_FILL_AREA(#537);
#423=ORIENTED_EDGE('',*,*,#98,.F.);
#424=ORIENTED_EDGE('',*,*,#100,.T.);
#425=ORIENTED_EDGE('',*,*,#86,.F.);
#426=ORIENTED_EDGE('',*,*,#116,.F.);
#427=CARTESIAN_POINT('',(0.0,0.0,-0.396999999999991));
#428=DIRECTION('',(0.0,-0.0,-1.0));
#429=DIRECTION('',(0.0,1.0,0.0));
#430=SURFACE_STYLE_FILL_AREA(#538);
#431=ORIENTED_EDGE('',*,*,#154,.T.);
#432=ORIENTED_EDGE('',*,*,#96,.F.);
#433=ORIENTED_EDGE('',*,*,#138,.T.);
#434=ORIENTED_EDGE('',*,*,#104,.T.);
#435=CARTESIAN_POINT('',(0.0,0.0,-24.647));
#436=DIRECTION('',(-0.0,-0.0,1.0));
#437=DIRECTION('',(0.0,1.0,0.0));
#438=CARTESIAN_POINT('',(0.0,0.0,-101.100466668634));
#439=DIRECTION('',(0.0,0.0,-1.0));
#440=DIRECTION('',(0.0,1.0,0.0));
#441=DIRECTION('',(-6.12303176911191E-017,0.500000000000002,0.866025403784438));
#442=CARTESIAN_POINT('',(0.0,0.0,-63.5));
#443=DIRECTION('',(0.0,0.0,-1.0));
#444=DIRECTION('',(0.0,-1.0,0.0));
#445=SURFACE_STYLE_FILL_AREA(#539);
#446=ORIENTED_EDGE('',*,*,#94,.T.);
#447=ORIENTED_EDGE('',*,*,#128,.T.);
#448=ORIENTED_EDGE('',*,*,#96,.T.);
#449=ORIENTED_EDGE('',*,*,#88,.T.);
#450=CARTESIAN_POINT('',(0.0,0.0,-63.5));
#451=DIRECTION('',(0.0,0.0,-1.0));
#452=DIRECTION('',(0.0,-1.0,0.0));
#453=CARTESIAN_POINT('',(0.0,0.0,-63.5));
#454=DIRECTION('',(0.0,-0.0,1.0));
#455=DIRECTION('',(0.0,1.0,0.0));
#456=CARTESIAN_POINT('',(0.0,0.0,-63.5));
#457=DIRECTION('',(0.0,0.0,-1.0));
#458=DIRECTION('',(0.0,-1.0,0.0));
#459=DIRECTION('',(-6.12303176911191E-017,0.500000000000002,-0.866025403784438));
#460=CARTESIAN_POINT('',(0.0,0.0,7.105427357601E-015));
#461=DIRECTION('',(0.0,0.0,-1.0));
#462=DIRECTION('',(0.0,1.0,0.0));
#463=DIRECTION('',(1.06054021204601E-016,-0.86602540378444,0.499999999999998));
#464=CARTESIAN_POINT('',(0.0,0.0,-0.79399999999999));
#465=DIRECTION('',(0.0,0.0,-1.0));
#466=DIRECTION('',(0.0,1.0,0.0));
#467=DIRECTION('',(-0.0,-0.0,1.0));
#468=DIRECTION('',(1.06054021204601E-016,-0.86602540378444,-0.499999999999998));
#469=SURFACE_STYLE_FILL_AREA(#540);
#470=ORIENTED_EDGE('',*,*,#98,.T.);
#471=ORIENTED_EDGE('',*,*,#104,.F.);
#472=ORIENTED_EDGE('',*,*,#86,.T.);
#473=ORIENTED_EDGE('',*,*,#140,.T.);
#474=CARTESIAN_POINT('',(0.0,0.0,-0.396999999999991));
#475=DIRECTION('',(0.0,-0.0,-1.0));
#476=DIRECTION('',(0.0,1.0,0.0));
#477=SURFACE_STYLE_FILL_AREA(#541);
#478=ORIENTED_EDGE('',*,*,#100,.F.);
#479=ORIENTED_EDGE('',*,*,#140,.F.);
#480=CARTESIAN_POINT('',(0.0,2.94579194313172,7.105427357601E-015));
#481=DIRECTION('',(-0.0,0.0,1.0));
#482=DIRECTION('',(0.0,-1.0,0.0));
#483=SURFACE_STYLE_FILL_AREA(#542);
#484=ORIENTED_EDGE('',*,*,#120,.T.);
#485=ORIENTED_EDGE('',*,*,#124,.T.);
#486=CARTESIAN_POINT('',(0.0,2.710641445,-101.6));
#487=DIRECTION('',(0.0,0.0,-1.0));
#488=DIRECTION('',(0.0,1.0,0.0));
#489=CARTESIAN_POINT('',(0.0,0.0,-0.79399999999999));
#490=DIRECTION('',(0.0,0.0,-1.0));
#491=DIRECTION('',(0.0,1.0,0.0));
#492=SURFACE_STYLE_FILL_AREA(#543);
#493=ORIENTED_EDGE('',*,*,#122,.T.);
#494=ORIENTED_EDGE('',*,*,#144,.F.);
#495=ORIENTED_EDGE('',*,*,#106,.T.);
#496=ORIENTED_EDGE('',*,*,#94,.F.);
#497=CARTESIAN_POINT('',(0.0,0.0,-82.300233334317));
#498=DIRECTION('',(-0.0,-0.0,1.0));
#499=DIRECTION('',(0.0,1.0,0.0));
#500=CARTESIAN_POINT('',(0.0,0.0,-101.6));
#501=DIRECTION('',(0.0,0.0,-1.0));
#502=DIRECTION('',(0.0,1.0,0.0));
#503=DIRECTION('',(0.0,0.0,-1.0));
#504=CARTESIAN_POINT('',(0.0,0.0,-101.6));
#505=DIRECTION('',(0.0,0.0,-1.0));
#506=DIRECTION('',(0.0,1.0,0.0));
#507=CARTESIAN_POINT('',(0.0,0.0,-63.5));
#508=DIRECTION('',(0.0,-0.0,1.0));
#509=DIRECTION('',(0.0,1.0,0.0));
#510=SURFACE_STYLE_FILL_AREA(#544);
#511=ORIENTED_EDGE('',*,*,#122,.F.);
#512=ORIENTED_EDGE('',*,*,#128,.F.);
#513=ORIENTED_EDGE('',*,*,#106,.F.);
#514=ORIENTED_EDGE('',*,*,#84,.F.);
#515=CARTESIAN_POINT('',(0.0,0.0,-82.300233334317));
#516=DIRECTION('',(-0.0,-0.0,1.0));
#517=DIRECTION('',(0.0,1.0,0.0));
#518=DIRECTION('',(-0.0,-0.0,1.0));
#519=CARTESIAN_POINT('',(0.0,0.0,7.105427357601E-015));
#520=DIRECTION('',(0.0,0.0,-1.0));
#521=DIRECTION('',(0.0,1.0,0.0));
#522=CARTESIAN_POINT('',(0.0,0.0,-101.100466668634));
#523=DIRECTION('',(0.0,0.0,-1.0));
#524=DIRECTION('',(0.0,1.0,0.0));
#525=SURFACE_STYLE_FILL_AREA(#545);
#526=ORIENTED_EDGE('',*,*,#108,.F.);
#527=ORIENTED_EDGE('',*,*,#84,.T.);
#528=ORIENTED_EDGE('',*,*,#102,.F.);
#529=ORIENTED_EDGE('',*,*,#120,.F.);
#530=CARTESIAN_POINT('',(0.0,0.0,-101.350233334317));
#531=DIRECTION('',(-0.0,-0.0,1.0));
#532=DIRECTION('',(0.0,1.0,0.0));
#533=DIRECTION('',(0.0,0.0,-1.0));
#534=FILL_AREA_STYLE('',(#546));
#535=FILL_AREA_STYLE('',(#547));
#536=FILL_AREA_STYLE('',(#548));
#537=FILL_AREA_STYLE('',(#549));
#538=FILL_AREA_STYLE('',(#550));
#539=FILL_AREA_STYLE('',(#551));
#540=FILL_AREA_STYLE('',(#552));
#541=FILL_AREA_STYLE('',(#553));
#542=FILL_AREA_STYLE('',(#554));
#543=FILL_AREA_STYLE('',(#555));
#544=FILL_AREA_STYLE('',(#556));
#545=FILL_AREA_STYLE('',(#557));
#546=FILL_AREA_STYLE_COLOUR('',#558);
#547=FILL_AREA_STYLE_COLOUR('',#559);
#548=FILL_AREA_STYLE_COLOUR('',#560);
#549=FILL_AREA_STYLE_COLOUR('',#561);
#550=FILL_AREA_STYLE_COLOUR('',#562);
#551=FILL_AREA_STYLE_COLOUR('',#563);
#552=FILL_AREA_STYLE_COLOUR('',#564);
#553=FILL_AREA_STYLE_COLOUR('',#565);
#554=FILL_AREA_STYLE_COLOUR('',#566);
#555=FILL_AREA_STYLE_COLOUR('',#567);
#556=FILL_AREA_STYLE_COLOUR('',#568);
#557=FILL_AREA_STYLE_COLOUR('',#569);
#558=COLOUR_RGB('',0.800000011920929,0.800000011920929,0.800000011920929);
#559=COLOUR_RGB('',0.498039215803146,0.498039215803146,0.498039215803146);
#560=COLOUR_RGB('',0.498039215803146,0.498039215803146,0.498039215803146);
#561=COLOUR_RGB('',0.498039215803146,0.498039215803146,0.498039215803146);
#562=COLOUR_RGB('',0.498039215803146,0.498039215803146,0.498039215803146);
#563=COLOUR_RGB('',0.498039215803146,0.498039215803146,0.498039215803146);
#564=COLOUR_RGB('',0.498039215803146,0.498039215803146,0.498039215803146);
#565=COLOUR_RGB('',0.498039215803146,0.498039215803146,0.498039215803146);
#566=COLOUR_RGB('',0.498039215803146,0.498039215803146,0.498039215803146);
#567=COLOUR_RGB('',0.800000011920929,0.800000011920929,0.800000011920929);
#568=COLOUR_RGB('',0.800000011920929,0.800000011920929,0.800000011920929);
#569=COLOUR_RGB('',0.800000011920929,0.800000011920929,0.800000011920929);
#570=AXIS2_PLACEMENT_3D('PCS',#571,#572,#573);
#571=CARTESIAN_POINT('',(0.0,0.0,0.0));
#572=DIRECTION('',(0.0,0.0,1.0));
#573=DIRECTION('',(1.0,0.0,0.0));
#574=AXIS2_PLACEMENT_3D('CIP',#575,#576,#577);
#575=CARTESIAN_POINT('',(0.0,0.0,-101.6));
#576=DIRECTION('',(0.0,0.0,1.0));
#577=DIRECTION('',(1.0,0.0,0.0));
#578=AXIS2_PLACEMENT_3D('CRP',#579,#580,#581);
#579=CARTESIAN_POINT('',(-6.2865,0.0,-101.6));
#580=DIRECTION('',(0.0,0.0,1.0));
#581=DIRECTION('',(1.0,0.0,0.0));
#582=AXIS2_PLACEMENT_3D('MCS',#583,#584,#585);
#583=CARTESIAN_POINT('',(0.0,0.0,-48.5));
#584=DIRECTION('',(0.0,0.0,1.0));
#585=DIRECTION('',(1.0,0.0,0.0));
#586=CONSTRUCTIVE_GEOMETRY_REPRESENTATION_RELATIONSHIP('coordinate systems',$,#58,#587);
#587=CONSTRUCTIVE_GEOMETRY_REPRESENTATION('coordinate systems',(#570,#574,#578,#582),#6);
ENDSEC;
END-ISO-10303-21;
