ISO-10303-21;
HEADER;
FILE_DESCRIPTION(('no description'),'unknown implementation level');
FILE_NAME('solidr7r_WB0d3QROytoLCyrdFEZVwOI_1.STP','  ',('CIMSOURCE GmbH'),('CADClick - KiM GmbH - www.kimweb.de'),'unknown preprocess','ACIS','unknown authorization');
FILE_SCHEMA(('automotive_design'));
ENDSEC;
DATA;
#1=MECHANICAL_DESIGN_GEOMETRIC_PRESENTATION_REPRESENTATION(' ',(#10,#11,#12,#13,#14,#15,#16,#17,#18,#19,#20,#21,#22,#23,#24,#25,#26,#27,#28,#29,#30,#31,#32,#33,#34,#35,#36,#37,#38,#39,#40,#41,#42,#43,#44,#45,#46,#47,#48,#49,#50,#51,#52,#53),#6);
#2=PRODUCT_DEFINITION_CONTEXT('',#54,'design');
#3=APPLICATION_PROTOCOL_DEFINITION('INTERNATIONAL STANDARD','automotive_design',1994,#54);
#4=PRODUCT_CATEGORY_RELATIONSHIP('NONE','NONE',#55,#56);
#5=SHAPE_DEFINITION_REPRESENTATION(#57,#58);
#6= (GEOMETRIC_REPRESENTATION_CONTEXT(3)GLOBAL_UNCERTAINTY_ASSIGNED_CONTEXT((#61))GLOBAL_UNIT_ASSIGNED_CONTEXT((#63,#64,#65))REPRESENTATION_CONTEXT('NONE','WORKSPACE'));
#10=STYLED_ITEM('',(#67),#68);
#11=STYLED_ITEM('',(#69),#70);
#12=STYLED_ITEM('',(#71),#72);
#13=STYLED_ITEM('',(#73),#74);
#14=STYLED_ITEM('',(#75),#76);
#15=STYLED_ITEM('',(#77),#78);
#16=STYLED_ITEM('',(#79),#80);
#17=STYLED_ITEM('',(#81),#82);
#18=STYLED_ITEM('',(#83),#84);
#19=STYLED_ITEM('',(#85),#86);
#20=STYLED_ITEM('',(#87),#88);
#21=STYLED_ITEM('',(#89),#90);
#22=STYLED_ITEM('',(#91),#92);
#23=STYLED_ITEM('',(#93),#94);
#24=STYLED_ITEM('',(#95),#96);
#25=STYLED_ITEM('',(#97),#98);
#26=STYLED_ITEM('',(#99),#100);
#27=STYLED_ITEM('',(#101),#102);
#28=STYLED_ITEM('',(#103),#104);
#29=STYLED_ITEM('',(#105),#106);
#30=STYLED_ITEM('',(#107),#108);
#31=STYLED_ITEM('',(#109),#110);
#32=STYLED_ITEM('',(#111),#112);
#33=STYLED_ITEM('',(#113),#114);
#34=STYLED_ITEM('',(#115),#116);
#35=STYLED_ITEM('',(#117),#118);
#36=STYLED_ITEM('',(#119),#120);
#37=STYLED_ITEM('',(#121),#122);
#38=STYLED_ITEM('',(#123),#124);
#39=STYLED_ITEM('',(#125),#126);
#40=STYLED_ITEM('',(#127),#128);
#41=STYLED_ITEM('',(#129),#130);
#42=STYLED_ITEM('',(#131),#132);
#43=STYLED_ITEM('',(#133),#134);
#44=STYLED_ITEM('',(#135),#136);
#45=STYLED_ITEM('',(#137),#138);
#46=STYLED_ITEM('',(#139),#140);
#47=STYLED_ITEM('',(#141),#142);
#48=STYLED_ITEM('',(#143),#144);
#49=STYLED_ITEM('',(#145),#146);
#50=STYLED_ITEM('',(#147),#148);
#51=STYLED_ITEM('',(#149),#150);
#52=STYLED_ITEM('',(#151),#152);
#53=STYLED_ITEM('',(#153),#154);
#54=APPLICATION_CONTEXT(' ');
#55=PRODUCT_CATEGORY('part','NONE');
#56=PRODUCT_RELATED_PRODUCT_CATEGORY('detail',' ',(#155));
#57=PRODUCT_DEFINITION_SHAPE('NONE','NONE',#156);
#58=ADVANCED_BREP_SHAPE_REPRESENTATION('1',(#136,#157),#6);
#61=UNCERTAINTY_MEASURE_WITH_UNIT(LENGTH_MEASURE(1.0E-006),#63,'','');
#63= (CONVERSION_BASED_UNIT('MILLIMETRE',#160)LENGTH_UNIT()NAMED_UNIT(#163));
#64= (NAMED_UNIT(#165)PLANE_ANGLE_UNIT()SI_UNIT($,.RADIAN.));
#65= (NAMED_UNIT(#165)SOLID_ANGLE_UNIT()SI_UNIT($,.STERADIAN.));
#67=PRESENTATION_STYLE_ASSIGNMENT((#171));
#68=EDGE_CURVE('',#104,#146,#172,.T.);
#69=PRESENTATION_STYLE_ASSIGNMENT((#173));
#70=VERTEX_POINT('',#174);
#71=PRESENTATION_STYLE_ASSIGNMENT((#175));
#72=EDGE_CURVE('',#70,#140,#176,.T.);
#73=PRESENTATION_STYLE_ASSIGNMENT((#177));
#74=EDGE_CURVE('',#120,#110,#178,.T.);
#75=PRESENTATION_STYLE_ASSIGNMENT((#179));
#76=VERTEX_POINT('',#180);
#77=PRESENTATION_STYLE_ASSIGNMENT((#181));
#78=EDGE_CURVE('',#112,#134,#182,.T.);
#79=PRESENTATION_STYLE_ASSIGNMENT((#183));
#80=EDGE_CURVE('',#140,#120,#184,.T.);
#81=PRESENTATION_STYLE_ASSIGNMENT((#185));
#82=EDGE_CURVE('',#112,#96,#186,.T.);
#83=PRESENTATION_STYLE_ASSIGNMENT((#187));
#84=EDGE_CURVE('',#132,#76,#188,.T.);
#85=PRESENTATION_STYLE_ASSIGNMENT((#189));
#86=EDGE_CURVE('',#96,#150,#190,.T.);
#87=PRESENTATION_STYLE_ASSIGNMENT((#191));
#88=EDGE_CURVE('',#76,#112,#192,.T.);
#89=PRESENTATION_STYLE_ASSIGNMENT((#193));
#90=ADVANCED_FACE('',(#194),#195,.T.);
#91=PRESENTATION_STYLE_ASSIGNMENT((#196));
#92=EDGE_CURVE('',#140,#70,#197,.T.);
#93=PRESENTATION_STYLE_ASSIGNMENT((#198));
#94=ADVANCED_FACE('',(#199),#200,.T.);
#95=PRESENTATION_STYLE_ASSIGNMENT((#201));
#96=VERTEX_POINT('',#202);
#97=PRESENTATION_STYLE_ASSIGNMENT((#203));
#98=EDGE_CURVE('',#110,#104,#204,.T.);
#99=PRESENTATION_STYLE_ASSIGNMENT((#205));
#100=EDGE_CURVE('',#146,#70,#206,.T.);
#101=PRESENTATION_STYLE_ASSIGNMENT((#207));
#102=ADVANCED_FACE('',(#208),#209,.T.);
#103=PRESENTATION_STYLE_ASSIGNMENT((#210));
#104=VERTEX_POINT('',#211);
#105=PRESENTATION_STYLE_ASSIGNMENT((#212));
#106=ADVANCED_FACE('',(#213,#214),#215,.T.);
#107=PRESENTATION_STYLE_ASSIGNMENT((#216));
#108=ADVANCED_FACE('',(#217),#218,.T.);
#109=PRESENTATION_STYLE_ASSIGNMENT((#219));
#110=VERTEX_POINT('',#220);
#111=PRESENTATION_STYLE_ASSIGNMENT((#221));
#112=VERTEX_POINT('',#222);
#113=PRESENTATION_STYLE_ASSIGNMENT((#223));
#114=EDGE_CURVE('',#76,#132,#224,.T.);
#115=PRESENTATION_STYLE_ASSIGNMENT((#225));
#116=EDGE_CURVE('',#150,#96,#226,.T.);
#117=PRESENTATION_STYLE_ASSIGNMENT((#227));
#118=ADVANCED_FACE('',(#228),#229,.T.);
#119=PRESENTATION_STYLE_ASSIGNMENT((#230));
#120=VERTEX_POINT('',#231);
#121=PRESENTATION_STYLE_ASSIGNMENT((#232));
#122=ADVANCED_FACE('',(#233),#234,.T.);
#123=PRESENTATION_STYLE_ASSIGNMENT((#235));
#124=ADVANCED_FACE('',(#236),#237,.T.);
#125=PRESENTATION_STYLE_ASSIGNMENT((#238));
#126=ADVANCED_FACE('',(#239),#240,.T.);
#127=PRESENTATION_STYLE_ASSIGNMENT((#241));
#128=ADVANCED_FACE('',(#242),#243,.T.);
#129=PRESENTATION_STYLE_ASSIGNMENT((#244));
#130=EDGE_CURVE('',#104,#110,#245,.T.);
#131=PRESENTATION_STYLE_ASSIGNMENT((#246));
#132=VERTEX_POINT('',#247);
#133=PRESENTATION_STYLE_ASSIGNMENT((#248));
#134=VERTEX_POINT('',#249);
#135=PRESENTATION_STYLE_ASSIGNMENT((#250));
#136=MANIFOLD_SOLID_BREP('1',#251);
#137=PRESENTATION_STYLE_ASSIGNMENT((#252));
#138=EDGE_CURVE('',#134,#112,#253,.T.);
#139=PRESENTATION_STYLE_ASSIGNMENT((#254));
#140=VERTEX_POINT('',#255);
#141=PRESENTATION_STYLE_ASSIGNMENT((#256));
#142=EDGE_CURVE('',#150,#134,#257,.T.);
#143=PRESENTATION_STYLE_ASSIGNMENT((#258));
#144=ADVANCED_FACE('',(#259),#260,.T.);
#145=PRESENTATION_STYLE_ASSIGNMENT((#261));
#146=VERTEX_POINT('',#262);
#147=PRESENTATION_STYLE_ASSIGNMENT((#263));
#148=EDGE_CURVE('',#146,#120,#264,.T.);
#149=PRESENTATION_STYLE_ASSIGNMENT((#265));
#150=VERTEX_POINT('',#266);
#151=PRESENTATION_STYLE_ASSIGNMENT((#267));
#152=EDGE_CURVE('',#120,#146,#268,.T.);
#153=PRESENTATION_STYLE_ASSIGNMENT((#269));
#154=EDGE_CURVE('',#134,#132,#270,.T.);
#155=PRODUCT('1','1','PART-1-DESC',(#271));
#156=PRODUCT_DEFINITION('NONE','NONE',#272,#2);
#157=AXIS2_PLACEMENT_3D('',#273,#274,#275);
#160=LENGTH_MEASURE_WITH_UNIT(LENGTH_MEASURE(1.0),#276);
#163=DIMENSIONAL_EXPONENTS(1.0,0.0,0.0,0.0,0.0,0.0,0.0);
#165=DIMENSIONAL_EXPONENTS(0.0,0.0,0.0,0.0,0.0,0.0,0.0);
#171=CURVE_STYLE('',#277,POSITIVE_LENGTH_MEASURE(1.0E-006),#278);
#172=LINE('',#279,#280);
#173=POINT_STYLE(' ',#281,POSITIVE_LENGTH_MEASURE(1.0E-006),#282);
#174=CARTESIAN_POINT('',(-1.16643755201581E-015,9.525,-76.2));
#175=CURVE_STYLE('',#283,POSITIVE_LENGTH_MEASURE(1.0E-006),#284);
#176=CIRCLE('',#285,9.525);
#177=CURVE_STYLE('',#286,POSITIVE_LENGTH_MEASURE(1.0E-006),#287);
#178=LINE('',#288,#289);
#179=POINT_STYLE(' ',#290,POSITIVE_LENGTH_MEASURE(1.0E-006),#291);
#180=CARTESIAN_POINT('',(9.46751226376069E-016,-7.73106577,-127.0));
#181=CURVE_STYLE('',#292,POSITIVE_LENGTH_MEASURE(1.0E-006),#293);
#182=CIRCLE('',#294,9.4615);
#183=CURVE_STYLE('',#295,POSITIVE_LENGTH_MEASURE(1.0E-006),#296);
#184=LINE('',#297,#298);
#185=CURVE_STYLE('',#299,POSITIVE_LENGTH_MEASURE(1.0E-006),#300);
#186=LINE('',#301,#302);
#187=CURVE_STYLE('',#303,POSITIVE_LENGTH_MEASURE(1.0E-006),#304);
#188=CIRCLE('',#305,7.73106577);
#189=CURVE_STYLE('',#306,POSITIVE_LENGTH_MEASURE(1.0E-006),#307);
#190=CIRCLE('',#308,9.4615);
#191=CURVE_STYLE('',#309,POSITIVE_LENGTH_MEASURE(1.0E-006),#310);
#192=LINE('',#311,#312);
#193=SURFACE_STYLE_USAGE(.BOTH.,#313);
#194=FACE_OUTER_BOUND('',#314,.T.);
#195=PLANE('',#315);
#196=CURVE_STYLE('',#316,POSITIVE_LENGTH_MEASURE(1.0E-006),#317);
#197=CIRCLE('',#318,9.525);
#198=SURFACE_STYLE_USAGE(.BOTH.,#319);
#199=FACE_OUTER_BOUND('',#320,.T.);
#200=CYLINDRICAL_SURFACE('',#321,9.4615);
#201=POINT_STYLE(' ',#322,POSITIVE_LENGTH_MEASURE(1.0E-006),#323);
#202=CARTESIAN_POINT('',(1.15866130166904E-015,-9.4615,-76.2));
#203=CURVE_STYLE('',#324,POSITIVE_LENGTH_MEASURE(1.0E-006),#325);
#204=CIRCLE('',#326,8.83737582939516);
#205=CURVE_STYLE('',#327,POSITIVE_LENGTH_MEASURE(1.0E-006),#328);
#206=LINE('',#329,#330);
#207=SURFACE_STYLE_USAGE(.BOTH.,#331);
#208=FACE_OUTER_BOUND('',#332,.T.);
#209=CONICAL_SURFACE('',#333,8.596282885,1.0471975511966);
#210=POINT_STYLE(' ',#334,POSITIVE_LENGTH_MEASURE(1.0E-006),#335);
#211=CARTESIAN_POINT('',(0.0,8.83737582939516,0.0));
#212=SURFACE_STYLE_USAGE(.BOTH.,#336);
#213=FACE_BOUND('',#337,.T.);
#214=FACE_OUTER_BOUND('',#338,.T.);
#215=PLANE('',#339);
#216=SURFACE_STYLE_USAGE(.BOTH.,#340);
#217=FACE_OUTER_BOUND('',#341,.T.);
#218=CYLINDRICAL_SURFACE('',#342,9.525);
#219=POINT_STYLE(' ',#343,POSITIVE_LENGTH_MEASURE(1.0E-006),#344);
#220=CARTESIAN_POINT('',(1.08223065917936E-015,-8.83737582939516,0.0));
#221=POINT_STYLE(' ',#345,POSITIVE_LENGTH_MEASURE(1.0E-006),#346);
#222=CARTESIAN_POINT('',(1.15866130166904E-015,-9.4615,-126.000933331495));
#223=CURVE_STYLE('',#347,POSITIVE_LENGTH_MEASURE(1.0E-006),#348);
#224=CIRCLE('',#349,7.73106577);
#225=CURVE_STYLE('',#350,POSITIVE_LENGTH_MEASURE(1.0E-006),#351);
#226=CIRCLE('',#352,9.4615);
#227=SURFACE_STYLE_USAGE(.BOTH.,#353);
#228=FACE_OUTER_BOUND('',#354,.T.);
#229=CYLINDRICAL_SURFACE('',#355,9.4615);
#230=POINT_STYLE(' ',#356,POSITIVE_LENGTH_MEASURE(1.0E-006),#357);
#231=CARTESIAN_POINT('',(1.16643755201581E-015,-9.525,-1.191));
#232=SURFACE_STYLE_USAGE(.BOTH.,#358);
#233=FACE_OUTER_BOUND('',#359,.T.);
#234=CONICAL_SURFACE('',#360,9.18118791469758,0.523598775598298);
#235=SURFACE_STYLE_USAGE(.BOTH.,#361);
#236=FACE_OUTER_BOUND('',#362,.T.);
#237=CONICAL_SURFACE('',#363,9.18118791469758,0.523598775598298);
#238=SURFACE_STYLE_USAGE(.BOTH.,#364);
#239=FACE_OUTER_BOUND('',#365,.T.);
#240=PLANE('',#366);
#241=SURFACE_STYLE_USAGE(.BOTH.,#367);
#242=FACE_OUTER_BOUND('',#368,.T.);
#243=CYLINDRICAL_SURFACE('',#369,9.525);
#244=CURVE_STYLE('',#370,POSITIVE_LENGTH_MEASURE(1.0E-006),#371);
#245=CIRCLE('',#372,8.83737582939516);
#246=POINT_STYLE(' ',#373,POSITIVE_LENGTH_MEASURE(1.0E-006),#374);
#247=CARTESIAN_POINT('',(0.0,7.73106577,-127.0));
#248=POINT_STYLE(' ',#375,POSITIVE_LENGTH_MEASURE(1.0E-006),#376);
#249=CARTESIAN_POINT('',(0.0,9.4615,-126.000933331495));
#250=SURFACE_STYLE_USAGE(.BOTH.,#377);
#251=CLOSED_SHELL('',(#108,#122,#102,#118,#94,#144,#106,#90,#124,#128,#126));
#252=CURVE_STYLE('',#378,POSITIVE_LENGTH_MEASURE(1.0E-006),#379);
#253=CIRCLE('',#380,9.4615);
#254=POINT_STYLE(' ',#381,POSITIVE_LENGTH_MEASURE(1.0E-006),#382);
#255=CARTESIAN_POINT('',(0.0,-9.525,-76.2));
#256=CURVE_STYLE('',#383,POSITIVE_LENGTH_MEASURE(1.0E-006),#384);
#257=LINE('',#385,#386);
#258=SURFACE_STYLE_USAGE(.BOTH.,#387);
#259=FACE_OUTER_BOUND('',#388,.T.);
#260=CONICAL_SURFACE('',#389,8.596282885,1.0471975511966);
#261=POINT_STYLE(' ',#390,POSITIVE_LENGTH_MEASURE(1.0E-006),#391);
#262=CARTESIAN_POINT('',(0.0,9.525,-1.191));
#263=CURVE_STYLE('',#392,POSITIVE_LENGTH_MEASURE(1.0E-006),#393);
#264=CIRCLE('',#394,9.525);
#265=POINT_STYLE(' ',#395,POSITIVE_LENGTH_MEASURE(1.0E-006),#396);
#266=CARTESIAN_POINT('',(0.0,9.4615,-76.2));
#267=CURVE_STYLE('',#397,POSITIVE_LENGTH_MEASURE(1.0E-006),#398);
#268=CIRCLE('',#399,9.525);
#269=CURVE_STYLE('',#400,POSITIVE_LENGTH_MEASURE(1.0E-006),#401);
#270=LINE('',#402,#403);
#271=PRODUCT_CONTEXT('',#54,'mechanical');
#272=PRODUCT_DEFINITION_FORMATION_WITH_SPECIFIED_SOURCE(' ','NONE',#155,.NOT_KNOWN.);
#273=CARTESIAN_POINT('',(0.0,0.0,0.0));
#274=DIRECTION('',(0.0,0.0,1.0));
#275=DIRECTION('',(1.0,0.0,0.0));
#276= (NAMED_UNIT(#163)LENGTH_UNIT()SI_UNIT(.MILLI.,.METRE.));
#277=DRAUGHTING_PRE_DEFINED_CURVE_FONT('continuous');
#278=COLOUR_RGB('',0.498039215803146,0.498039215803146,0.498039215803146);
#279=CARTESIAN_POINT('',(-1.12433410559759E-015,9.18118791469758,-0.595500000000001));
#280=VECTOR('',#405,1.0);
#281=PRE_DEFINED_MARKER('');
#282=COLOUR_RGB('',0.498039215803146,0.498039215803146,0.498039215803146);
#283=DRAUGHTING_PRE_DEFINED_CURVE_FONT('continuous');
#284=COLOUR_RGB('',0.498039215803146,0.498039215803146,0.498039215803146);
#285=AXIS2_PLACEMENT_3D('',#406,#407,#408);
#286=DRAUGHTING_PRE_DEFINED_CURVE_FONT('continuous');
#287=COLOUR_RGB('',0.498039215803146,0.498039215803146,0.498039215803146);
#288=CARTESIAN_POINT('',(1.12433410559759E-015,-9.18118791469758,-0.595500000000001));
#289=VECTOR('',#409,1.0);
#290=PRE_DEFINED_MARKER('');
#291=COLOUR_RGB('',0.498039215803146,0.498039215803146,0.498039215803146);
#292=DRAUGHTING_PRE_DEFINED_CURVE_FONT('continuous');
#293=COLOUR_RGB('',0.800000011920929,0.800000011920929,0.800000011920929);
#294=AXIS2_PLACEMENT_3D('',#410,#411,#412);
#295=DRAUGHTING_PRE_DEFINED_CURVE_FONT('continuous');
#296=COLOUR_RGB('',0.498039215803146,0.498039215803146,0.498039215803146);
#297=CARTESIAN_POINT('',(1.16643755201581E-015,-9.525,-30.5955));
#298=VECTOR('',#413,1.0);
#299=DRAUGHTING_PRE_DEFINED_CURVE_FONT('continuous');
#300=COLOUR_RGB('',0.800000011920929,0.800000011920929,0.800000011920929);
#301=CARTESIAN_POINT('',(1.15866130166904E-015,-9.4615,-101.100466665747));
#302=VECTOR('',#414,1.0);
#303=DRAUGHTING_PRE_DEFINED_CURVE_FONT('continuous');
#304=COLOUR_RGB('',0.498039215803146,0.498039215803146,0.498039215803146);
#305=AXIS2_PLACEMENT_3D('',#415,#416,#417);
#306=DRAUGHTING_PRE_DEFINED_CURVE_FONT('continuous');
#307=COLOUR_RGB('',0.498039215803146,0.498039215803146,0.498039215803146);
#308=AXIS2_PLACEMENT_3D('',#418,#419,#420);
#309=DRAUGHTING_PRE_DEFINED_CURVE_FONT('continuous');
#310=COLOUR_RGB('',0.800000011920929,0.800000011920929,0.800000011920929);
#311=CARTESIAN_POINT('',(1.05270626402256E-015,-8.596282885,-126.500466665747));
#312=VECTOR('',#421,1.0);
#313=SURFACE_SIDE_STYLE('',(#422));
#314=EDGE_LOOP('',(#423,#424));
#315=AXIS2_PLACEMENT_3D('',#425,#426,#427);
#316=DRAUGHTING_PRE_DEFINED_CURVE_FONT('continuous');
#317=COLOUR_RGB('',0.498039215803146,0.498039215803146,0.498039215803146);
#318=AXIS2_PLACEMENT_3D('',#428,#429,#430);
#319=SURFACE_SIDE_STYLE('',(#431));
#320=EDGE_LOOP('',(#432,#433,#434,#435));
#321=AXIS2_PLACEMENT_3D('',#436,#437,#438);
#322=PRE_DEFINED_MARKER('');
#323=COLOUR_RGB('',0.498039215803146,0.498039215803146,0.498039215803146);
#324=DRAUGHTING_PRE_DEFINED_CURVE_FONT('continuous');
#325=COLOUR_RGB('',0.498039215803146,0.498039215803146,0.498039215803146);
#326=AXIS2_PLACEMENT_3D('',#439,#440,#441);
#327=DRAUGHTING_PRE_DEFINED_CURVE_FONT('continuous');
#328=COLOUR_RGB('',0.498039215803146,0.498039215803146,0.498039215803146);
#329=CARTESIAN_POINT('',(-1.16643755201581E-015,9.525,-30.5955));
#330=VECTOR('',#442,1.0);
#331=SURFACE_SIDE_STYLE('',(#443));
#332=EDGE_LOOP('',(#444,#445,#446,#447));
#333=AXIS2_PLACEMENT_3D('',#448,#449,#450);
#334=PRE_DEFINED_MARKER('');
#335=COLOUR_RGB('',0.498039215803146,0.498039215803146,0.498039215803146);
#336=SURFACE_SIDE_STYLE('',(#451));
#337=EDGE_LOOP('',(#452,#453));
#338=EDGE_LOOP('',(#454,#455));
#339=AXIS2_PLACEMENT_3D('',#456,#457,#458);
#340=SURFACE_SIDE_STYLE('',(#459));
#341=EDGE_LOOP('',(#460,#461,#462,#463));
#342=AXIS2_PLACEMENT_3D('',#464,#465,#466);
#343=PRE_DEFINED_MARKER('');
#344=COLOUR_RGB('',0.498039215803146,0.498039215803146,0.498039215803146);
#345=PRE_DEFINED_MARKER('');
#346=COLOUR_RGB('',0.800000011920929,0.800000011920929,0.800000011920929);
#347=DRAUGHTING_PRE_DEFINED_CURVE_FONT('continuous');
#348=COLOUR_RGB('',0.498039215803146,0.498039215803146,0.498039215803146);
#349=AXIS2_PLACEMENT_3D('',#467,#468,#469);
#350=DRAUGHTING_PRE_DEFINED_CURVE_FONT('continuous');
#351=COLOUR_RGB('',0.498039215803146,0.498039215803146,0.498039215803146);
#352=AXIS2_PLACEMENT_3D('',#470,#471,#472);
#353=SURFACE_SIDE_STYLE('',(#473));
#354=EDGE_LOOP('',(#474,#475,#476,#477));
#355=AXIS2_PLACEMENT_3D('',#478,#479,#480);
#356=PRE_DEFINED_MARKER('');
#357=COLOUR_RGB('',0.498039215803146,0.498039215803146,0.498039215803146);
#358=SURFACE_SIDE_STYLE('',(#481));
#359=EDGE_LOOP('',(#482,#483,#484,#485));
#360=AXIS2_PLACEMENT_3D('',#486,#487,#488);
#361=SURFACE_SIDE_STYLE('',(#489));
#362=EDGE_LOOP('',(#490,#491,#492,#493));
#363=AXIS2_PLACEMENT_3D('',#494,#495,#496);
#364=SURFACE_SIDE_STYLE('',(#497));
#365=EDGE_LOOP('',(#498,#499));
#366=AXIS2_PLACEMENT_3D('',#500,#501,#502);
#367=SURFACE_SIDE_STYLE('',(#503));
#368=EDGE_LOOP('',(#504,#505,#506,#507));
#369=AXIS2_PLACEMENT_3D('',#508,#509,#510);
#370=DRAUGHTING_PRE_DEFINED_CURVE_FONT('continuous');
#371=COLOUR_RGB('',0.498039215803146,0.498039215803146,0.498039215803146);
#372=AXIS2_PLACEMENT_3D('',#511,#512,#513);
#373=PRE_DEFINED_MARKER('');
#374=COLOUR_RGB('',0.498039215803146,0.498039215803146,0.498039215803146);
#375=PRE_DEFINED_MARKER('');
#376=COLOUR_RGB('',0.800000011920929,0.800000011920929,0.800000011920929);
#377=SURFACE_SIDE_STYLE('',(#514));
#378=DRAUGHTING_PRE_DEFINED_CURVE_FONT('continuous');
#379=COLOUR_RGB('',0.800000011920929,0.800000011920929,0.800000011920929);
#380=AXIS2_PLACEMENT_3D('',#515,#516,#517);
#381=PRE_DEFINED_MARKER('');
#382=COLOUR_RGB('',0.498039215803146,0.498039215803146,0.498039215803146);
#383=DRAUGHTING_PRE_DEFINED_CURVE_FONT('continuous');
#384=COLOUR_RGB('',0.800000011920929,0.800000011920929,0.800000011920929);
#385=CARTESIAN_POINT('',(-1.15866130166904E-015,9.4615,-101.100466665747));
#386=VECTOR('',#518,1.0);
#387=SURFACE_SIDE_STYLE('',(#519));
#388=EDGE_LOOP('',(#520,#521,#522,#523));
#389=AXIS2_PLACEMENT_3D('',#524,#525,#526);
#390=PRE_DEFINED_MARKER('');
#391=COLOUR_RGB('',0.498039215803146,0.498039215803146,0.498039215803146);
#392=DRAUGHTING_PRE_DEFINED_CURVE_FONT('continuous');
#393=COLOUR_RGB('',0.498039215803146,0.498039215803146,0.498039215803146);
#394=AXIS2_PLACEMENT_3D('',#527,#528,#529);
#395=PRE_DEFINED_MARKER('');
#396=COLOUR_RGB('',0.498039215803146,0.498039215803146,0.498039215803146);
#397=DRAUGHTING_PRE_DEFINED_CURVE_FONT('continuous');
#398=COLOUR_RGB('',0.498039215803146,0.498039215803146,0.498039215803146);
#399=AXIS2_PLACEMENT_3D('',#530,#531,#532);
#400=DRAUGHTING_PRE_DEFINED_CURVE_FONT('continuous');
#401=COLOUR_RGB('',0.800000011920929,0.800000011920929,0.800000011920929);
#402=CARTESIAN_POINT('',(-1.05270626402256E-015,8.596282885,-126.500466665747));
#403=VECTOR('',#533,1.0);
#405=DIRECTION('',(-6.12303176911187E-017,0.499999999999999,-0.866025403784439));
#406=CARTESIAN_POINT('',(0.0,0.0,-76.2));
#407=DIRECTION('',(0.0,0.0,-1.0));
#408=DIRECTION('',(0.0,-1.0,0.0));
#409=DIRECTION('',(-6.12303176911187E-017,0.499999999999999,0.866025403784439));
#410=CARTESIAN_POINT('',(0.0,0.0,-126.000933331495));
#411=DIRECTION('',(0.0,0.0,-1.0));
#412=DIRECTION('',(0.0,1.0,0.0));
#413=DIRECTION('',(-0.0,-0.0,1.0));
#414=DIRECTION('',(-0.0,-0.0,1.0));
#415=CARTESIAN_POINT('',(0.0,0.0,-127.0));
#416=DIRECTION('',(0.0,0.0,-1.0));
#417=DIRECTION('',(0.0,1.0,0.0));
#418=CARTESIAN_POINT('',(0.0,0.0,-76.2));
#419=DIRECTION('',(0.0,-0.0,1.0));
#420=DIRECTION('',(0.0,1.0,0.0));
#421=DIRECTION('',(1.06054021204601E-016,-0.866025403784439,0.5));
#422=SURFACE_STYLE_FILL_AREA(#534);
#423=ORIENTED_EDGE('',*,*,#130,.F.);
#424=ORIENTED_EDGE('',*,*,#98,.F.);
#425=CARTESIAN_POINT('',(0.0,4.41868791469758,0.0));
#426=DIRECTION('',(-0.0,0.0,1.0));
#427=DIRECTION('',(0.0,-1.0,0.0));
#428=CARTESIAN_POINT('',(0.0,0.0,-76.2));
#429=DIRECTION('',(0.0,0.0,-1.0));
#430=DIRECTION('',(0.0,-1.0,0.0));
#431=SURFACE_STYLE_FILL_AREA(#535);
#432=ORIENTED_EDGE('',*,*,#142,.T.);
#433=ORIENTED_EDGE('',*,*,#78,.F.);
#434=ORIENTED_EDGE('',*,*,#82,.T.);
#435=ORIENTED_EDGE('',*,*,#116,.F.);
#436=CARTESIAN_POINT('',(0.0,0.0,-101.100466665747));
#437=DIRECTION('',(-0.0,-0.0,1.0));
#438=DIRECTION('',(0.0,1.0,0.0));
#439=CARTESIAN_POINT('',(0.0,0.0,0.0));
#440=DIRECTION('',(0.0,0.0,-1.0));
#441=DIRECTION('',(0.0,1.0,0.0));
#442=DIRECTION('',(0.0,0.0,-1.0));
#443=SURFACE_STYLE_FILL_AREA(#536);
#444=ORIENTED_EDGE('',*,*,#154,.F.);
#445=ORIENTED_EDGE('',*,*,#138,.T.);
#446=ORIENTED_EDGE('',*,*,#88,.F.);
#447=ORIENTED_EDGE('',*,*,#84,.F.);
#448=CARTESIAN_POINT('',(0.0,0.0,-126.500466665747));
#449=DIRECTION('',(-0.0,-0.0,1.0));
#450=DIRECTION('',(0.0,1.0,0.0));
#451=SURFACE_STYLE_FILL_AREA(#537);
#452=ORIENTED_EDGE('',*,*,#116,.T.);
#453=ORIENTED_EDGE('',*,*,#86,.T.);
#454=ORIENTED_EDGE('',*,*,#92,.T.);
#455=ORIENTED_EDGE('',*,*,#72,.T.);
#456=CARTESIAN_POINT('',(0.0,0.0,-76.2));
#457=DIRECTION('',(0.0,0.0,-1.0));
#458=DIRECTION('',(0.0,-1.0,0.0));
#459=SURFACE_STYLE_FILL_AREA(#538);
#460=ORIENTED_EDGE('',*,*,#100,.F.);
#461=ORIENTED_EDGE('',*,*,#148,.T.);
#462=ORIENTED_EDGE('',*,*,#80,.F.);
#463=ORIENTED_EDGE('',*,*,#72,.F.);
#464=CARTESIAN_POINT('',(0.0,0.0,-30.5955));
#465=DIRECTION('',(-0.0,-0.0,1.0));
#466=DIRECTION('',(0.0,1.0,0.0));
#467=CARTESIAN_POINT('',(0.0,0.0,-127.0));
#468=DIRECTION('',(0.0,0.0,-1.0));
#469=DIRECTION('',(0.0,1.0,0.0));
#470=CARTESIAN_POINT('',(0.0,0.0,-76.2));
#471=DIRECTION('',(0.0,-0.0,1.0));
#472=DIRECTION('',(0.0,1.0,0.0));
#473=SURFACE_STYLE_FILL_AREA(#539);
#474=ORIENTED_EDGE('',*,*,#142,.F.);
#475=ORIENTED_EDGE('',*,*,#86,.F.);
#476=ORIENTED_EDGE('',*,*,#82,.F.);
#477=ORIENTED_EDGE('',*,*,#138,.F.);
#478=CARTESIAN_POINT('',(0.0,0.0,-101.100466665747));
#479=DIRECTION('',(-0.0,-0.0,1.0));
#480=DIRECTION('',(0.0,1.0,0.0));
#481=SURFACE_STYLE_FILL_AREA(#540);
#482=ORIENTED_EDGE('',*,*,#68,.F.);
#483=ORIENTED_EDGE('',*,*,#130,.T.);
#484=ORIENTED_EDGE('',*,*,#74,.F.);
#485=ORIENTED_EDGE('',*,*,#148,.F.);
#486=CARTESIAN_POINT('',(0.0,0.0,-0.595500000000001));
#487=DIRECTION('',(0.0,-0.0,-1.0));
#488=DIRECTION('',(0.0,1.0,0.0));
#489=SURFACE_STYLE_FILL_AREA(#541);
#490=ORIENTED_EDGE('',*,*,#68,.T.);
#491=ORIENTED_EDGE('',*,*,#152,.F.);
#492=ORIENTED_EDGE('',*,*,#74,.T.);
#493=ORIENTED_EDGE('',*,*,#98,.T.);
#494=CARTESIAN_POINT('',(0.0,0.0,-0.595500000000001));
#495=DIRECTION('',(0.0,-0.0,-1.0));
#496=DIRECTION('',(0.0,1.0,0.0));
#497=SURFACE_STYLE_FILL_AREA(#542);
#498=ORIENTED_EDGE('',*,*,#84,.T.);
#499=ORIENTED_EDGE('',*,*,#114,.T.);
#500=CARTESIAN_POINT('',(0.0,3.865532885,-127.0));
#501=DIRECTION('',(0.0,0.0,-1.0));
#502=DIRECTION('',(0.0,1.0,0.0));
#503=SURFACE_STYLE_FILL_AREA(#543);
#504=ORIENTED_EDGE('',*,*,#100,.T.);
#505=ORIENTED_EDGE('',*,*,#92,.F.);
#506=ORIENTED_EDGE('',*,*,#80,.T.);
#507=ORIENTED_EDGE('',*,*,#152,.T.);
#508=CARTESIAN_POINT('',(0.0,0.0,-30.5955));
#509=DIRECTION('',(-0.0,-0.0,1.0));
#510=DIRECTION('',(0.0,1.0,0.0));
#511=CARTESIAN_POINT('',(0.0,0.0,0.0));
#512=DIRECTION('',(0.0,0.0,-1.0));
#513=DIRECTION('',(0.0,1.0,0.0));
#514=SURFACE_STYLE_FILL_AREA(#544);
#515=CARTESIAN_POINT('',(0.0,0.0,-126.000933331495));
#516=DIRECTION('',(0.0,0.0,-1.0));
#517=DIRECTION('',(0.0,1.0,0.0));
#518=DIRECTION('',(0.0,0.0,-1.0));
#519=SURFACE_STYLE_FILL_AREA(#545);
#520=ORIENTED_EDGE('',*,*,#154,.T.);
#521=ORIENTED_EDGE('',*,*,#114,.F.);
#522=ORIENTED_EDGE('',*,*,#88,.T.);
#523=ORIENTED_EDGE('',*,*,#78,.T.);
#524=CARTESIAN_POINT('',(0.0,0.0,-126.500466665747));
#525=DIRECTION('',(-0.0,-0.0,1.0));
#526=DIRECTION('',(0.0,1.0,0.0));
#527=CARTESIAN_POINT('',(0.0,0.0,-1.191));
#528=DIRECTION('',(0.0,0.0,-1.0));
#529=DIRECTION('',(0.0,1.0,0.0));
#530=CARTESIAN_POINT('',(0.0,0.0,-1.191));
#531=DIRECTION('',(0.0,0.0,-1.0));
#532=DIRECTION('',(0.0,1.0,0.0));
#533=DIRECTION('',(1.06054021204601E-016,-0.866025403784439,-0.5));
#534=FILL_AREA_STYLE('',(#546));
#535=FILL_AREA_STYLE('',(#547));
#536=FILL_AREA_STYLE('',(#548));
#537=FILL_AREA_STYLE('',(#549));
#538=FILL_AREA_STYLE('',(#550));
#539=FILL_AREA_STYLE('',(#551));
#540=FILL_AREA_STYLE('',(#552));
#541=FILL_AREA_STYLE('',(#553));
#542=FILL_AREA_STYLE('',(#554));
#543=FILL_AREA_STYLE('',(#555));
#544=FILL_AREA_STYLE('',(#556));
#545=FILL_AREA_STYLE('',(#557));
#546=FILL_AREA_STYLE_COLOUR('',#558);
#547=FILL_AREA_STYLE_COLOUR('',#559);
#548=FILL_AREA_STYLE_COLOUR('',#560);
#549=FILL_AREA_STYLE_COLOUR('',#561);
#550=FILL_AREA_STYLE_COLOUR('',#562);
#551=FILL_AREA_STYLE_COLOUR('',#563);
#552=FILL_AREA_STYLE_COLOUR('',#564);
#553=FILL_AREA_STYLE_COLOUR('',#565);
#554=FILL_AREA_STYLE_COLOUR('',#566);
#555=FILL_AREA_STYLE_COLOUR('',#567);
#556=FILL_AREA_STYLE_COLOUR('',#568);
#557=FILL_AREA_STYLE_COLOUR('',#569);
#558=COLOUR_RGB('',0.498039215803146,0.498039215803146,0.498039215803146);
#559=COLOUR_RGB('',0.800000011920929,0.800000011920929,0.800000011920929);
#560=COLOUR_RGB('',0.800000011920929,0.800000011920929,0.800000011920929);
#561=COLOUR_RGB('',0.498039215803146,0.498039215803146,0.498039215803146);
#562=COLOUR_RGB('',0.498039215803146,0.498039215803146,0.498039215803146);
#563=COLOUR_RGB('',0.800000011920929,0.800000011920929,0.800000011920929);
#564=COLOUR_RGB('',0.498039215803146,0.498039215803146,0.498039215803146);
#565=COLOUR_RGB('',0.498039215803146,0.498039215803146,0.498039215803146);
#566=COLOUR_RGB('',0.498039215803146,0.498039215803146,0.498039215803146);
#567=COLOUR_RGB('',0.498039215803146,0.498039215803146,0.498039215803146);
#568=COLOUR_RGB('',0.498039215803146,0.498039215803146,0.498039215803146);
#569=COLOUR_RGB('',0.800000011920929,0.800000011920929,0.800000011920929);
#570=AXIS2_PLACEMENT_3D('PCS',#571,#572,#573);
#571=CARTESIAN_POINT('',(0.0,0.0,0.0));
#572=DIRECTION('',(0.0,0.0,1.0));
#573=DIRECTION('',(1.0,0.0,0.0));
#574=AXIS2_PLACEMENT_3D('CIP',#575,#576,#577);
#575=CARTESIAN_POINT('',(0.0,0.0,-127.0));
#576=DIRECTION('',(0.0,0.0,1.0));
#577=DIRECTION('',(1.0,0.0,0.0));
#578=AXIS2_PLACEMENT_3D('CRP',#579,#580,#581);
#579=CARTESIAN_POINT('',(-9.4615,0.0,-127.0));
#580=DIRECTION('',(0.0,0.0,1.0));
#581=DIRECTION('',(1.0,0.0,0.0));
#582=AXIS2_PLACEMENT_3D('MCS',#583,#584,#585);
#583=CARTESIAN_POINT('',(0.0,0.0,-60.0));
#584=DIRECTION('',(0.0,0.0,1.0));
#585=DIRECTION('',(1.0,0.0,0.0));
#586=CONSTRUCTIVE_GEOMETRY_REPRESENTATION_RELATIONSHIP('coordinate systems',$,#58,#587);
#587=CONSTRUCTIVE_GEOMETRY_REPRESENTATION('coordinate systems',(#570,#574,#578,#582),#6);
ENDSEC;
END-ISO-10303-21;
