ISO-10303-21;
HEADER;
FILE_DESCRIPTION(('no description'),'unknown implementation level');
FILE_NAME('solidStwRwdGPI6JPI6aHx_OAgO5B02Q_1.STP','  ',('CIMSOURCE GmbH'),('CADClick - KiM GmbH - www.kimweb.de'),'unknown preprocess','ACIS','unknown authorization');
FILE_SCHEMA(('automotive_design'));
ENDSEC;
DATA;
#1=MECHANICAL_DESIGN_GEOMETRIC_PRESENTATION_REPRESENTATION(' ',(#10,#11,#12,#13,#14,#15,#16,#17,#18,#19,#20,#21,#22,#23,#24,#25,#26,#27,#28,#29,#30,#31,#32,#33,#34,#35,#36,#37,#38,#39,#40,#41,#42,#43,#44,#45,#46,#47,#48,#49,#50,#51,#52,#53),#6);
#2=PRODUCT_DEFINITION_CONTEXT('',#54,'design');
#3=APPLICATION_PROTOCOL_DEFINITION('INTERNATIONAL STANDARD','automotive_design',1994,#54);
#4=PRODUCT_CATEGORY_RELATIONSHIP('NONE','NONE',#55,#56);
#5=SHAPE_DEFINITION_REPRESENTATION(#57,#58);
#6= (GEOMETRIC_REPRESENTATION_CONTEXT(3)GLOBAL_UNCERTAINTY_ASSIGNED_CONTEXT((#61))GLOBAL_UNIT_ASSIGNED_CONTEXT((#63,#64,#65))REPRESENTATION_CONTEXT('NONE','WORKSPACE'));
#10=STYLED_ITEM('',(#67),#68);
#11=STYLED_ITEM('',(#69),#70);
#12=STYLED_ITEM('',(#71),#72);
#13=STYLED_ITEM('',(#73),#74);
#14=STYLED_ITEM('',(#75),#76);
#15=STYLED_ITEM('',(#77),#78);
#16=STYLED_ITEM('',(#79),#80);
#17=STYLED_ITEM('',(#81),#82);
#18=STYLED_ITEM('',(#83),#84);
#19=STYLED_ITEM('',(#85),#86);
#20=STYLED_ITEM('',(#87),#88);
#21=STYLED_ITEM('',(#89),#90);
#22=STYLED_ITEM('',(#91),#92);
#23=STYLED_ITEM('',(#93),#94);
#24=STYLED_ITEM('',(#95),#96);
#25=STYLED_ITEM('',(#97),#98);
#26=STYLED_ITEM('',(#99),#100);
#27=STYLED_ITEM('',(#101),#102);
#28=STYLED_ITEM('',(#103),#104);
#29=STYLED_ITEM('',(#105),#106);
#30=STYLED_ITEM('',(#107),#108);
#31=STYLED_ITEM('',(#109),#110);
#32=STYLED_ITEM('',(#111),#112);
#33=STYLED_ITEM('',(#113),#114);
#34=STYLED_ITEM('',(#115),#116);
#35=STYLED_ITEM('',(#117),#118);
#36=STYLED_ITEM('',(#119),#120);
#37=STYLED_ITEM('',(#121),#122);
#38=STYLED_ITEM('',(#123),#124);
#39=STYLED_ITEM('',(#125),#126);
#40=STYLED_ITEM('',(#127),#128);
#41=STYLED_ITEM('',(#129),#130);
#42=STYLED_ITEM('',(#131),#132);
#43=STYLED_ITEM('',(#133),#134);
#44=STYLED_ITEM('',(#135),#136);
#45=STYLED_ITEM('',(#137),#138);
#46=STYLED_ITEM('',(#139),#140);
#47=STYLED_ITEM('',(#141),#142);
#48=STYLED_ITEM('',(#143),#144);
#49=STYLED_ITEM('',(#145),#146);
#50=STYLED_ITEM('',(#147),#148);
#51=STYLED_ITEM('',(#149),#150);
#52=STYLED_ITEM('',(#151),#152);
#53=STYLED_ITEM('',(#153),#154);
#54=APPLICATION_CONTEXT(' ');
#55=PRODUCT_CATEGORY('part','NONE');
#56=PRODUCT_RELATED_PRODUCT_CATEGORY('detail',' ',(#155));
#57=PRODUCT_DEFINITION_SHAPE('NONE','NONE',#156);
#58=ADVANCED_BREP_SHAPE_REPRESENTATION('1',(#150,#157),#6);
#61=UNCERTAINTY_MEASURE_WITH_UNIT(LENGTH_MEASURE(1.0E-006),#63,'','');
#63= (CONVERSION_BASED_UNIT('MILLIMETRE',#160)LENGTH_UNIT()NAMED_UNIT(#163));
#64= (NAMED_UNIT(#165)PLANE_ANGLE_UNIT()SI_UNIT($,.RADIAN.));
#65= (NAMED_UNIT(#165)SOLID_ANGLE_UNIT()SI_UNIT($,.STERADIAN.));
#67=PRESENTATION_STYLE_ASSIGNMENT((#171));
#68=ADVANCED_FACE('',(#172),#173,.T.);
#69=PRESENTATION_STYLE_ASSIGNMENT((#174));
#70=ADVANCED_FACE('',(#175,#176),#177,.T.);
#71=PRESENTATION_STYLE_ASSIGNMENT((#178));
#72=ADVANCED_FACE('',(#179),#180,.T.);
#73=PRESENTATION_STYLE_ASSIGNMENT((#181));
#74=EDGE_CURVE('',#128,#94,#182,.T.);
#75=PRESENTATION_STYLE_ASSIGNMENT((#183));
#76=VERTEX_POINT('',#184);
#77=PRESENTATION_STYLE_ASSIGNMENT((#185));
#78=EDGE_CURVE('',#108,#76,#186,.T.);
#79=PRESENTATION_STYLE_ASSIGNMENT((#187));
#80=ADVANCED_FACE('',(#188),#189,.T.);
#81=PRESENTATION_STYLE_ASSIGNMENT((#190));
#82=EDGE_CURVE('',#134,#76,#191,.T.);
#83=PRESENTATION_STYLE_ASSIGNMENT((#192));
#84=ADVANCED_FACE('',(#193),#194,.T.);
#85=PRESENTATION_STYLE_ASSIGNMENT((#195));
#86=ADVANCED_FACE('',(#196),#197,.T.);
#87=PRESENTATION_STYLE_ASSIGNMENT((#198));
#88=VERTEX_POINT('',#199);
#89=PRESENTATION_STYLE_ASSIGNMENT((#200));
#90=VERTEX_POINT('',#201);
#91=PRESENTATION_STYLE_ASSIGNMENT((#202));
#92=EDGE_CURVE('',#146,#134,#203,.T.);
#93=PRESENTATION_STYLE_ASSIGNMENT((#204));
#94=VERTEX_POINT('',#205);
#95=PRESENTATION_STYLE_ASSIGNMENT((#206));
#96=EDGE_CURVE('',#88,#90,#207,.T.);
#97=PRESENTATION_STYLE_ASSIGNMENT((#208));
#98=EDGE_CURVE('',#76,#108,#209,.T.);
#99=PRESENTATION_STYLE_ASSIGNMENT((#210));
#100=ADVANCED_FACE('',(#211),#212,.T.);
#101=PRESENTATION_STYLE_ASSIGNMENT((#213));
#102=ADVANCED_FACE('',(#214),#215,.T.);
#103=PRESENTATION_STYLE_ASSIGNMENT((#216));
#104=VERTEX_POINT('',#217);
#105=PRESENTATION_STYLE_ASSIGNMENT((#218));
#106=EDGE_CURVE('',#132,#90,#219,.T.);
#107=PRESENTATION_STYLE_ASSIGNMENT((#220));
#108=VERTEX_POINT('',#221);
#109=PRESENTATION_STYLE_ASSIGNMENT((#222));
#110=EDGE_CURVE('',#76,#148,#223,.T.);
#111=PRESENTATION_STYLE_ASSIGNMENT((#224));
#112=EDGE_CURVE('',#108,#146,#225,.T.);
#113=PRESENTATION_STYLE_ASSIGNMENT((#226));
#114=EDGE_CURVE('',#90,#132,#227,.T.);
#115=PRESENTATION_STYLE_ASSIGNMENT((#228));
#116=EDGE_CURVE('',#148,#104,#229,.T.);
#117=PRESENTATION_STYLE_ASSIGNMENT((#230));
#118=EDGE_CURVE('',#130,#94,#231,.T.);
#119=PRESENTATION_STYLE_ASSIGNMENT((#232));
#120=EDGE_CURVE('',#132,#128,#233,.T.);
#121=PRESENTATION_STYLE_ASSIGNMENT((#234));
#122=EDGE_CURVE('',#104,#108,#235,.T.);
#123=PRESENTATION_STYLE_ASSIGNMENT((#236));
#124=EDGE_CURVE('',#130,#88,#237,.T.);
#125=PRESENTATION_STYLE_ASSIGNMENT((#238));
#126=ADVANCED_FACE('',(#239),#240,.T.);
#127=PRESENTATION_STYLE_ASSIGNMENT((#241));
#128=VERTEX_POINT('',#242);
#129=PRESENTATION_STYLE_ASSIGNMENT((#243));
#130=VERTEX_POINT('',#244);
#131=PRESENTATION_STYLE_ASSIGNMENT((#245));
#132=VERTEX_POINT('',#246);
#133=PRESENTATION_STYLE_ASSIGNMENT((#247));
#134=VERTEX_POINT('',#248);
#135=PRESENTATION_STYLE_ASSIGNMENT((#249));
#136=EDGE_CURVE('',#128,#88,#250,.T.);
#137=PRESENTATION_STYLE_ASSIGNMENT((#251));
#138=EDGE_CURVE('',#134,#146,#252,.T.);
#139=PRESENTATION_STYLE_ASSIGNMENT((#253));
#140=EDGE_CURVE('',#88,#128,#254,.T.);
#141=PRESENTATION_STYLE_ASSIGNMENT((#255));
#142=ADVANCED_FACE('',(#256),#257,.T.);
#143=PRESENTATION_STYLE_ASSIGNMENT((#258));
#144=ADVANCED_FACE('',(#259),#260,.T.);
#145=PRESENTATION_STYLE_ASSIGNMENT((#261));
#146=VERTEX_POINT('',#262);
#147=PRESENTATION_STYLE_ASSIGNMENT((#263));
#148=VERTEX_POINT('',#264);
#149=PRESENTATION_STYLE_ASSIGNMENT((#265));
#150=MANIFOLD_SOLID_BREP('1',#266);
#151=PRESENTATION_STYLE_ASSIGNMENT((#267));
#152=EDGE_CURVE('',#94,#130,#268,.T.);
#153=PRESENTATION_STYLE_ASSIGNMENT((#269));
#154=EDGE_CURVE('',#104,#148,#270,.T.);
#155=PRODUCT('1','1','PART-1-DESC',(#271));
#156=PRODUCT_DEFINITION('NONE','NONE',#272,#2);
#157=AXIS2_PLACEMENT_3D('',#273,#274,#275);
#160=LENGTH_MEASURE_WITH_UNIT(LENGTH_MEASURE(1.0),#276);
#163=DIMENSIONAL_EXPONENTS(1.0,0.0,0.0,0.0,0.0,0.0,0.0);
#165=DIMENSIONAL_EXPONENTS(0.0,0.0,0.0,0.0,0.0,0.0,0.0);
#171=SURFACE_STYLE_USAGE(.BOTH.,#277);
#172=FACE_OUTER_BOUND('',#278,.T.);
#173=CYLINDRICAL_SURFACE('',#279,3.1115);
#174=SURFACE_STYLE_USAGE(.BOTH.,#280);
#175=FACE_BOUND('',#281,.T.);
#176=FACE_OUTER_BOUND('',#282,.T.);
#177=PLANE('',#283);
#178=SURFACE_STYLE_USAGE(.BOTH.,#284);
#179=FACE_OUTER_BOUND('',#285,.T.);
#180=CONICAL_SURFACE('',#286,3.06039597156586,0.523598775598301);
#181=CURVE_STYLE('',#287,POSITIVE_LENGTH_MEASURE(1.0E-006),#288);
#182=LINE('',#289,#290);
#183=POINT_STYLE(' ',#291,POSITIVE_LENGTH_MEASURE(1.0E-006),#292);
#184=CARTESIAN_POINT('',(3.81036266991833E-016,-3.1115,-75.700466668634));
#185=CURVE_STYLE('',#293,POSITIVE_LENGTH_MEASURE(1.0E-006),#294);
#186=CIRCLE('',#295,3.1115);
#187=SURFACE_STYLE_USAGE(.BOTH.,#296);
#188=FACE_OUTER_BOUND('',#297,.T.);
#189=PLANE('',#298);
#190=CURVE_STYLE('',#299,POSITIVE_LENGTH_MEASURE(1.0E-006),#300);
#191=LINE('',#301,#302);
#192=SURFACE_STYLE_USAGE(.BOTH.,#303);
#193=FACE_OUTER_BOUND('',#304,.T.);
#194=CYLINDRICAL_SURFACE('',#305,3.1115);
#195=SURFACE_STYLE_USAGE(.BOTH.,#306);
#196=FACE_OUTER_BOUND('',#307,.T.);
#197=CYLINDRICAL_SURFACE('',#308,3.175);
#198=POINT_STYLE(' ',#309,POSITIVE_LENGTH_MEASURE(1.0E-006),#310);
#199=CARTESIAN_POINT('',(3.88812517338605E-016,-3.175,-0.396999999999998));
#200=POINT_STYLE(' ',#311,POSITIVE_LENGTH_MEASURE(1.0E-006),#312);
#201=CARTESIAN_POINT('',(3.60743553059787E-016,-2.94579194313172,0.0));
#202=CURVE_STYLE('',#313,POSITIVE_LENGTH_MEASURE(1.0E-006),#314);
#203=CIRCLE('',#315,2.24628289);
#204=POINT_STYLE(' ',#316,POSITIVE_LENGTH_MEASURE(1.0E-006),#317);
#205=CARTESIAN_POINT('',(-3.88812517338605E-016,3.175,-63.5));
#206=CURVE_STYLE('',#318,POSITIVE_LENGTH_MEASURE(1.0E-006),#319);
#207=LINE('',#320,#321);
#208=CURVE_STYLE('',#322,POSITIVE_LENGTH_MEASURE(1.0E-006),#323);
#209=CIRCLE('',#324,3.1115);
#210=SURFACE_STYLE_USAGE(.BOTH.,#325);
#211=FACE_OUTER_BOUND('',#326,.T.);
#212=CONICAL_SURFACE('',#327,2.678891445,1.0471975511966);
#213=SURFACE_STYLE_USAGE(.BOTH.,#328);
#214=FACE_OUTER_BOUND('',#329,.T.);
#215=CONICAL_SURFACE('',#330,2.678891445,1.0471975511966);
#216=POINT_STYLE(' ',#331,POSITIVE_LENGTH_MEASURE(1.0E-006),#332);
#217=CARTESIAN_POINT('',(0.0,3.1115,-63.5));
#218=CURVE_STYLE('',#333,POSITIVE_LENGTH_MEASURE(1.0E-006),#334);
#219=CIRCLE('',#335,2.94579194313172);
#220=POINT_STYLE(' ',#336,POSITIVE_LENGTH_MEASURE(1.0E-006),#337);
#221=CARTESIAN_POINT('',(0.0,3.1115,-75.700466668634));
#222=CURVE_STYLE('',#338,POSITIVE_LENGTH_MEASURE(1.0E-006),#339);
#223=LINE('',#340,#341);
#224=CURVE_STYLE('',#342,POSITIVE_LENGTH_MEASURE(1.0E-006),#343);
#225=LINE('',#344,#345);
#226=CURVE_STYLE('',#346,POSITIVE_LENGTH_MEASURE(1.0E-006),#347);
#227=CIRCLE('',#348,2.94579194313172);
#228=CURVE_STYLE('',#349,POSITIVE_LENGTH_MEASURE(1.0E-006),#350);
#229=CIRCLE('',#351,3.1115);
#230=CURVE_STYLE('',#352,POSITIVE_LENGTH_MEASURE(1.0E-006),#353);
#231=CIRCLE('',#354,3.175);
#232=CURVE_STYLE('',#355,POSITIVE_LENGTH_MEASURE(1.0E-006),#356);
#233=LINE('',#357,#358);
#234=CURVE_STYLE('',#359,POSITIVE_LENGTH_MEASURE(1.0E-006),#360);
#235=LINE('',#361,#362);
#236=CURVE_STYLE('',#363,POSITIVE_LENGTH_MEASURE(1.0E-006),#364);
#237=LINE('',#365,#366);
#238=SURFACE_STYLE_USAGE(.BOTH.,#367);
#239=FACE_OUTER_BOUND('',#368,.T.);
#240=CONICAL_SURFACE('',#369,3.06039597156586,0.523598775598301);
#241=POINT_STYLE(' ',#370,POSITIVE_LENGTH_MEASURE(1.0E-006),#371);
#242=CARTESIAN_POINT('',(0.0,3.175,-0.396999999999998));
#243=POINT_STYLE(' ',#372,POSITIVE_LENGTH_MEASURE(1.0E-006),#373);
#244=CARTESIAN_POINT('',(0.0,-3.175,-63.5));
#245=POINT_STYLE(' ',#374,POSITIVE_LENGTH_MEASURE(1.0E-006),#375);
#246=CARTESIAN_POINT('',(0.0,2.94579194313172,0.0));
#247=POINT_STYLE(' ',#376,POSITIVE_LENGTH_MEASURE(1.0E-006),#377);
#248=CARTESIAN_POINT('',(2.75081229957649E-016,-2.24628289,-76.2));
#249=CURVE_STYLE('',#378,POSITIVE_LENGTH_MEASURE(1.0E-006),#379);
#250=CIRCLE('',#380,3.175);
#251=CURVE_STYLE('',#381,POSITIVE_LENGTH_MEASURE(1.0E-006),#382);
#252=CIRCLE('',#383,2.24628289);
#253=CURVE_STYLE('',#384,POSITIVE_LENGTH_MEASURE(1.0E-006),#385);
#254=CIRCLE('',#386,3.175);
#255=SURFACE_STYLE_USAGE(.BOTH.,#387);
#256=FACE_OUTER_BOUND('',#388,.T.);
#257=PLANE('',#389);
#258=SURFACE_STYLE_USAGE(.BOTH.,#390);
#259=FACE_OUTER_BOUND('',#391,.T.);
#260=CYLINDRICAL_SURFACE('',#392,3.175);
#261=POINT_STYLE(' ',#393,POSITIVE_LENGTH_MEASURE(1.0E-006),#394);
#262=CARTESIAN_POINT('',(0.0,2.24628289,-76.2));
#263=POINT_STYLE(' ',#395,POSITIVE_LENGTH_MEASURE(1.0E-006),#396);
#264=CARTESIAN_POINT('',(3.81036266991833E-016,-3.1115,-63.5));
#265=SURFACE_STYLE_USAGE(.BOTH.,#397);
#266=CLOSED_SHELL('',(#144,#126,#100,#68,#84,#102,#70,#80,#72,#86,#142));
#267=CURVE_STYLE('',#398,POSITIVE_LENGTH_MEASURE(1.0E-006),#399);
#268=CIRCLE('',#400,3.175);
#269=CURVE_STYLE('',#401,POSITIVE_LENGTH_MEASURE(1.0E-006),#402);
#270=CIRCLE('',#403,3.1115);
#271=PRODUCT_CONTEXT('',#54,'mechanical');
#272=PRODUCT_DEFINITION_FORMATION_WITH_SPECIFIED_SOURCE(' ','NONE',#155,.NOT_KNOWN.);
#273=CARTESIAN_POINT('',(0.0,0.0,0.0));
#274=DIRECTION('',(0.0,0.0,1.0));
#275=DIRECTION('',(1.0,0.0,0.0));
#276= (NAMED_UNIT(#163)LENGTH_UNIT()SI_UNIT(.MILLI.,.METRE.));
#277=SURFACE_SIDE_STYLE('',(#405));
#278=EDGE_LOOP('',(#406,#407,#408,#409));
#279=AXIS2_PLACEMENT_3D('',#410,#411,#412);
#280=SURFACE_SIDE_STYLE('',(#413));
#281=EDGE_LOOP('',(#414,#415));
#282=EDGE_LOOP('',(#416,#417));
#283=AXIS2_PLACEMENT_3D('',#418,#419,#420);
#284=SURFACE_SIDE_STYLE('',(#421));
#285=EDGE_LOOP('',(#422,#423,#424,#425));
#286=AXIS2_PLACEMENT_3D('',#426,#427,#428);
#287=DRAUGHTING_PRE_DEFINED_CURVE_FONT('continuous');
#288=COLOUR_RGB('',0.498039215803146,0.498039215803146,0.498039215803146);
#289=CARTESIAN_POINT('',(-3.88812517338605E-016,3.175,-27.0485));
#290=VECTOR('',#429,1.0);
#291=PRE_DEFINED_MARKER('');
#292=COLOUR_RGB('',0.800000011920929,0.800000011920929,0.800000011920929);
#293=DRAUGHTING_PRE_DEFINED_CURVE_FONT('continuous');
#294=COLOUR_RGB('',0.800000011920929,0.800000011920929,0.800000011920929);
#295=AXIS2_PLACEMENT_3D('',#430,#431,#432);
#296=SURFACE_SIDE_STYLE('',(#433));
#297=EDGE_LOOP('',(#434,#435));
#298=AXIS2_PLACEMENT_3D('',#436,#437,#438);
#299=DRAUGHTING_PRE_DEFINED_CURVE_FONT('continuous');
#300=COLOUR_RGB('',0.800000011920929,0.800000011920929,0.800000011920929);
#301=CARTESIAN_POINT('',(3.28058748474741E-016,-2.678891445,-75.950233334317));
#302=VECTOR('',#439,1.0);
#303=SURFACE_SIDE_STYLE('',(#440));
#304=EDGE_LOOP('',(#441,#442,#443,#444));
#305=AXIS2_PLACEMENT_3D('',#445,#446,#447);
#306=SURFACE_SIDE_STYLE('',(#448));
#307=EDGE_LOOP('',(#449,#450,#451,#452));
#308=AXIS2_PLACEMENT_3D('',#453,#454,#455);
#309=PRE_DEFINED_MARKER('');
#310=COLOUR_RGB('',0.498039215803146,0.498039215803146,0.498039215803146);
#311=PRE_DEFINED_MARKER('');
#312=COLOUR_RGB('',0.498039215803146,0.498039215803146,0.498039215803146);
#313=DRAUGHTING_PRE_DEFINED_CURVE_FONT('continuous');
#314=COLOUR_RGB('',0.498039215803146,0.498039215803146,0.498039215803146);
#315=AXIS2_PLACEMENT_3D('',#456,#457,#458);
#316=PRE_DEFINED_MARKER('');
#317=COLOUR_RGB('',0.498039215803146,0.498039215803146,0.498039215803146);
#318=DRAUGHTING_PRE_DEFINED_CURVE_FONT('continuous');
#319=COLOUR_RGB('',0.498039215803146,0.498039215803146,0.498039215803146);
#320=CARTESIAN_POINT('',(3.74778035199196E-016,-3.06039597156586,-0.198500000000003));
#321=VECTOR('',#459,1.0);
#322=DRAUGHTING_PRE_DEFINED_CURVE_FONT('continuous');
#323=COLOUR_RGB('',0.800000011920929,0.800000011920929,0.800000011920929);
#324=AXIS2_PLACEMENT_3D('',#460,#461,#462);
#325=SURFACE_SIDE_STYLE('',(#463));
#326=EDGE_LOOP('',(#464,#465,#466,#467));
#327=AXIS2_PLACEMENT_3D('',#468,#469,#470);
#328=SURFACE_SIDE_STYLE('',(#471));
#329=EDGE_LOOP('',(#472,#473,#474,#475));
#330=AXIS2_PLACEMENT_3D('',#476,#477,#478);
#331=PRE_DEFINED_MARKER('');
#332=COLOUR_RGB('',0.498039215803146,0.498039215803146,0.498039215803146);
#333=DRAUGHTING_PRE_DEFINED_CURVE_FONT('continuous');
#334=COLOUR_RGB('',0.498039215803146,0.498039215803146,0.498039215803146);
#335=AXIS2_PLACEMENT_3D('',#479,#480,#481);
#336=PRE_DEFINED_MARKER('');
#337=COLOUR_RGB('',0.800000011920929,0.800000011920929,0.800000011920929);
#338=DRAUGHTING_PRE_DEFINED_CURVE_FONT('continuous');
#339=COLOUR_RGB('',0.800000011920929,0.800000011920929,0.800000011920929);
#340=CARTESIAN_POINT('',(3.81036266991833E-016,-3.1115,-69.600233334317));
#341=VECTOR('',#482,1.0);
#342=DRAUGHTING_PRE_DEFINED_CURVE_FONT('continuous');
#343=COLOUR_RGB('',0.800000011920929,0.800000011920929,0.800000011920929);
#344=CARTESIAN_POINT('',(-3.28058748474741E-016,2.678891445,-75.950233334317));
#345=VECTOR('',#483,1.0);
#346=DRAUGHTING_PRE_DEFINED_CURVE_FONT('continuous');
#347=COLOUR_RGB('',0.498039215803146,0.498039215803146,0.498039215803146);
#348=AXIS2_PLACEMENT_3D('',#484,#485,#486);
#349=DRAUGHTING_PRE_DEFINED_CURVE_FONT('continuous');
#350=COLOUR_RGB('',0.498039215803146,0.498039215803146,0.498039215803146);
#351=AXIS2_PLACEMENT_3D('',#487,#488,#489);
#352=DRAUGHTING_PRE_DEFINED_CURVE_FONT('continuous');
#353=COLOUR_RGB('',0.498039215803146,0.498039215803146,0.498039215803146);
#354=AXIS2_PLACEMENT_3D('',#490,#491,#492);
#355=DRAUGHTING_PRE_DEFINED_CURVE_FONT('continuous');
#356=COLOUR_RGB('',0.498039215803146,0.498039215803146,0.498039215803146);
#357=CARTESIAN_POINT('',(-3.74778035199196E-016,3.06039597156586,-0.198500000000003));
#358=VECTOR('',#493,1.0);
#359=DRAUGHTING_PRE_DEFINED_CURVE_FONT('continuous');
#360=COLOUR_RGB('',0.800000011920929,0.800000011920929,0.800000011920929);
#361=CARTESIAN_POINT('',(-3.81036266991833E-016,3.1115,-69.600233334317));
#362=VECTOR('',#494,1.0);
#363=DRAUGHTING_PRE_DEFINED_CURVE_FONT('continuous');
#364=COLOUR_RGB('',0.498039215803146,0.498039215803146,0.498039215803146);
#365=CARTESIAN_POINT('',(3.88812517338605E-016,-3.175,-27.0485));
#366=VECTOR('',#495,1.0);
#367=SURFACE_SIDE_STYLE('',(#496));
#368=EDGE_LOOP('',(#497,#498,#499,#500));
#369=AXIS2_PLACEMENT_3D('',#501,#502,#503);
#370=PRE_DEFINED_MARKER('');
#371=COLOUR_RGB('',0.498039215803146,0.498039215803146,0.498039215803146);
#372=PRE_DEFINED_MARKER('');
#373=COLOUR_RGB('',0.498039215803146,0.498039215803146,0.498039215803146);
#374=PRE_DEFINED_MARKER('');
#375=COLOUR_RGB('',0.498039215803146,0.498039215803146,0.498039215803146);
#376=PRE_DEFINED_MARKER('');
#377=COLOUR_RGB('',0.498039215803146,0.498039215803146,0.498039215803146);
#378=DRAUGHTING_PRE_DEFINED_CURVE_FONT('continuous');
#379=COLOUR_RGB('',0.498039215803146,0.498039215803146,0.498039215803146);
#380=AXIS2_PLACEMENT_3D('',#504,#505,#506);
#381=DRAUGHTING_PRE_DEFINED_CURVE_FONT('continuous');
#382=COLOUR_RGB('',0.498039215803146,0.498039215803146,0.498039215803146);
#383=AXIS2_PLACEMENT_3D('',#507,#508,#509);
#384=DRAUGHTING_PRE_DEFINED_CURVE_FONT('continuous');
#385=COLOUR_RGB('',0.498039215803146,0.498039215803146,0.498039215803146);
#386=AXIS2_PLACEMENT_3D('',#510,#511,#512);
#387=SURFACE_SIDE_STYLE('',(#513));
#388=EDGE_LOOP('',(#514,#515));
#389=AXIS2_PLACEMENT_3D('',#516,#517,#518);
#390=SURFACE_SIDE_STYLE('',(#519));
#391=EDGE_LOOP('',(#520,#521,#522,#523));
#392=AXIS2_PLACEMENT_3D('',#524,#525,#526);
#393=PRE_DEFINED_MARKER('');
#394=COLOUR_RGB('',0.498039215803146,0.498039215803146,0.498039215803146);
#395=PRE_DEFINED_MARKER('');
#396=COLOUR_RGB('',0.498039215803146,0.498039215803146,0.498039215803146);
#397=SURFACE_SIDE_STYLE('',(#527));
#398=DRAUGHTING_PRE_DEFINED_CURVE_FONT('continuous');
#399=COLOUR_RGB('',0.498039215803146,0.498039215803146,0.498039215803146);
#400=AXIS2_PLACEMENT_3D('',#528,#529,#530);
#401=DRAUGHTING_PRE_DEFINED_CURVE_FONT('continuous');
#402=COLOUR_RGB('',0.498039215803146,0.498039215803146,0.498039215803146);
#403=AXIS2_PLACEMENT_3D('',#531,#532,#533);
#405=SURFACE_STYLE_FILL_AREA(#534);
#406=ORIENTED_EDGE('',*,*,#122,.F.);
#407=ORIENTED_EDGE('',*,*,#116,.F.);
#408=ORIENTED_EDGE('',*,*,#110,.F.);
#409=ORIENTED_EDGE('',*,*,#78,.F.);
#410=CARTESIAN_POINT('',(0.0,0.0,-69.600233334317));
#411=DIRECTION('',(-0.0,-0.0,1.0));
#412=DIRECTION('',(0.0,1.0,0.0));
#413=SURFACE_STYLE_FILL_AREA(#535);
#414=ORIENTED_EDGE('',*,*,#154,.T.);
#415=ORIENTED_EDGE('',*,*,#116,.T.);
#416=ORIENTED_EDGE('',*,*,#118,.T.);
#417=ORIENTED_EDGE('',*,*,#152,.T.);
#418=CARTESIAN_POINT('',(0.0,0.0,-63.5));
#419=DIRECTION('',(0.0,0.0,-1.0));
#420=DIRECTION('',(0.0,-1.0,0.0));
#421=SURFACE_STYLE_FILL_AREA(#536);
#422=ORIENTED_EDGE('',*,*,#120,.T.);
#423=ORIENTED_EDGE('',*,*,#140,.F.);
#424=ORIENTED_EDGE('',*,*,#96,.T.);
#425=ORIENTED_EDGE('',*,*,#114,.T.);
#426=CARTESIAN_POINT('',(0.0,0.0,-0.198500000000003));
#427=DIRECTION('',(0.0,-0.0,-1.0));
#428=DIRECTION('',(0.0,1.0,0.0));
#429=DIRECTION('',(0.0,0.0,-1.0));
#430=CARTESIAN_POINT('',(0.0,0.0,-75.700466668634));
#431=DIRECTION('',(0.0,0.0,-1.0));
#432=DIRECTION('',(0.0,1.0,0.0));
#433=SURFACE_STYLE_FILL_AREA(#537);
#434=ORIENTED_EDGE('',*,*,#106,.F.);
#435=ORIENTED_EDGE('',*,*,#114,.F.);
#436=CARTESIAN_POINT('',(0.0,1.47289597156586,0.0));
#437=DIRECTION('',(-0.0,0.0,1.0));
#438=DIRECTION('',(0.0,-1.0,0.0));
#439=DIRECTION('',(1.06054021204601E-016,-0.866025403784436,0.500000000000004));
#440=SURFACE_STYLE_FILL_AREA(#538);
#441=ORIENTED_EDGE('',*,*,#122,.T.);
#442=ORIENTED_EDGE('',*,*,#98,.F.);
#443=ORIENTED_EDGE('',*,*,#110,.T.);
#444=ORIENTED_EDGE('',*,*,#154,.F.);
#445=CARTESIAN_POINT('',(0.0,0.0,-69.600233334317));
#446=DIRECTION('',(-0.0,-0.0,1.0));
#447=DIRECTION('',(0.0,1.0,0.0));
#448=SURFACE_STYLE_FILL_AREA(#539);
#449=ORIENTED_EDGE('',*,*,#74,.T.);
#450=ORIENTED_EDGE('',*,*,#118,.F.);
#451=ORIENTED_EDGE('',*,*,#124,.T.);
#452=ORIENTED_EDGE('',*,*,#140,.T.);
#453=CARTESIAN_POINT('',(0.0,0.0,-27.0485));
#454=DIRECTION('',(-0.0,-0.0,1.0));
#455=DIRECTION('',(0.0,1.0,0.0));
#456=CARTESIAN_POINT('',(0.0,0.0,-76.2));
#457=DIRECTION('',(0.0,0.0,-1.0));
#458=DIRECTION('',(0.0,1.0,0.0));
#459=DIRECTION('',(-6.12303176911191E-017,0.500000000000002,0.866025403784438));
#460=CARTESIAN_POINT('',(0.0,0.0,-75.700466668634));
#461=DIRECTION('',(0.0,0.0,-1.0));
#462=DIRECTION('',(0.0,1.0,0.0));
#463=SURFACE_STYLE_FILL_AREA(#540);
#464=ORIENTED_EDGE('',*,*,#112,.F.);
#465=ORIENTED_EDGE('',*,*,#78,.T.);
#466=ORIENTED_EDGE('',*,*,#82,.F.);
#467=ORIENTED_EDGE('',*,*,#92,.F.);
#468=CARTESIAN_POINT('',(0.0,0.0,-75.950233334317));
#469=DIRECTION('',(-0.0,-0.0,1.0));
#470=DIRECTION('',(0.0,1.0,0.0));
#471=SURFACE_STYLE_FILL_AREA(#541);
#472=ORIENTED_EDGE('',*,*,#112,.T.);
#473=ORIENTED_EDGE('',*,*,#138,.F.);
#474=ORIENTED_EDGE('',*,*,#82,.T.);
#475=ORIENTED_EDGE('',*,*,#98,.T.);
#476=CARTESIAN_POINT('',(0.0,0.0,-75.950233334317));
#477=DIRECTION('',(-0.0,-0.0,1.0));
#478=DIRECTION('',(0.0,1.0,0.0));
#479=CARTESIAN_POINT('',(0.0,0.0,0.0));
#480=DIRECTION('',(0.0,0.0,-1.0));
#481=DIRECTION('',(0.0,1.0,0.0));
#482=DIRECTION('',(-0.0,-0.0,1.0));
#483=DIRECTION('',(1.06054021204601E-016,-0.866025403784436,-0.500000000000004));
#484=CARTESIAN_POINT('',(0.0,0.0,0.0));
#485=DIRECTION('',(0.0,0.0,-1.0));
#486=DIRECTION('',(0.0,1.0,0.0));
#487=CARTESIAN_POINT('',(0.0,0.0,-63.5));
#488=DIRECTION('',(0.0,-0.0,1.0));
#489=DIRECTION('',(0.0,1.0,0.0));
#490=CARTESIAN_POINT('',(0.0,0.0,-63.5));
#491=DIRECTION('',(0.0,0.0,-1.0));
#492=DIRECTION('',(0.0,-1.0,0.0));
#493=DIRECTION('',(-6.12303176911191E-017,0.500000000000002,-0.866025403784438));
#494=DIRECTION('',(0.0,0.0,-1.0));
#495=DIRECTION('',(-0.0,-0.0,1.0));
#496=SURFACE_STYLE_FILL_AREA(#542);
#497=ORIENTED_EDGE('',*,*,#120,.F.);
#498=ORIENTED_EDGE('',*,*,#106,.T.);
#499=ORIENTED_EDGE('',*,*,#96,.F.);
#500=ORIENTED_EDGE('',*,*,#136,.F.);
#501=CARTESIAN_POINT('',(0.0,0.0,-0.198500000000003));
#502=DIRECTION('',(0.0,-0.0,-1.0));
#503=DIRECTION('',(0.0,1.0,0.0));
#504=CARTESIAN_POINT('',(0.0,0.0,-0.396999999999998));
#505=DIRECTION('',(0.0,0.0,-1.0));
#506=DIRECTION('',(0.0,1.0,0.0));
#507=CARTESIAN_POINT('',(0.0,0.0,-76.2));
#508=DIRECTION('',(0.0,0.0,-1.0));
#509=DIRECTION('',(0.0,1.0,0.0));
#510=CARTESIAN_POINT('',(0.0,0.0,-0.396999999999998));
#511=DIRECTION('',(0.0,0.0,-1.0));
#512=DIRECTION('',(0.0,1.0,0.0));
#513=SURFACE_STYLE_FILL_AREA(#543);
#514=ORIENTED_EDGE('',*,*,#92,.T.);
#515=ORIENTED_EDGE('',*,*,#138,.T.);
#516=CARTESIAN_POINT('',(0.0,1.123141445,-76.2));
#517=DIRECTION('',(0.0,0.0,-1.0));
#518=DIRECTION('',(0.0,1.0,0.0));
#519=SURFACE_STYLE_FILL_AREA(#544);
#520=ORIENTED_EDGE('',*,*,#74,.F.);
#521=ORIENTED_EDGE('',*,*,#136,.T.);
#522=ORIENTED_EDGE('',*,*,#124,.F.);
#523=ORIENTED_EDGE('',*,*,#152,.F.);
#524=CARTESIAN_POINT('',(0.0,0.0,-27.0485));
#525=DIRECTION('',(-0.0,-0.0,1.0));
#526=DIRECTION('',(0.0,1.0,0.0));
#527=SURFACE_STYLE_FILL_AREA(#545);
#528=CARTESIAN_POINT('',(0.0,0.0,-63.5));
#529=DIRECTION('',(0.0,0.0,-1.0));
#530=DIRECTION('',(0.0,-1.0,0.0));
#531=CARTESIAN_POINT('',(0.0,0.0,-63.5));
#532=DIRECTION('',(0.0,-0.0,1.0));
#533=DIRECTION('',(0.0,1.0,0.0));
#534=FILL_AREA_STYLE('',(#546));
#535=FILL_AREA_STYLE('',(#547));
#536=FILL_AREA_STYLE('',(#548));
#537=FILL_AREA_STYLE('',(#549));
#538=FILL_AREA_STYLE('',(#550));
#539=FILL_AREA_STYLE('',(#551));
#540=FILL_AREA_STYLE('',(#552));
#541=FILL_AREA_STYLE('',(#553));
#542=FILL_AREA_STYLE('',(#554));
#543=FILL_AREA_STYLE('',(#555));
#544=FILL_AREA_STYLE('',(#556));
#545=FILL_AREA_STYLE('',(#557));
#546=FILL_AREA_STYLE_COLOUR('',#558);
#547=FILL_AREA_STYLE_COLOUR('',#559);
#548=FILL_AREA_STYLE_COLOUR('',#560);
#549=FILL_AREA_STYLE_COLOUR('',#561);
#550=FILL_AREA_STYLE_COLOUR('',#562);
#551=FILL_AREA_STYLE_COLOUR('',#563);
#552=FILL_AREA_STYLE_COLOUR('',#564);
#553=FILL_AREA_STYLE_COLOUR('',#565);
#554=FILL_AREA_STYLE_COLOUR('',#566);
#555=FILL_AREA_STYLE_COLOUR('',#567);
#556=FILL_AREA_STYLE_COLOUR('',#568);
#557=FILL_AREA_STYLE_COLOUR('',#569);
#558=COLOUR_RGB('',0.800000011920929,0.800000011920929,0.800000011920929);
#559=COLOUR_RGB('',0.498039215803146,0.498039215803146,0.498039215803146);
#560=COLOUR_RGB('',0.498039215803146,0.498039215803146,0.498039215803146);
#561=COLOUR_RGB('',0.498039215803146,0.498039215803146,0.498039215803146);
#562=COLOUR_RGB('',0.800000011920929,0.800000011920929,0.800000011920929);
#563=COLOUR_RGB('',0.498039215803146,0.498039215803146,0.498039215803146);
#564=COLOUR_RGB('',0.800000011920929,0.800000011920929,0.800000011920929);
#565=COLOUR_RGB('',0.800000011920929,0.800000011920929,0.800000011920929);
#566=COLOUR_RGB('',0.498039215803146,0.498039215803146,0.498039215803146);
#567=COLOUR_RGB('',0.498039215803146,0.498039215803146,0.498039215803146);
#568=COLOUR_RGB('',0.498039215803146,0.498039215803146,0.498039215803146);
#569=COLOUR_RGB('',0.498039215803146,0.498039215803146,0.498039215803146);
#570=AXIS2_PLACEMENT_3D('PCS',#571,#572,#573);
#571=CARTESIAN_POINT('',(0.0,0.0,0.0));
#572=DIRECTION('',(0.0,0.0,1.0));
#573=DIRECTION('',(1.0,0.0,0.0));
#574=AXIS2_PLACEMENT_3D('CIP',#575,#576,#577);
#575=CARTESIAN_POINT('',(0.0,0.0,-76.2));
#576=DIRECTION('',(0.0,0.0,1.0));
#577=DIRECTION('',(1.0,0.0,0.0));
#578=AXIS2_PLACEMENT_3D('CRP',#579,#580,#581);
#579=CARTESIAN_POINT('',(-3.1115,0.0,-76.2));
#580=DIRECTION('',(0.0,0.0,1.0));
#581=DIRECTION('',(1.0,0.0,0.0));
#582=AXIS2_PLACEMENT_3D('MCS',#583,#584,#585);
#583=CARTESIAN_POINT('',(0.0,0.0,-53.7));
#584=DIRECTION('',(0.0,0.0,1.0));
#585=DIRECTION('',(1.0,0.0,0.0));
#586=CONSTRUCTIVE_GEOMETRY_REPRESENTATION_RELATIONSHIP('coordinate systems',$,#58,#587);
#587=CONSTRUCTIVE_GEOMETRY_REPRESENTATION('coordinate systems',(#570,#574,#578,#582),#6);
ENDSEC;
END-ISO-10303-21;
