ISO-10303-21;
HEADER;
FILE_DESCRIPTION(('no description'),'unknown implementation level');
FILE_NAME('solid09qy97EDNajcrfgj5CDJt5dzBfE_1.STP','  ',('CIMSOURCE GmbH'),('CADClick - KiM GmbH - www.kimweb.de'),'unknown preprocess','ACIS','unknown authorization');
FILE_SCHEMA(('automotive_design'));
ENDSEC;
DATA;
#1=MECHANICAL_DESIGN_GEOMETRIC_PRESENTATION_REPRESENTATION(' ',(#10,#11,#12,#13,#14,#15,#16,#17,#18,#19,#20,#21,#22,#23,#24,#25,#26,#27,#28,#29,#30,#31,#32,#33,#34,#35,#36,#37,#38,#39,#40,#41,#42,#43,#44,#45,#46,#47,#48,#49,#50,#51,#52,#53),#6);
#2=PRODUCT_DEFINITION_CONTEXT('',#54,'design');
#3=APPLICATION_PROTOCOL_DEFINITION('INTERNATIONAL STANDARD','automotive_design',1994,#54);
#4=PRODUCT_CATEGORY_RELATIONSHIP('NONE','NONE',#55,#56);
#5=SHAPE_DEFINITION_REPRESENTATION(#57,#58);
#6= (GEOMETRIC_REPRESENTATION_CONTEXT(3)GLOBAL_UNCERTAINTY_ASSIGNED_CONTEXT((#61))GLOBAL_UNIT_ASSIGNED_CONTEXT((#63,#64,#65))REPRESENTATION_CONTEXT('NONE','WORKSPACE'));
#10=STYLED_ITEM('',(#67),#68);
#11=STYLED_ITEM('',(#69),#70);
#12=STYLED_ITEM('',(#71),#72);
#13=STYLED_ITEM('',(#73),#74);
#14=STYLED_ITEM('',(#75),#76);
#15=STYLED_ITEM('',(#77),#78);
#16=STYLED_ITEM('',(#79),#80);
#17=STYLED_ITEM('',(#81),#82);
#18=STYLED_ITEM('',(#83),#84);
#19=STYLED_ITEM('',(#85),#86);
#20=STYLED_ITEM('',(#87),#88);
#21=STYLED_ITEM('',(#89),#90);
#22=STYLED_ITEM('',(#91),#92);
#23=STYLED_ITEM('',(#93),#94);
#24=STYLED_ITEM('',(#95),#96);
#25=STYLED_ITEM('',(#97),#98);
#26=STYLED_ITEM('',(#99),#100);
#27=STYLED_ITEM('',(#101),#102);
#28=STYLED_ITEM('',(#103),#104);
#29=STYLED_ITEM('',(#105),#106);
#30=STYLED_ITEM('',(#107),#108);
#31=STYLED_ITEM('',(#109),#110);
#32=STYLED_ITEM('',(#111),#112);
#33=STYLED_ITEM('',(#113),#114);
#34=STYLED_ITEM('',(#115),#116);
#35=STYLED_ITEM('',(#117),#118);
#36=STYLED_ITEM('',(#119),#120);
#37=STYLED_ITEM('',(#121),#122);
#38=STYLED_ITEM('',(#123),#124);
#39=STYLED_ITEM('',(#125),#126);
#40=STYLED_ITEM('',(#127),#128);
#41=STYLED_ITEM('',(#129),#130);
#42=STYLED_ITEM('',(#131),#132);
#43=STYLED_ITEM('',(#133),#134);
#44=STYLED_ITEM('',(#135),#136);
#45=STYLED_ITEM('',(#137),#138);
#46=STYLED_ITEM('',(#139),#140);
#47=STYLED_ITEM('',(#141),#142);
#48=STYLED_ITEM('',(#143),#144);
#49=STYLED_ITEM('',(#145),#146);
#50=STYLED_ITEM('',(#147),#148);
#51=STYLED_ITEM('',(#149),#150);
#52=STYLED_ITEM('',(#151),#152);
#53=STYLED_ITEM('',(#153),#154);
#54=APPLICATION_CONTEXT(' ');
#55=PRODUCT_CATEGORY('part','NONE');
#56=PRODUCT_RELATED_PRODUCT_CATEGORY('detail',' ',(#155));
#57=PRODUCT_DEFINITION_SHAPE('NONE','NONE',#156);
#58=ADVANCED_BREP_SHAPE_REPRESENTATION('1',(#134,#157),#6);
#61=UNCERTAINTY_MEASURE_WITH_UNIT(LENGTH_MEASURE(1.0E-006),#63,'','');
#63= (CONVERSION_BASED_UNIT('MILLIMETRE',#160)LENGTH_UNIT()NAMED_UNIT(#163));
#64= (NAMED_UNIT(#165)PLANE_ANGLE_UNIT()SI_UNIT($,.RADIAN.));
#65= (NAMED_UNIT(#165)SOLID_ANGLE_UNIT()SI_UNIT($,.STERADIAN.));
#67=PRESENTATION_STYLE_ASSIGNMENT((#171));
#68=EDGE_CURVE('',#144,#148,#172,.T.);
#69=PRESENTATION_STYLE_ASSIGNMENT((#173));
#70=ADVANCED_FACE('',(#174),#175,.T.);
#71=PRESENTATION_STYLE_ASSIGNMENT((#176));
#72=ADVANCED_FACE('',(#177),#178,.T.);
#73=PRESENTATION_STYLE_ASSIGNMENT((#179));
#74=ADVANCED_FACE('',(#180),#181,.T.);
#75=PRESENTATION_STYLE_ASSIGNMENT((#182));
#76=ADVANCED_FACE('',(#183),#184,.T.);
#77=PRESENTATION_STYLE_ASSIGNMENT((#185));
#78=VERTEX_POINT('',#186);
#79=PRESENTATION_STYLE_ASSIGNMENT((#187));
#80=EDGE_CURVE('',#116,#122,#188,.T.);
#81=PRESENTATION_STYLE_ASSIGNMENT((#189));
#82=EDGE_CURVE('',#114,#142,#190,.T.);
#83=PRESENTATION_STYLE_ASSIGNMENT((#191));
#84=EDGE_CURVE('',#116,#152,#192,.T.);
#85=PRESENTATION_STYLE_ASSIGNMENT((#193));
#86=EDGE_CURVE('',#122,#116,#194,.T.);
#87=PRESENTATION_STYLE_ASSIGNMENT((#195));
#88=EDGE_CURVE('',#142,#144,#196,.T.);
#89=PRESENTATION_STYLE_ASSIGNMENT((#197));
#90=EDGE_CURVE('',#78,#146,#198,.T.);
#91=PRESENTATION_STYLE_ASSIGNMENT((#199));
#92=EDGE_CURVE('',#146,#78,#200,.T.);
#93=PRESENTATION_STYLE_ASSIGNMENT((#201));
#94=EDGE_CURVE('',#152,#106,#202,.T.);
#95=PRESENTATION_STYLE_ASSIGNMENT((#203));
#96=VERTEX_POINT('',#204);
#97=PRESENTATION_STYLE_ASSIGNMENT((#205));
#98=EDGE_CURVE('',#102,#148,#206,.T.);
#99=PRESENTATION_STYLE_ASSIGNMENT((#207));
#100=ADVANCED_FACE('',(#208),#209,.T.);
#101=PRESENTATION_STYLE_ASSIGNMENT((#210));
#102=VERTEX_POINT('',#211);
#103=PRESENTATION_STYLE_ASSIGNMENT((#212));
#104=EDGE_CURVE('',#106,#122,#213,.T.);
#105=PRESENTATION_STYLE_ASSIGNMENT((#214));
#106=VERTEX_POINT('',#215);
#107=PRESENTATION_STYLE_ASSIGNMENT((#216));
#108=EDGE_CURVE('',#142,#114,#217,.T.);
#109=PRESENTATION_STYLE_ASSIGNMENT((#218));
#110=ADVANCED_FACE('',(#219),#220,.T.);
#111=PRESENTATION_STYLE_ASSIGNMENT((#221));
#112=EDGE_CURVE('',#144,#96,#222,.T.);
#113=PRESENTATION_STYLE_ASSIGNMENT((#223));
#114=VERTEX_POINT('',#224);
#115=PRESENTATION_STYLE_ASSIGNMENT((#225));
#116=VERTEX_POINT('',#226);
#117=PRESENTATION_STYLE_ASSIGNMENT((#227));
#118=EDGE_CURVE('',#152,#78,#228,.T.);
#119=PRESENTATION_STYLE_ASSIGNMENT((#229));
#120=ADVANCED_FACE('',(#230),#231,.T.);
#121=PRESENTATION_STYLE_ASSIGNMENT((#232));
#122=VERTEX_POINT('',#233);
#123=PRESENTATION_STYLE_ASSIGNMENT((#234));
#124=ADVANCED_FACE('',(#235),#236,.T.);
#125=PRESENTATION_STYLE_ASSIGNMENT((#237));
#126=EDGE_CURVE('',#148,#102,#238,.T.);
#127=PRESENTATION_STYLE_ASSIGNMENT((#239));
#128=EDGE_CURVE('',#106,#152,#240,.T.);
#129=PRESENTATION_STYLE_ASSIGNMENT((#241));
#130=ADVANCED_FACE('',(#242),#243,.T.);
#131=PRESENTATION_STYLE_ASSIGNMENT((#244));
#132=EDGE_CURVE('',#102,#96,#245,.T.);
#133=PRESENTATION_STYLE_ASSIGNMENT((#246));
#134=MANIFOLD_SOLID_BREP('1',#247);
#135=PRESENTATION_STYLE_ASSIGNMENT((#248));
#136=EDGE_CURVE('',#96,#144,#249,.T.);
#137=PRESENTATION_STYLE_ASSIGNMENT((#250));
#138=ADVANCED_FACE('',(#251,#252),#253,.T.);
#139=PRESENTATION_STYLE_ASSIGNMENT((#254));
#140=ADVANCED_FACE('',(#255),#256,.T.);
#141=PRESENTATION_STYLE_ASSIGNMENT((#257));
#142=VERTEX_POINT('',#258);
#143=PRESENTATION_STYLE_ASSIGNMENT((#259));
#144=VERTEX_POINT('',#260);
#145=PRESENTATION_STYLE_ASSIGNMENT((#261));
#146=VERTEX_POINT('',#262);
#147=PRESENTATION_STYLE_ASSIGNMENT((#263));
#148=VERTEX_POINT('',#264);
#149=PRESENTATION_STYLE_ASSIGNMENT((#265));
#150=EDGE_CURVE('',#146,#106,#266,.T.);
#151=PRESENTATION_STYLE_ASSIGNMENT((#267));
#152=VERTEX_POINT('',#268);
#153=PRESENTATION_STYLE_ASSIGNMENT((#269));
#154=EDGE_CURVE('',#96,#114,#270,.T.);
#155=PRODUCT('1','1','PART-1-DESC',(#271));
#156=PRODUCT_DEFINITION('NONE','NONE',#272,#2);
#157=AXIS2_PLACEMENT_3D('',#273,#274,#275);
#160=LENGTH_MEASURE_WITH_UNIT(LENGTH_MEASURE(1.0),#276);
#163=DIMENSIONAL_EXPONENTS(1.0,0.0,0.0,0.0,0.0,0.0,0.0);
#165=DIMENSIONAL_EXPONENTS(0.0,0.0,0.0,0.0,0.0,0.0,0.0);
#171=CURVE_STYLE('',#277,POSITIVE_LENGTH_MEASURE(1.0E-006),#278);
#172=LINE('',#279,#280);
#173=SURFACE_STYLE_USAGE(.BOTH.,#281);
#174=FACE_OUTER_BOUND('',#282,.T.);
#175=CYLINDRICAL_SURFACE('',#283,3.175);
#176=SURFACE_STYLE_USAGE(.BOTH.,#284);
#177=FACE_OUTER_BOUND('',#285,.T.);
#178=CONICAL_SURFACE('',#286,3.06039597156586,0.523598775598301);
#179=SURFACE_STYLE_USAGE(.BOTH.,#287);
#180=FACE_OUTER_BOUND('',#288,.T.);
#181=PLANE('',#289);
#182=SURFACE_STYLE_USAGE(.BOTH.,#290);
#183=FACE_OUTER_BOUND('',#291,.T.);
#184=PLANE('',#292);
#185=POINT_STYLE(' ',#293,POSITIVE_LENGTH_MEASURE(1.0E-006),#294);
#186=CARTESIAN_POINT('',(0.0,2.46258716,-76.2));
#187=CURVE_STYLE('',#295,POSITIVE_LENGTH_MEASURE(1.0E-006),#296);
#188=CIRCLE('',#297,3.1115);
#189=CURVE_STYLE('',#298,POSITIVE_LENGTH_MEASURE(1.0E-006),#299);
#190=CIRCLE('',#300,2.94579194313172);
#191=CURVE_STYLE('',#301,POSITIVE_LENGTH_MEASURE(1.0E-006),#302);
#192=LINE('',#303,#304);
#193=CURVE_STYLE('',#305,POSITIVE_LENGTH_MEASURE(1.0E-006),#306);
#194=CIRCLE('',#307,3.1115);
#195=CURVE_STYLE('',#308,POSITIVE_LENGTH_MEASURE(1.0E-006),#309);
#196=LINE('',#310,#311);
#197=CURVE_STYLE('',#312,POSITIVE_LENGTH_MEASURE(1.0E-006),#313);
#198=CIRCLE('',#314,2.46258716);
#199=CURVE_STYLE('',#315,POSITIVE_LENGTH_MEASURE(1.0E-006),#316);
#200=CIRCLE('',#317,2.46258716);
#201=CURVE_STYLE('',#318,POSITIVE_LENGTH_MEASURE(1.0E-006),#319);
#202=CIRCLE('',#320,3.1115);
#203=POINT_STYLE(' ',#321,POSITIVE_LENGTH_MEASURE(1.0E-006),#322);
#204=CARTESIAN_POINT('',(3.88812517338605E-016,-3.175,-0.396999999999998));
#205=CURVE_STYLE('',#323,POSITIVE_LENGTH_MEASURE(1.0E-006),#324);
#206=CIRCLE('',#325,3.175);
#207=SURFACE_STYLE_USAGE(.BOTH.,#326);
#208=FACE_OUTER_BOUND('',#327,.T.);
#209=CONICAL_SURFACE('',#328,3.06039597156586,0.523598775598301);
#210=POINT_STYLE(' ',#329,POSITIVE_LENGTH_MEASURE(1.0E-006),#330);
#211=CARTESIAN_POINT('',(0.0,-3.175,-63.5));
#212=CURVE_STYLE('',#331,POSITIVE_LENGTH_MEASURE(1.0E-006),#332);
#213=LINE('',#333,#334);
#214=POINT_STYLE(' ',#335,POSITIVE_LENGTH_MEASURE(1.0E-006),#336);
#215=CARTESIAN_POINT('',(3.81036266991833E-016,-3.1115,-75.8253499971454));
#216=CURVE_STYLE('',#337,POSITIVE_LENGTH_MEASURE(1.0E-006),#338);
#217=CIRCLE('',#339,2.94579194313172);
#218=SURFACE_STYLE_USAGE(.BOTH.,#340);
#219=FACE_OUTER_BOUND('',#341,.T.);
#220=CONICAL_SURFACE('',#342,2.78704358,1.0471975511966);
#221=CURVE_STYLE('',#343,POSITIVE_LENGTH_MEASURE(1.0E-006),#344);
#222=CIRCLE('',#345,3.175);
#223=POINT_STYLE(' ',#346,POSITIVE_LENGTH_MEASURE(1.0E-006),#347);
#224=CARTESIAN_POINT('',(3.60743553059787E-016,-2.94579194313172,0.0));
#225=POINT_STYLE(' ',#348,POSITIVE_LENGTH_MEASURE(1.0E-006),#349);
#226=CARTESIAN_POINT('',(0.0,3.1115,-63.5));
#227=CURVE_STYLE('',#350,POSITIVE_LENGTH_MEASURE(1.0E-006),#351);
#228=LINE('',#352,#353);
#229=SURFACE_STYLE_USAGE(.BOTH.,#354);
#230=FACE_OUTER_BOUND('',#355,.T.);
#231=CYLINDRICAL_SURFACE('',#356,3.175);
#232=POINT_STYLE(' ',#357,POSITIVE_LENGTH_MEASURE(1.0E-006),#358);
#233=CARTESIAN_POINT('',(3.81036266991833E-016,-3.1115,-63.5));
#234=SURFACE_STYLE_USAGE(.BOTH.,#359);
#235=FACE_OUTER_BOUND('',#360,.T.);
#236=CYLINDRICAL_SURFACE('',#361,3.1115);
#237=CURVE_STYLE('',#362,POSITIVE_LENGTH_MEASURE(1.0E-006),#363);
#238=CIRCLE('',#364,3.175);
#239=CURVE_STYLE('',#365,POSITIVE_LENGTH_MEASURE(1.0E-006),#366);
#240=CIRCLE('',#367,3.1115);
#241=SURFACE_STYLE_USAGE(.BOTH.,#368);
#242=FACE_OUTER_BOUND('',#369,.T.);
#243=CYLINDRICAL_SURFACE('',#370,3.1115);
#244=CURVE_STYLE('',#371,POSITIVE_LENGTH_MEASURE(1.0E-006),#372);
#245=LINE('',#373,#374);
#246=SURFACE_STYLE_USAGE(.BOTH.,#375);
#247=CLOSED_SHELL('',(#120,#100,#140,#130,#124,#110,#138,#74,#72,#70,#76));
#248=CURVE_STYLE('',#376,POSITIVE_LENGTH_MEASURE(1.0E-006),#377);
#249=CIRCLE('',#378,3.175);
#250=SURFACE_STYLE_USAGE(.BOTH.,#379);
#251=FACE_BOUND('',#380,.T.);
#252=FACE_OUTER_BOUND('',#381,.T.);
#253=PLANE('',#382);
#254=SURFACE_STYLE_USAGE(.BOTH.,#383);
#255=FACE_OUTER_BOUND('',#384,.T.);
#256=CONICAL_SURFACE('',#385,2.78704358,1.0471975511966);
#257=POINT_STYLE(' ',#386,POSITIVE_LENGTH_MEASURE(1.0E-006),#387);
#258=CARTESIAN_POINT('',(0.0,2.94579194313172,0.0));
#259=POINT_STYLE(' ',#388,POSITIVE_LENGTH_MEASURE(1.0E-006),#389);
#260=CARTESIAN_POINT('',(0.0,3.175,-0.396999999999998));
#261=POINT_STYLE(' ',#390,POSITIVE_LENGTH_MEASURE(1.0E-006),#391);
#262=CARTESIAN_POINT('',(3.0156998829774E-016,-2.46258716,-76.2));
#263=POINT_STYLE(' ',#392,POSITIVE_LENGTH_MEASURE(1.0E-006),#393);
#264=CARTESIAN_POINT('',(-3.88812517338605E-016,3.175,-63.5));
#265=CURVE_STYLE('',#394,POSITIVE_LENGTH_MEASURE(1.0E-006),#395);
#266=LINE('',#396,#397);
#267=POINT_STYLE(' ',#398,POSITIVE_LENGTH_MEASURE(1.0E-006),#399);
#268=CARTESIAN_POINT('',(0.0,3.1115,-75.8253499971454));
#269=CURVE_STYLE('',#400,POSITIVE_LENGTH_MEASURE(1.0E-006),#401);
#270=LINE('',#402,#403);
#271=PRODUCT_CONTEXT('',#54,'mechanical');
#272=PRODUCT_DEFINITION_FORMATION_WITH_SPECIFIED_SOURCE(' ','NONE',#155,.NOT_KNOWN.);
#273=CARTESIAN_POINT('',(0.0,0.0,0.0));
#274=DIRECTION('',(0.0,0.0,1.0));
#275=DIRECTION('',(1.0,0.0,0.0));
#276= (NAMED_UNIT(#163)LENGTH_UNIT()SI_UNIT(.MILLI.,.METRE.));
#277=DRAUGHTING_PRE_DEFINED_CURVE_FONT('continuous');
#278=COLOUR_RGB('',0.498039215803146,0.498039215803146,0.498039215803146);
#279=CARTESIAN_POINT('',(-3.88812517338605E-016,3.175,-27.2985));
#280=VECTOR('',#405,1.0);
#281=SURFACE_SIDE_STYLE('',(#406));
#282=EDGE_LOOP('',(#407,#408,#409,#410));
#283=AXIS2_PLACEMENT_3D('',#411,#412,#413);
#284=SURFACE_SIDE_STYLE('',(#414));
#285=EDGE_LOOP('',(#415,#416,#417,#418));
#286=AXIS2_PLACEMENT_3D('',#419,#420,#421);
#287=SURFACE_SIDE_STYLE('',(#422));
#288=EDGE_LOOP('',(#423,#424));
#289=AXIS2_PLACEMENT_3D('',#425,#426,#427);
#290=SURFACE_SIDE_STYLE('',(#428));
#291=EDGE_LOOP('',(#429,#430));
#292=AXIS2_PLACEMENT_3D('',#431,#432,#433);
#293=PRE_DEFINED_MARKER('');
#294=COLOUR_RGB('',0.498039215803146,0.498039215803146,0.498039215803146);
#295=DRAUGHTING_PRE_DEFINED_CURVE_FONT('continuous');
#296=COLOUR_RGB('',0.498039215803146,0.498039215803146,0.498039215803146);
#297=AXIS2_PLACEMENT_3D('',#434,#435,#436);
#298=DRAUGHTING_PRE_DEFINED_CURVE_FONT('continuous');
#299=COLOUR_RGB('',0.498039215803146,0.498039215803146,0.498039215803146);
#300=AXIS2_PLACEMENT_3D('',#437,#438,#439);
#301=DRAUGHTING_PRE_DEFINED_CURVE_FONT('continuous');
#302=COLOUR_RGB('',0.800000011920929,0.800000011920929,0.800000011920929);
#303=CARTESIAN_POINT('',(-3.81036266991833E-016,3.1115,-69.6626749985727));
#304=VECTOR('',#440,1.0);
#305=DRAUGHTING_PRE_DEFINED_CURVE_FONT('continuous');
#306=COLOUR_RGB('',0.498039215803146,0.498039215803146,0.498039215803146);
#307=AXIS2_PLACEMENT_3D('',#441,#442,#443);
#308=DRAUGHTING_PRE_DEFINED_CURVE_FONT('continuous');
#309=COLOUR_RGB('',0.498039215803146,0.498039215803146,0.498039215803146);
#310=CARTESIAN_POINT('',(-3.74778035199196E-016,3.06039597156586,-0.198499999999996));
#311=VECTOR('',#444,1.0);
#312=DRAUGHTING_PRE_DEFINED_CURVE_FONT('continuous');
#313=COLOUR_RGB('',0.498039215803146,0.498039215803146,0.498039215803146);
#314=AXIS2_PLACEMENT_3D('',#445,#446,#447);
#315=DRAUGHTING_PRE_DEFINED_CURVE_FONT('continuous');
#316=COLOUR_RGB('',0.498039215803146,0.498039215803146,0.498039215803146);
#317=AXIS2_PLACEMENT_3D('',#448,#449,#450);
#318=DRAUGHTING_PRE_DEFINED_CURVE_FONT('continuous');
#319=COLOUR_RGB('',0.800000011920929,0.800000011920929,0.800000011920929);
#320=AXIS2_PLACEMENT_3D('',#451,#452,#453);
#321=PRE_DEFINED_MARKER('');
#322=COLOUR_RGB('',0.498039215803146,0.498039215803146,0.498039215803146);
#323=DRAUGHTING_PRE_DEFINED_CURVE_FONT('continuous');
#324=COLOUR_RGB('',0.498039215803146,0.498039215803146,0.498039215803146);
#325=AXIS2_PLACEMENT_3D('',#454,#455,#456);
#326=SURFACE_SIDE_STYLE('',(#457));
#327=EDGE_LOOP('',(#458,#459,#460,#461));
#328=AXIS2_PLACEMENT_3D('',#462,#463,#464);
#329=PRE_DEFINED_MARKER('');
#330=COLOUR_RGB('',0.498039215803146,0.498039215803146,0.498039215803146);
#331=DRAUGHTING_PRE_DEFINED_CURVE_FONT('continuous');
#332=COLOUR_RGB('',0.800000011920929,0.800000011920929,0.800000011920929);
#333=CARTESIAN_POINT('',(3.81036266991833E-016,-3.1115,-69.6626749985727));
#334=VECTOR('',#465,1.0);
#335=PRE_DEFINED_MARKER('');
#336=COLOUR_RGB('',0.800000011920929,0.800000011920929,0.800000011920929);
#337=DRAUGHTING_PRE_DEFINED_CURVE_FONT('continuous');
#338=COLOUR_RGB('',0.498039215803146,0.498039215803146,0.498039215803146);
#339=AXIS2_PLACEMENT_3D('',#466,#467,#468);
#340=SURFACE_SIDE_STYLE('',(#469));
#341=EDGE_LOOP('',(#470,#471,#472,#473));
#342=AXIS2_PLACEMENT_3D('',#474,#475,#476);
#343=DRAUGHTING_PRE_DEFINED_CURVE_FONT('continuous');
#344=COLOUR_RGB('',0.498039215803146,0.498039215803146,0.498039215803146);
#345=AXIS2_PLACEMENT_3D('',#477,#478,#479);
#346=PRE_DEFINED_MARKER('');
#347=COLOUR_RGB('',0.498039215803146,0.498039215803146,0.498039215803146);
#348=PRE_DEFINED_MARKER('');
#349=COLOUR_RGB('',0.498039215803146,0.498039215803146,0.498039215803146);
#350=DRAUGHTING_PRE_DEFINED_CURVE_FONT('continuous');
#351=COLOUR_RGB('',0.800000011920929,0.800000011920929,0.800000011920929);
#352=CARTESIAN_POINT('',(-3.41303127644786E-016,2.78704358,-76.0126749985727));
#353=VECTOR('',#480,1.0);
#354=SURFACE_SIDE_STYLE('',(#481));
#355=EDGE_LOOP('',(#482,#483,#484,#485));
#356=AXIS2_PLACEMENT_3D('',#486,#487,#488);
#357=PRE_DEFINED_MARKER('');
#358=COLOUR_RGB('',0.498039215803146,0.498039215803146,0.498039215803146);
#359=SURFACE_SIDE_STYLE('',(#489));
#360=EDGE_LOOP('',(#490,#491,#492,#493));
#361=AXIS2_PLACEMENT_3D('',#494,#495,#496);
#362=DRAUGHTING_PRE_DEFINED_CURVE_FONT('continuous');
#363=COLOUR_RGB('',0.498039215803146,0.498039215803146,0.498039215803146);
#364=AXIS2_PLACEMENT_3D('',#497,#498,#499);
#365=DRAUGHTING_PRE_DEFINED_CURVE_FONT('continuous');
#366=COLOUR_RGB('',0.800000011920929,0.800000011920929,0.800000011920929);
#367=AXIS2_PLACEMENT_3D('',#500,#501,#502);
#368=SURFACE_SIDE_STYLE('',(#503));
#369=EDGE_LOOP('',(#504,#505,#506,#507));
#370=AXIS2_PLACEMENT_3D('',#508,#509,#510);
#371=DRAUGHTING_PRE_DEFINED_CURVE_FONT('continuous');
#372=COLOUR_RGB('',0.498039215803146,0.498039215803146,0.498039215803146);
#373=CARTESIAN_POINT('',(3.88812517338605E-016,-3.175,-27.2985));
#374=VECTOR('',#511,1.0);
#375=SURFACE_SIDE_STYLE('',(#512));
#376=DRAUGHTING_PRE_DEFINED_CURVE_FONT('continuous');
#377=COLOUR_RGB('',0.498039215803146,0.498039215803146,0.498039215803146);
#378=AXIS2_PLACEMENT_3D('',#513,#514,#515);
#379=SURFACE_SIDE_STYLE('',(#516));
#380=EDGE_LOOP('',(#517,#518));
#381=EDGE_LOOP('',(#519,#520));
#382=AXIS2_PLACEMENT_3D('',#521,#522,#523);
#383=SURFACE_SIDE_STYLE('',(#524));
#384=EDGE_LOOP('',(#525,#526,#527,#528));
#385=AXIS2_PLACEMENT_3D('',#529,#530,#531);
#386=PRE_DEFINED_MARKER('');
#387=COLOUR_RGB('',0.498039215803146,0.498039215803146,0.498039215803146);
#388=PRE_DEFINED_MARKER('');
#389=COLOUR_RGB('',0.498039215803146,0.498039215803146,0.498039215803146);
#390=PRE_DEFINED_MARKER('');
#391=COLOUR_RGB('',0.498039215803146,0.498039215803146,0.498039215803146);
#392=PRE_DEFINED_MARKER('');
#393=COLOUR_RGB('',0.498039215803146,0.498039215803146,0.498039215803146);
#394=DRAUGHTING_PRE_DEFINED_CURVE_FONT('continuous');
#395=COLOUR_RGB('',0.800000011920929,0.800000011920929,0.800000011920929);
#396=CARTESIAN_POINT('',(3.41303127644786E-016,-2.78704358,-76.0126749985727));
#397=VECTOR('',#532,1.0);
#398=PRE_DEFINED_MARKER('');
#399=COLOUR_RGB('',0.800000011920929,0.800000011920929,0.800000011920929);
#400=DRAUGHTING_PRE_DEFINED_CURVE_FONT('continuous');
#401=COLOUR_RGB('',0.498039215803146,0.498039215803146,0.498039215803146);
#402=CARTESIAN_POINT('',(3.74778035199196E-016,-3.06039597156586,-0.198499999999996));
#403=VECTOR('',#533,1.0);
#405=DIRECTION('',(0.0,0.0,-1.0));
#406=SURFACE_STYLE_FILL_AREA(#534);
#407=ORIENTED_EDGE('',*,*,#68,.T.);
#408=ORIENTED_EDGE('',*,*,#98,.F.);
#409=ORIENTED_EDGE('',*,*,#132,.T.);
#410=ORIENTED_EDGE('',*,*,#136,.T.);
#411=CARTESIAN_POINT('',(0.0,0.0,-27.2985));
#412=DIRECTION('',(-0.0,-0.0,1.0));
#413=DIRECTION('',(0.0,1.0,0.0));
#414=SURFACE_STYLE_FILL_AREA(#535);
#415=ORIENTED_EDGE('',*,*,#88,.T.);
#416=ORIENTED_EDGE('',*,*,#136,.F.);
#417=ORIENTED_EDGE('',*,*,#154,.T.);
#418=ORIENTED_EDGE('',*,*,#82,.T.);
#419=CARTESIAN_POINT('',(0.0,0.0,-0.198499999999996));
#420=DIRECTION('',(0.0,-0.0,-1.0));
#421=DIRECTION('',(0.0,1.0,0.0));
#422=SURFACE_STYLE_FILL_AREA(#536);
#423=ORIENTED_EDGE('',*,*,#108,.F.);
#424=ORIENTED_EDGE('',*,*,#82,.F.);
#425=CARTESIAN_POINT('',(0.0,1.47289597156586,0.0));
#426=DIRECTION('',(-0.0,0.0,1.0));
#427=DIRECTION('',(0.0,-1.0,0.0));
#428=SURFACE_STYLE_FILL_AREA(#537);
#429=ORIENTED_EDGE('',*,*,#90,.T.);
#430=ORIENTED_EDGE('',*,*,#92,.T.);
#431=CARTESIAN_POINT('',(0.0,1.23129358,-76.2));
#432=DIRECTION('',(0.0,0.0,-1.0));
#433=DIRECTION('',(0.0,1.0,0.0));
#434=CARTESIAN_POINT('',(0.0,0.0,-63.5));
#435=DIRECTION('',(0.0,-0.0,1.0));
#436=DIRECTION('',(0.0,1.0,0.0));
#437=CARTESIAN_POINT('',(0.0,0.0,0.0));
#438=DIRECTION('',(0.0,0.0,-1.0));
#439=DIRECTION('',(0.0,1.0,0.0));
#440=DIRECTION('',(0.0,0.0,-1.0));
#441=CARTESIAN_POINT('',(0.0,0.0,-63.5));
#442=DIRECTION('',(0.0,-0.0,1.0));
#443=DIRECTION('',(0.0,1.0,0.0));
#444=DIRECTION('',(-6.12303176911191E-017,0.500000000000002,-0.866025403784438));
#445=CARTESIAN_POINT('',(0.0,0.0,-76.2));
#446=DIRECTION('',(0.0,0.0,-1.0));
#447=DIRECTION('',(0.0,1.0,0.0));
#448=CARTESIAN_POINT('',(0.0,0.0,-76.2));
#449=DIRECTION('',(0.0,0.0,-1.0));
#450=DIRECTION('',(0.0,1.0,0.0));
#451=CARTESIAN_POINT('',(0.0,0.0,-75.8253499971454));
#452=DIRECTION('',(0.0,0.0,-1.0));
#453=DIRECTION('',(0.0,1.0,0.0));
#454=CARTESIAN_POINT('',(0.0,0.0,-63.5));
#455=DIRECTION('',(0.0,0.0,-1.0));
#456=DIRECTION('',(0.0,-1.0,0.0));
#457=SURFACE_STYLE_FILL_AREA(#538);
#458=ORIENTED_EDGE('',*,*,#88,.F.);
#459=ORIENTED_EDGE('',*,*,#108,.T.);
#460=ORIENTED_EDGE('',*,*,#154,.F.);
#461=ORIENTED_EDGE('',*,*,#112,.F.);
#462=CARTESIAN_POINT('',(0.0,0.0,-0.198499999999996));
#463=DIRECTION('',(0.0,-0.0,-1.0));
#464=DIRECTION('',(0.0,1.0,0.0));
#465=DIRECTION('',(-0.0,-0.0,1.0));
#466=CARTESIAN_POINT('',(0.0,0.0,0.0));
#467=DIRECTION('',(0.0,0.0,-1.0));
#468=DIRECTION('',(0.0,1.0,0.0));
#469=SURFACE_STYLE_FILL_AREA(#539);
#470=ORIENTED_EDGE('',*,*,#118,.T.);
#471=ORIENTED_EDGE('',*,*,#92,.F.);
#472=ORIENTED_EDGE('',*,*,#150,.T.);
#473=ORIENTED_EDGE('',*,*,#128,.T.);
#474=CARTESIAN_POINT('',(0.0,0.0,-76.0126749985727));
#475=DIRECTION('',(-0.0,-0.0,1.0));
#476=DIRECTION('',(0.0,1.0,0.0));
#477=CARTESIAN_POINT('',(0.0,0.0,-0.396999999999998));
#478=DIRECTION('',(0.0,0.0,-1.0));
#479=DIRECTION('',(0.0,1.0,0.0));
#480=DIRECTION('',(1.06054021204601E-016,-0.866025403784439,-0.5));
#481=SURFACE_STYLE_FILL_AREA(#540);
#482=ORIENTED_EDGE('',*,*,#68,.F.);
#483=ORIENTED_EDGE('',*,*,#112,.T.);
#484=ORIENTED_EDGE('',*,*,#132,.F.);
#485=ORIENTED_EDGE('',*,*,#126,.F.);
#486=CARTESIAN_POINT('',(0.0,0.0,-27.2985));
#487=DIRECTION('',(-0.0,-0.0,1.0));
#488=DIRECTION('',(0.0,1.0,0.0));
#489=SURFACE_STYLE_FILL_AREA(#541);
#490=ORIENTED_EDGE('',*,*,#84,.T.);
#491=ORIENTED_EDGE('',*,*,#128,.F.);
#492=ORIENTED_EDGE('',*,*,#104,.T.);
#493=ORIENTED_EDGE('',*,*,#80,.F.);
#494=CARTESIAN_POINT('',(0.0,0.0,-69.6626749985727));
#495=DIRECTION('',(-0.0,-0.0,1.0));
#496=DIRECTION('',(0.0,1.0,0.0));
#497=CARTESIAN_POINT('',(0.0,0.0,-63.5));
#498=DIRECTION('',(0.0,0.0,-1.0));
#499=DIRECTION('',(0.0,-1.0,0.0));
#500=CARTESIAN_POINT('',(0.0,0.0,-75.8253499971454));
#501=DIRECTION('',(0.0,0.0,-1.0));
#502=DIRECTION('',(0.0,1.0,0.0));
#503=SURFACE_STYLE_FILL_AREA(#542);
#504=ORIENTED_EDGE('',*,*,#84,.F.);
#505=ORIENTED_EDGE('',*,*,#86,.F.);
#506=ORIENTED_EDGE('',*,*,#104,.F.);
#507=ORIENTED_EDGE('',*,*,#94,.F.);
#508=CARTESIAN_POINT('',(0.0,0.0,-69.6626749985727));
#509=DIRECTION('',(-0.0,-0.0,1.0));
#510=DIRECTION('',(0.0,1.0,0.0));
#511=DIRECTION('',(-0.0,-0.0,1.0));
#512=SURFACE_STYLE_FILL_AREA(#543);
#513=CARTESIAN_POINT('',(0.0,0.0,-0.396999999999998));
#514=DIRECTION('',(0.0,0.0,-1.0));
#515=DIRECTION('',(0.0,1.0,0.0));
#516=SURFACE_STYLE_FILL_AREA(#544);
#517=ORIENTED_EDGE('',*,*,#80,.T.);
#518=ORIENTED_EDGE('',*,*,#86,.T.);
#519=ORIENTED_EDGE('',*,*,#98,.T.);
#520=ORIENTED_EDGE('',*,*,#126,.T.);
#521=CARTESIAN_POINT('',(0.0,0.0,-63.5));
#522=DIRECTION('',(0.0,0.0,-1.0));
#523=DIRECTION('',(0.0,-1.0,0.0));
#524=SURFACE_STYLE_FILL_AREA(#545);
#525=ORIENTED_EDGE('',*,*,#118,.F.);
#526=ORIENTED_EDGE('',*,*,#94,.T.);
#527=ORIENTED_EDGE('',*,*,#150,.F.);
#528=ORIENTED_EDGE('',*,*,#90,.F.);
#529=CARTESIAN_POINT('',(0.0,0.0,-76.0126749985727));
#530=DIRECTION('',(-0.0,-0.0,1.0));
#531=DIRECTION('',(0.0,1.0,0.0));
#532=DIRECTION('',(1.06054021204601E-016,-0.866025403784439,0.5));
#533=DIRECTION('',(-6.12303176911191E-017,0.500000000000002,0.866025403784438));
#534=FILL_AREA_STYLE('',(#546));
#535=FILL_AREA_STYLE('',(#547));
#536=FILL_AREA_STYLE('',(#548));
#537=FILL_AREA_STYLE('',(#549));
#538=FILL_AREA_STYLE('',(#550));
#539=FILL_AREA_STYLE('',(#551));
#540=FILL_AREA_STYLE('',(#552));
#541=FILL_AREA_STYLE('',(#553));
#542=FILL_AREA_STYLE('',(#554));
#543=FILL_AREA_STYLE('',(#555));
#544=FILL_AREA_STYLE('',(#556));
#545=FILL_AREA_STYLE('',(#557));
#546=FILL_AREA_STYLE_COLOUR('',#558);
#547=FILL_AREA_STYLE_COLOUR('',#559);
#548=FILL_AREA_STYLE_COLOUR('',#560);
#549=FILL_AREA_STYLE_COLOUR('',#561);
#550=FILL_AREA_STYLE_COLOUR('',#562);
#551=FILL_AREA_STYLE_COLOUR('',#563);
#552=FILL_AREA_STYLE_COLOUR('',#564);
#553=FILL_AREA_STYLE_COLOUR('',#565);
#554=FILL_AREA_STYLE_COLOUR('',#566);
#555=FILL_AREA_STYLE_COLOUR('',#567);
#556=FILL_AREA_STYLE_COLOUR('',#568);
#557=FILL_AREA_STYLE_COLOUR('',#569);
#558=COLOUR_RGB('',0.498039215803146,0.498039215803146,0.498039215803146);
#559=COLOUR_RGB('',0.498039215803146,0.498039215803146,0.498039215803146);
#560=COLOUR_RGB('',0.498039215803146,0.498039215803146,0.498039215803146);
#561=COLOUR_RGB('',0.498039215803146,0.498039215803146,0.498039215803146);
#562=COLOUR_RGB('',0.498039215803146,0.498039215803146,0.498039215803146);
#563=COLOUR_RGB('',0.800000011920929,0.800000011920929,0.800000011920929);
#564=COLOUR_RGB('',0.498039215803146,0.498039215803146,0.498039215803146);
#565=COLOUR_RGB('',0.800000011920929,0.800000011920929,0.800000011920929);
#566=COLOUR_RGB('',0.800000011920929,0.800000011920929,0.800000011920929);
#567=COLOUR_RGB('',0.498039215803146,0.498039215803146,0.498039215803146);
#568=COLOUR_RGB('',0.498039215803146,0.498039215803146,0.498039215803146);
#569=COLOUR_RGB('',0.800000011920929,0.800000011920929,0.800000011920929);
#570=AXIS2_PLACEMENT_3D('PCS',#571,#572,#573);
#571=CARTESIAN_POINT('',(0.0,0.0,0.0));
#572=DIRECTION('',(0.0,0.0,1.0));
#573=DIRECTION('',(1.0,0.0,0.0));
#574=AXIS2_PLACEMENT_3D('CIP',#575,#576,#577);
#575=CARTESIAN_POINT('',(0.0,0.0,-76.2));
#576=DIRECTION('',(0.0,0.0,1.0));
#577=DIRECTION('',(1.0,0.0,0.0));
#578=AXIS2_PLACEMENT_3D('CRP',#579,#580,#581);
#579=CARTESIAN_POINT('',(-3.1115,0.0,-76.2));
#580=DIRECTION('',(0.0,0.0,1.0));
#581=DIRECTION('',(1.0,0.0,0.0));
#582=AXIS2_PLACEMENT_3D('MCS',#583,#584,#585);
#583=CARTESIAN_POINT('',(0.0,0.0,-54.2));
#584=DIRECTION('',(0.0,0.0,1.0));
#585=DIRECTION('',(1.0,0.0,0.0));
#586=CONSTRUCTIVE_GEOMETRY_REPRESENTATION_RELATIONSHIP('coordinate systems',$,#58,#587);
#587=CONSTRUCTIVE_GEOMETRY_REPRESENTATION('coordinate systems',(#570,#574,#578,#582),#6);
ENDSEC;
END-ISO-10303-21;
