ISO-10303-21;
HEADER;
FILE_DESCRIPTION(('no description'),'unknown implementation level');
FILE_NAME('soliduum5zeEqCmuy4MdiRtcpG_LjHCQ_1.STP','  ',('CIMSOURCE GmbH'),('CADClick - KiM GmbH - www.kimweb.de'),'unknown preprocess','ACIS','unknown authorization');
FILE_SCHEMA(('automotive_design'));
ENDSEC;
DATA;
#1=MECHANICAL_DESIGN_GEOMETRIC_PRESENTATION_REPRESENTATION(' ',(#10,#11,#12,#13,#14,#15,#16,#17,#18,#19,#20,#21,#22,#23,#24,#25,#26,#27,#28,#29,#30,#31,#32,#33,#34,#35,#36,#37,#38,#39,#40,#41,#42,#43,#44,#45,#46,#47,#48,#49,#50,#51,#52,#53),#6);
#2=PRODUCT_DEFINITION_CONTEXT('',#54,'design');
#3=APPLICATION_PROTOCOL_DEFINITION('INTERNATIONAL STANDARD','automotive_design',1994,#54);
#4=PRODUCT_CATEGORY_RELATIONSHIP('NONE','NONE',#55,#56);
#5=SHAPE_DEFINITION_REPRESENTATION(#57,#58);
#6= (GEOMETRIC_REPRESENTATION_CONTEXT(3)GLOBAL_UNCERTAINTY_ASSIGNED_CONTEXT((#61))GLOBAL_UNIT_ASSIGNED_CONTEXT((#63,#64,#65))REPRESENTATION_CONTEXT('NONE','WORKSPACE'));
#10=STYLED_ITEM('',(#67),#68);
#11=STYLED_ITEM('',(#69),#70);
#12=STYLED_ITEM('',(#71),#72);
#13=STYLED_ITEM('',(#73),#74);
#14=STYLED_ITEM('',(#75),#76);
#15=STYLED_ITEM('',(#77),#78);
#16=STYLED_ITEM('',(#79),#80);
#17=STYLED_ITEM('',(#81),#82);
#18=STYLED_ITEM('',(#83),#84);
#19=STYLED_ITEM('',(#85),#86);
#20=STYLED_ITEM('',(#87),#88);
#21=STYLED_ITEM('',(#89),#90);
#22=STYLED_ITEM('',(#91),#92);
#23=STYLED_ITEM('',(#93),#94);
#24=STYLED_ITEM('',(#95),#96);
#25=STYLED_ITEM('',(#97),#98);
#26=STYLED_ITEM('',(#99),#100);
#27=STYLED_ITEM('',(#101),#102);
#28=STYLED_ITEM('',(#103),#104);
#29=STYLED_ITEM('',(#105),#106);
#30=STYLED_ITEM('',(#107),#108);
#31=STYLED_ITEM('',(#109),#110);
#32=STYLED_ITEM('',(#111),#112);
#33=STYLED_ITEM('',(#113),#114);
#34=STYLED_ITEM('',(#115),#116);
#35=STYLED_ITEM('',(#117),#118);
#36=STYLED_ITEM('',(#119),#120);
#37=STYLED_ITEM('',(#121),#122);
#38=STYLED_ITEM('',(#123),#124);
#39=STYLED_ITEM('',(#125),#126);
#40=STYLED_ITEM('',(#127),#128);
#41=STYLED_ITEM('',(#129),#130);
#42=STYLED_ITEM('',(#131),#132);
#43=STYLED_ITEM('',(#133),#134);
#44=STYLED_ITEM('',(#135),#136);
#45=STYLED_ITEM('',(#137),#138);
#46=STYLED_ITEM('',(#139),#140);
#47=STYLED_ITEM('',(#141),#142);
#48=STYLED_ITEM('',(#143),#144);
#49=STYLED_ITEM('',(#145),#146);
#50=STYLED_ITEM('',(#147),#148);
#51=STYLED_ITEM('',(#149),#150);
#52=STYLED_ITEM('',(#151),#152);
#53=STYLED_ITEM('',(#153),#154);
#54=APPLICATION_CONTEXT(' ');
#55=PRODUCT_CATEGORY('part','NONE');
#56=PRODUCT_RELATED_PRODUCT_CATEGORY('detail',' ',(#155));
#57=PRODUCT_DEFINITION_SHAPE('NONE','NONE',#156);
#58=ADVANCED_BREP_SHAPE_REPRESENTATION('1',(#144,#157),#6);
#61=UNCERTAINTY_MEASURE_WITH_UNIT(LENGTH_MEASURE(1.0E-006),#63,'','');
#63= (CONVERSION_BASED_UNIT('MILLIMETRE',#160)LENGTH_UNIT()NAMED_UNIT(#163));
#64= (NAMED_UNIT(#165)PLANE_ANGLE_UNIT()SI_UNIT($,.RADIAN.));
#65= (NAMED_UNIT(#165)SOLID_ANGLE_UNIT()SI_UNIT($,.STERADIAN.));
#67=PRESENTATION_STYLE_ASSIGNMENT((#171));
#68=EDGE_CURVE('',#118,#138,#172,.T.);
#69=PRESENTATION_STYLE_ASSIGNMENT((#173));
#70=EDGE_CURVE('',#86,#142,#174,.T.);
#71=PRESENTATION_STYLE_ASSIGNMENT((#175));
#72=EDGE_CURVE('',#78,#84,#176,.T.);
#73=PRESENTATION_STYLE_ASSIGNMENT((#177));
#74=EDGE_CURVE('',#104,#118,#178,.T.);
#75=PRESENTATION_STYLE_ASSIGNMENT((#179));
#76=EDGE_CURVE('',#84,#78,#180,.T.);
#77=PRESENTATION_STYLE_ASSIGNMENT((#181));
#78=VERTEX_POINT('',#182);
#79=PRESENTATION_STYLE_ASSIGNMENT((#183));
#80=EDGE_CURVE('',#138,#78,#184,.T.);
#81=PRESENTATION_STYLE_ASSIGNMENT((#185));
#82=EDGE_CURVE('',#130,#104,#186,.T.);
#83=PRESENTATION_STYLE_ASSIGNMENT((#187));
#84=VERTEX_POINT('',#188);
#85=PRESENTATION_STYLE_ASSIGNMENT((#189));
#86=VERTEX_POINT('',#190);
#87=PRESENTATION_STYLE_ASSIGNMENT((#191));
#88=ADVANCED_FACE('',(#192),#193,.T.);
#89=PRESENTATION_STYLE_ASSIGNMENT((#194));
#90=EDGE_CURVE('',#152,#112,#195,.T.);
#91=PRESENTATION_STYLE_ASSIGNMENT((#196));
#92=EDGE_CURVE('',#122,#152,#197,.T.);
#93=PRESENTATION_STYLE_ASSIGNMENT((#198));
#94=ADVANCED_FACE('',(#199),#200,.T.);
#95=PRESENTATION_STYLE_ASSIGNMENT((#201));
#96=ADVANCED_FACE('',(#202),#203,.T.);
#97=PRESENTATION_STYLE_ASSIGNMENT((#204));
#98=EDGE_CURVE('',#112,#150,#205,.T.);
#99=PRESENTATION_STYLE_ASSIGNMENT((#206));
#100=EDGE_CURVE('',#130,#138,#207,.T.);
#101=PRESENTATION_STYLE_ASSIGNMENT((#208));
#102=ADVANCED_FACE('',(#209),#210,.T.);
#103=PRESENTATION_STYLE_ASSIGNMENT((#211));
#104=VERTEX_POINT('',#212);
#105=PRESENTATION_STYLE_ASSIGNMENT((#213));
#106=EDGE_CURVE('',#150,#86,#214,.T.);
#107=PRESENTATION_STYLE_ASSIGNMENT((#215));
#108=EDGE_CURVE('',#86,#150,#216,.T.);
#109=PRESENTATION_STYLE_ASSIGNMENT((#217));
#110=ADVANCED_FACE('',(#218),#219,.T.);
#111=PRESENTATION_STYLE_ASSIGNMENT((#220));
#112=VERTEX_POINT('',#221);
#113=PRESENTATION_STYLE_ASSIGNMENT((#222));
#114=ADVANCED_FACE('',(#223),#224,.T.);
#115=PRESENTATION_STYLE_ASSIGNMENT((#225));
#116=ADVANCED_FACE('',(#226),#227,.T.);
#117=PRESENTATION_STYLE_ASSIGNMENT((#228));
#118=VERTEX_POINT('',#229);
#119=PRESENTATION_STYLE_ASSIGNMENT((#230));
#120=EDGE_CURVE('',#142,#122,#231,.T.);
#121=PRESENTATION_STYLE_ASSIGNMENT((#232));
#122=VERTEX_POINT('',#233);
#123=PRESENTATION_STYLE_ASSIGNMENT((#234));
#124=EDGE_CURVE('',#142,#112,#235,.T.);
#125=PRESENTATION_STYLE_ASSIGNMENT((#236));
#126=ADVANCED_FACE('',(#237),#238,.T.);
#127=PRESENTATION_STYLE_ASSIGNMENT((#239));
#128=ADVANCED_FACE('',(#240),#241,.T.);
#129=PRESENTATION_STYLE_ASSIGNMENT((#242));
#130=VERTEX_POINT('',#243);
#131=PRESENTATION_STYLE_ASSIGNMENT((#244));
#132=EDGE_CURVE('',#84,#130,#245,.T.);
#133=PRESENTATION_STYLE_ASSIGNMENT((#246));
#134=EDGE_CURVE('',#118,#104,#247,.T.);
#135=PRESENTATION_STYLE_ASSIGNMENT((#248));
#136=EDGE_CURVE('',#138,#130,#249,.T.);
#137=PRESENTATION_STYLE_ASSIGNMENT((#250));
#138=VERTEX_POINT('',#251);
#139=PRESENTATION_STYLE_ASSIGNMENT((#252));
#140=EDGE_CURVE('',#112,#142,#253,.T.);
#141=PRESENTATION_STYLE_ASSIGNMENT((#254));
#142=VERTEX_POINT('',#255);
#143=PRESENTATION_STYLE_ASSIGNMENT((#256));
#144=MANIFOLD_SOLID_BREP('1',#257);
#145=PRESENTATION_STYLE_ASSIGNMENT((#258));
#146=ADVANCED_FACE('',(#259),#260,.T.);
#147=PRESENTATION_STYLE_ASSIGNMENT((#261));
#148=ADVANCED_FACE('',(#262,#263),#264,.T.);
#149=PRESENTATION_STYLE_ASSIGNMENT((#265));
#150=VERTEX_POINT('',#266);
#151=PRESENTATION_STYLE_ASSIGNMENT((#267));
#152=VERTEX_POINT('',#268);
#153=PRESENTATION_STYLE_ASSIGNMENT((#269));
#154=EDGE_CURVE('',#152,#122,#270,.T.);
#155=PRODUCT('1','1','PART-1-DESC',(#271));
#156=PRODUCT_DEFINITION('NONE','NONE',#272,#2);
#157=AXIS2_PLACEMENT_3D('',#273,#274,#275);
#160=LENGTH_MEASURE_WITH_UNIT(LENGTH_MEASURE(1.0),#276);
#163=DIMENSIONAL_EXPONENTS(1.0,0.0,0.0,0.0,0.0,0.0,0.0);
#165=DIMENSIONAL_EXPONENTS(0.0,0.0,0.0,0.0,0.0,0.0,0.0);
#171=CURVE_STYLE('',#277,POSITIVE_LENGTH_MEASURE(1.0E-006),#278);
#172=LINE('',#279,#280);
#173=CURVE_STYLE('',#281,POSITIVE_LENGTH_MEASURE(1.0E-006),#282);
#174=LINE('',#283,#284);
#175=CURVE_STYLE('',#285,POSITIVE_LENGTH_MEASURE(1.0E-006),#286);
#176=CIRCLE('',#287,3.74579194313172);
#177=CURVE_STYLE('',#288,POSITIVE_LENGTH_MEASURE(1.0E-006),#289);
#178=CIRCLE('',#290,3.975);
#179=CURVE_STYLE('',#291,POSITIVE_LENGTH_MEASURE(1.0E-006),#292);
#180=CIRCLE('',#293,3.74579194313172);
#181=POINT_STYLE(' ',#294,POSITIVE_LENGTH_MEASURE(1.0E-006),#295);
#182=CARTESIAN_POINT('',(4.58712061365577E-016,-3.74579194313172,0.0));
#183=CURVE_STYLE('',#296,POSITIVE_LENGTH_MEASURE(1.0E-006),#297);
#184=LINE('',#298,#299);
#185=CURVE_STYLE('',#300,POSITIVE_LENGTH_MEASURE(1.0E-006),#301);
#186=LINE('',#302,#303);
#187=POINT_STYLE(' ',#304,POSITIVE_LENGTH_MEASURE(1.0E-006),#305);
#188=CARTESIAN_POINT('',(0.0,3.74579194313172,0.0));
#189=POINT_STYLE(' ',#306,POSITIVE_LENGTH_MEASURE(1.0E-006),#307);
#190=CARTESIAN_POINT('',(3.47375603989794E-016,-2.83663075,-76.2));
#191=SURFACE_STYLE_USAGE(.BOTH.,#308);
#192=FACE_OUTER_BOUND('',#309,.T.);
#193=CONICAL_SURFACE('',#310,3.323315375,1.0471975511966);
#194=CURVE_STYLE('',#311,POSITIVE_LENGTH_MEASURE(1.0E-006),#312);
#195=LINE('',#313,#314);
#196=CURVE_STYLE('',#315,POSITIVE_LENGTH_MEASURE(1.0E-006),#316);
#197=CIRCLE('',#317,3.81);
#198=SURFACE_STYLE_USAGE(.BOTH.,#318);
#199=FACE_OUTER_BOUND('',#319,.T.);
#200=CYLINDRICAL_SURFACE('',#320,3.975);
#201=SURFACE_STYLE_USAGE(.BOTH.,#321);
#202=FACE_OUTER_BOUND('',#322,.T.);
#203=CONICAL_SURFACE('',#323,3.86039597156586,0.523598775598301);
#204=CURVE_STYLE('',#324,POSITIVE_LENGTH_MEASURE(1.0E-006),#325);
#205=LINE('',#326,#327);
#206=CURVE_STYLE('',#328,POSITIVE_LENGTH_MEASURE(1.0E-006),#329);
#207=CIRCLE('',#330,3.975);
#208=SURFACE_STYLE_USAGE(.BOTH.,#331);
#209=FACE_OUTER_BOUND('',#332,.T.);
#210=CYLINDRICAL_SURFACE('',#333,3.81);
#211=POINT_STYLE(' ',#334,POSITIVE_LENGTH_MEASURE(1.0E-006),#335);
#212=CARTESIAN_POINT('',(-4.86781025644395E-016,3.975,-61.9));
#213=CURVE_STYLE('',#336,POSITIVE_LENGTH_MEASURE(1.0E-006),#337);
#214=CIRCLE('',#338,2.83663075);
#215=CURVE_STYLE('',#339,POSITIVE_LENGTH_MEASURE(1.0E-006),#340);
#216=CIRCLE('',#341,2.83663075);
#217=SURFACE_STYLE_USAGE(.BOTH.,#342);
#218=FACE_OUTER_BOUND('',#343,.T.);
#219=PLANE('',#344);
#220=POINT_STYLE(' ',#345,POSITIVE_LENGTH_MEASURE(1.0E-006),#346);
#221=CARTESIAN_POINT('',(0.0,3.81,-75.6380250014916));
#222=SURFACE_STYLE_USAGE(.BOTH.,#347);
#223=FACE_OUTER_BOUND('',#348,.T.);
#224=CONICAL_SURFACE('',#349,3.323315375,1.0471975511966);
#225=SURFACE_STYLE_USAGE(.BOTH.,#350);
#226=FACE_OUTER_BOUND('',#351,.T.);
#227=PLANE('',#352);
#228=POINT_STYLE(' ',#353,POSITIVE_LENGTH_MEASURE(1.0E-006),#354);
#229=CARTESIAN_POINT('',(0.0,-3.975,-61.9));
#230=CURVE_STYLE('',#355,POSITIVE_LENGTH_MEASURE(1.0E-006),#356);
#231=LINE('',#357,#358);
#232=POINT_STYLE(' ',#359,POSITIVE_LENGTH_MEASURE(1.0E-006),#360);
#233=CARTESIAN_POINT('',(4.66575020806326E-016,-3.81,-61.9));
#234=CURVE_STYLE('',#361,POSITIVE_LENGTH_MEASURE(1.0E-006),#362);
#235=CIRCLE('',#363,3.81);
#236=SURFACE_STYLE_USAGE(.BOTH.,#364);
#237=FACE_OUTER_BOUND('',#365,.T.);
#238=CONICAL_SURFACE('',#366,3.86039597156586,0.523598775598301);
#239=SURFACE_STYLE_USAGE(.BOTH.,#367);
#240=FACE_OUTER_BOUND('',#368,.T.);
#241=CYLINDRICAL_SURFACE('',#369,3.975);
#242=POINT_STYLE(' ',#370,POSITIVE_LENGTH_MEASURE(1.0E-006),#371);
#243=CARTESIAN_POINT('',(0.0,3.975,-0.396999999999998));
#244=CURVE_STYLE('',#372,POSITIVE_LENGTH_MEASURE(1.0E-006),#373);
#245=LINE('',#374,#375);
#246=CURVE_STYLE('',#376,POSITIVE_LENGTH_MEASURE(1.0E-006),#377);
#247=CIRCLE('',#378,3.975);
#248=CURVE_STYLE('',#379,POSITIVE_LENGTH_MEASURE(1.0E-006),#380);
#249=CIRCLE('',#381,3.975);
#250=POINT_STYLE(' ',#382,POSITIVE_LENGTH_MEASURE(1.0E-006),#383);
#251=CARTESIAN_POINT('',(4.86781025644395E-016,-3.975,-0.396999999999998));
#252=CURVE_STYLE('',#384,POSITIVE_LENGTH_MEASURE(1.0E-006),#385);
#253=CIRCLE('',#386,3.81);
#254=POINT_STYLE(' ',#387,POSITIVE_LENGTH_MEASURE(1.0E-006),#388);
#255=CARTESIAN_POINT('',(4.66575020806326E-016,-3.81,-75.6380250014916));
#256=SURFACE_STYLE_USAGE(.BOTH.,#389);
#257=CLOSED_SHELL('',(#94,#126,#114,#146,#102,#88,#148,#110,#96,#128,#116));
#258=SURFACE_STYLE_USAGE(.BOTH.,#390);
#259=FACE_OUTER_BOUND('',#391,.T.);
#260=CYLINDRICAL_SURFACE('',#392,3.81);
#261=SURFACE_STYLE_USAGE(.BOTH.,#393);
#262=FACE_BOUND('',#394,.T.);
#263=FACE_OUTER_BOUND('',#395,.T.);
#264=PLANE('',#396);
#265=POINT_STYLE(' ',#397,POSITIVE_LENGTH_MEASURE(1.0E-006),#398);
#266=CARTESIAN_POINT('',(0.0,2.83663075,-76.2));
#267=POINT_STYLE(' ',#399,POSITIVE_LENGTH_MEASURE(1.0E-006),#400);
#268=CARTESIAN_POINT('',(0.0,3.81,-61.9));
#269=CURVE_STYLE('',#401,POSITIVE_LENGTH_MEASURE(1.0E-006),#402);
#270=CIRCLE('',#403,3.81);
#271=PRODUCT_CONTEXT('',#54,'mechanical');
#272=PRODUCT_DEFINITION_FORMATION_WITH_SPECIFIED_SOURCE(' ','NONE',#155,.NOT_KNOWN.);
#273=CARTESIAN_POINT('',(0.0,0.0,0.0));
#274=DIRECTION('',(0.0,0.0,1.0));
#275=DIRECTION('',(1.0,0.0,0.0));
#276= (NAMED_UNIT(#163)LENGTH_UNIT()SI_UNIT(.MILLI.,.METRE.));
#277=DRAUGHTING_PRE_DEFINED_CURVE_FONT('continuous');
#278=COLOUR_RGB('',0.498039215803146,0.498039215803146,0.498039215803146);
#279=CARTESIAN_POINT('',(4.86781025644395E-016,-3.975,-25.7985));
#280=VECTOR('',#405,1.0);
#281=DRAUGHTING_PRE_DEFINED_CURVE_FONT('continuous');
#282=COLOUR_RGB('',0.800000011920929,0.800000011920929,0.800000011920929);
#283=CARTESIAN_POINT('',(4.0697531239806E-016,-3.323315375,-75.9190125007458));
#284=VECTOR('',#406,1.0);
#285=DRAUGHTING_PRE_DEFINED_CURVE_FONT('continuous');
#286=COLOUR_RGB('',0.498039215803146,0.498039215803146,0.498039215803146);
#287=AXIS2_PLACEMENT_3D('',#407,#408,#409);
#288=DRAUGHTING_PRE_DEFINED_CURVE_FONT('continuous');
#289=COLOUR_RGB('',0.498039215803146,0.498039215803146,0.498039215803146);
#290=AXIS2_PLACEMENT_3D('',#410,#411,#412);
#291=DRAUGHTING_PRE_DEFINED_CURVE_FONT('continuous');
#292=COLOUR_RGB('',0.498039215803146,0.498039215803146,0.498039215803146);
#293=AXIS2_PLACEMENT_3D('',#413,#414,#415);
#294=PRE_DEFINED_MARKER('');
#295=COLOUR_RGB('',0.498039215803146,0.498039215803146,0.498039215803146);
#296=DRAUGHTING_PRE_DEFINED_CURVE_FONT('continuous');
#297=COLOUR_RGB('',0.498039215803146,0.498039215803146,0.498039215803146);
#298=CARTESIAN_POINT('',(4.72746543504986E-016,-3.86039597156586,-0.198499999999996));
#299=VECTOR('',#416,1.0);
#300=DRAUGHTING_PRE_DEFINED_CURVE_FONT('continuous');
#301=COLOUR_RGB('',0.498039215803146,0.498039215803146,0.498039215803146);
#302=CARTESIAN_POINT('',(-4.86781025644395E-016,3.975,-25.7985));
#303=VECTOR('',#417,1.0);
#304=PRE_DEFINED_MARKER('');
#305=COLOUR_RGB('',0.498039215803146,0.498039215803146,0.498039215803146);
#306=PRE_DEFINED_MARKER('');
#307=COLOUR_RGB('',0.498039215803146,0.498039215803146,0.498039215803146);
#308=SURFACE_SIDE_STYLE('',(#418));
#309=EDGE_LOOP('',(#419,#420,#421,#422));
#310=AXIS2_PLACEMENT_3D('',#423,#424,#425);
#311=DRAUGHTING_PRE_DEFINED_CURVE_FONT('continuous');
#312=COLOUR_RGB('',0.800000011920929,0.800000011920929,0.800000011920929);
#313=CARTESIAN_POINT('',(-4.66575020806326E-016,3.81,-68.7690125007458));
#314=VECTOR('',#426,1.0);
#315=DRAUGHTING_PRE_DEFINED_CURVE_FONT('continuous');
#316=COLOUR_RGB('',0.498039215803146,0.498039215803146,0.498039215803146);
#317=AXIS2_PLACEMENT_3D('',#427,#428,#429);
#318=SURFACE_SIDE_STYLE('',(#430));
#319=EDGE_LOOP('',(#431,#432,#433,#434));
#320=AXIS2_PLACEMENT_3D('',#435,#436,#437);
#321=SURFACE_SIDE_STYLE('',(#438));
#322=EDGE_LOOP('',(#439,#440,#441,#442));
#323=AXIS2_PLACEMENT_3D('',#443,#444,#445);
#324=DRAUGHTING_PRE_DEFINED_CURVE_FONT('continuous');
#325=COLOUR_RGB('',0.800000011920929,0.800000011920929,0.800000011920929);
#326=CARTESIAN_POINT('',(-4.0697531239806E-016,3.323315375,-75.9190125007458));
#327=VECTOR('',#446,1.0);
#328=DRAUGHTING_PRE_DEFINED_CURVE_FONT('continuous');
#329=COLOUR_RGB('',0.498039215803146,0.498039215803146,0.498039215803146);
#330=AXIS2_PLACEMENT_3D('',#447,#448,#449);
#331=SURFACE_SIDE_STYLE('',(#450));
#332=EDGE_LOOP('',(#451,#452,#453,#454));
#333=AXIS2_PLACEMENT_3D('',#455,#456,#457);
#334=PRE_DEFINED_MARKER('');
#335=COLOUR_RGB('',0.498039215803146,0.498039215803146,0.498039215803146);
#336=DRAUGHTING_PRE_DEFINED_CURVE_FONT('continuous');
#337=COLOUR_RGB('',0.498039215803146,0.498039215803146,0.498039215803146);
#338=AXIS2_PLACEMENT_3D('',#458,#459,#460);
#339=DRAUGHTING_PRE_DEFINED_CURVE_FONT('continuous');
#340=COLOUR_RGB('',0.498039215803146,0.498039215803146,0.498039215803146);
#341=AXIS2_PLACEMENT_3D('',#461,#462,#463);
#342=SURFACE_SIDE_STYLE('',(#464));
#343=EDGE_LOOP('',(#465,#466));
#344=AXIS2_PLACEMENT_3D('',#467,#468,#469);
#345=PRE_DEFINED_MARKER('');
#346=COLOUR_RGB('',0.800000011920929,0.800000011920929,0.800000011920929);
#347=SURFACE_SIDE_STYLE('',(#470));
#348=EDGE_LOOP('',(#471,#472,#473,#474));
#349=AXIS2_PLACEMENT_3D('',#475,#476,#477);
#350=SURFACE_SIDE_STYLE('',(#478));
#351=EDGE_LOOP('',(#479,#480));
#352=AXIS2_PLACEMENT_3D('',#481,#482,#483);
#353=PRE_DEFINED_MARKER('');
#354=COLOUR_RGB('',0.498039215803146,0.498039215803146,0.498039215803146);
#355=DRAUGHTING_PRE_DEFINED_CURVE_FONT('continuous');
#356=COLOUR_RGB('',0.800000011920929,0.800000011920929,0.800000011920929);
#357=CARTESIAN_POINT('',(4.66575020806326E-016,-3.81,-68.7690125007458));
#358=VECTOR('',#484,1.0);
#359=PRE_DEFINED_MARKER('');
#360=COLOUR_RGB('',0.498039215803146,0.498039215803146,0.498039215803146);
#361=DRAUGHTING_PRE_DEFINED_CURVE_FONT('continuous');
#362=COLOUR_RGB('',0.800000011920929,0.800000011920929,0.800000011920929);
#363=AXIS2_PLACEMENT_3D('',#485,#486,#487);
#364=SURFACE_SIDE_STYLE('',(#488));
#365=EDGE_LOOP('',(#489,#490,#491,#492));
#366=AXIS2_PLACEMENT_3D('',#493,#494,#495);
#367=SURFACE_SIDE_STYLE('',(#496));
#368=EDGE_LOOP('',(#497,#498,#499,#500));
#369=AXIS2_PLACEMENT_3D('',#501,#502,#503);
#370=PRE_DEFINED_MARKER('');
#371=COLOUR_RGB('',0.498039215803146,0.498039215803146,0.498039215803146);
#372=DRAUGHTING_PRE_DEFINED_CURVE_FONT('continuous');
#373=COLOUR_RGB('',0.498039215803146,0.498039215803146,0.498039215803146);
#374=CARTESIAN_POINT('',(-4.72746543504986E-016,3.86039597156586,-0.198499999999996));
#375=VECTOR('',#504,1.0);
#376=DRAUGHTING_PRE_DEFINED_CURVE_FONT('continuous');
#377=COLOUR_RGB('',0.498039215803146,0.498039215803146,0.498039215803146);
#378=AXIS2_PLACEMENT_3D('',#505,#506,#507);
#379=DRAUGHTING_PRE_DEFINED_CURVE_FONT('continuous');
#380=COLOUR_RGB('',0.498039215803146,0.498039215803146,0.498039215803146);
#381=AXIS2_PLACEMENT_3D('',#508,#509,#510);
#382=PRE_DEFINED_MARKER('');
#383=COLOUR_RGB('',0.498039215803146,0.498039215803146,0.498039215803146);
#384=DRAUGHTING_PRE_DEFINED_CURVE_FONT('continuous');
#385=COLOUR_RGB('',0.800000011920929,0.800000011920929,0.800000011920929);
#386=AXIS2_PLACEMENT_3D('',#511,#512,#513);
#387=PRE_DEFINED_MARKER('');
#388=COLOUR_RGB('',0.800000011920929,0.800000011920929,0.800000011920929);
#389=SURFACE_SIDE_STYLE('',(#514));
#390=SURFACE_SIDE_STYLE('',(#515));
#391=EDGE_LOOP('',(#516,#517,#518,#519));
#392=AXIS2_PLACEMENT_3D('',#520,#521,#522);
#393=SURFACE_SIDE_STYLE('',(#523));
#394=EDGE_LOOP('',(#524,#525));
#395=EDGE_LOOP('',(#526,#527));
#396=AXIS2_PLACEMENT_3D('',#528,#529,#530);
#397=PRE_DEFINED_MARKER('');
#398=COLOUR_RGB('',0.498039215803146,0.498039215803146,0.498039215803146);
#399=PRE_DEFINED_MARKER('');
#400=COLOUR_RGB('',0.498039215803146,0.498039215803146,0.498039215803146);
#401=DRAUGHTING_PRE_DEFINED_CURVE_FONT('continuous');
#402=COLOUR_RGB('',0.498039215803146,0.498039215803146,0.498039215803146);
#403=AXIS2_PLACEMENT_3D('',#531,#532,#533);
#405=DIRECTION('',(-0.0,-0.0,1.0));
#406=DIRECTION('',(1.06054021204601E-016,-0.866025403784437,0.500000000000003));
#407=CARTESIAN_POINT('',(0.0,0.0,0.0));
#408=DIRECTION('',(0.0,0.0,-1.0));
#409=DIRECTION('',(0.0,1.0,0.0));
#410=CARTESIAN_POINT('',(0.0,0.0,-61.9));
#411=DIRECTION('',(0.0,0.0,-1.0));
#412=DIRECTION('',(0.0,-1.0,0.0));
#413=CARTESIAN_POINT('',(0.0,0.0,0.0));
#414=DIRECTION('',(0.0,0.0,-1.0));
#415=DIRECTION('',(0.0,1.0,0.0));
#416=DIRECTION('',(-6.12303176911191E-017,0.500000000000002,0.866025403784438));
#417=DIRECTION('',(0.0,0.0,-1.0));
#418=SURFACE_STYLE_FILL_AREA(#534);
#419=ORIENTED_EDGE('',*,*,#98,.T.);
#420=ORIENTED_EDGE('',*,*,#108,.F.);
#421=ORIENTED_EDGE('',*,*,#70,.T.);
#422=ORIENTED_EDGE('',*,*,#124,.T.);
#423=CARTESIAN_POINT('',(0.0,0.0,-75.9190125007458));
#424=DIRECTION('',(-0.0,-0.0,1.0));
#425=DIRECTION('',(0.0,1.0,0.0));
#426=DIRECTION('',(0.0,0.0,-1.0));
#427=CARTESIAN_POINT('',(0.0,0.0,-61.9));
#428=DIRECTION('',(0.0,-0.0,1.0));
#429=DIRECTION('',(0.0,1.0,0.0));
#430=SURFACE_STYLE_FILL_AREA(#535);
#431=ORIENTED_EDGE('',*,*,#82,.F.);
#432=ORIENTED_EDGE('',*,*,#100,.T.);
#433=ORIENTED_EDGE('',*,*,#68,.F.);
#434=ORIENTED_EDGE('',*,*,#74,.F.);
#435=CARTESIAN_POINT('',(0.0,0.0,-25.7985));
#436=DIRECTION('',(-0.0,-0.0,1.0));
#437=DIRECTION('',(0.0,1.0,0.0));
#438=SURFACE_STYLE_FILL_AREA(#536);
#439=ORIENTED_EDGE('',*,*,#132,.T.);
#440=ORIENTED_EDGE('',*,*,#136,.F.);
#441=ORIENTED_EDGE('',*,*,#80,.T.);
#442=ORIENTED_EDGE('',*,*,#72,.T.);
#443=CARTESIAN_POINT('',(0.0,0.0,-0.198499999999996));
#444=DIRECTION('',(0.0,-0.0,-1.0));
#445=DIRECTION('',(0.0,1.0,0.0));
#446=DIRECTION('',(1.06054021204601E-016,-0.866025403784437,-0.500000000000003));
#447=CARTESIAN_POINT('',(0.0,0.0,-0.396999999999998));
#448=DIRECTION('',(0.0,0.0,-1.0));
#449=DIRECTION('',(0.0,1.0,0.0));
#450=SURFACE_STYLE_FILL_AREA(#537);
#451=ORIENTED_EDGE('',*,*,#90,.T.);
#452=ORIENTED_EDGE('',*,*,#124,.F.);
#453=ORIENTED_EDGE('',*,*,#120,.T.);
#454=ORIENTED_EDGE('',*,*,#154,.F.);
#455=CARTESIAN_POINT('',(0.0,0.0,-68.7690125007458));
#456=DIRECTION('',(-0.0,-0.0,1.0));
#457=DIRECTION('',(0.0,1.0,0.0));
#458=CARTESIAN_POINT('',(0.0,0.0,-76.2));
#459=DIRECTION('',(0.0,0.0,-1.0));
#460=DIRECTION('',(0.0,1.0,0.0));
#461=CARTESIAN_POINT('',(0.0,0.0,-76.2));
#462=DIRECTION('',(0.0,0.0,-1.0));
#463=DIRECTION('',(0.0,1.0,0.0));
#464=SURFACE_STYLE_FILL_AREA(#538);
#465=ORIENTED_EDGE('',*,*,#76,.F.);
#466=ORIENTED_EDGE('',*,*,#72,.F.);
#467=CARTESIAN_POINT('',(0.0,1.87289597156586,0.0));
#468=DIRECTION('',(-0.0,0.0,1.0));
#469=DIRECTION('',(0.0,-1.0,0.0));
#470=SURFACE_STYLE_FILL_AREA(#539);
#471=ORIENTED_EDGE('',*,*,#98,.F.);
#472=ORIENTED_EDGE('',*,*,#140,.T.);
#473=ORIENTED_EDGE('',*,*,#70,.F.);
#474=ORIENTED_EDGE('',*,*,#106,.F.);
#475=CARTESIAN_POINT('',(0.0,0.0,-75.9190125007458));
#476=DIRECTION('',(-0.0,-0.0,1.0));
#477=DIRECTION('',(0.0,1.0,0.0));
#478=SURFACE_STYLE_FILL_AREA(#540);
#479=ORIENTED_EDGE('',*,*,#106,.T.);
#480=ORIENTED_EDGE('',*,*,#108,.T.);
#481=CARTESIAN_POINT('',(0.0,1.418315375,-76.2));
#482=DIRECTION('',(0.0,0.0,-1.0));
#483=DIRECTION('',(0.0,1.0,0.0));
#484=DIRECTION('',(-0.0,-0.0,1.0));
#485=CARTESIAN_POINT('',(0.0,0.0,-75.6380250014916));
#486=DIRECTION('',(0.0,0.0,-1.0));
#487=DIRECTION('',(0.0,1.0,0.0));
#488=SURFACE_STYLE_FILL_AREA(#541);
#489=ORIENTED_EDGE('',*,*,#132,.F.);
#490=ORIENTED_EDGE('',*,*,#76,.T.);
#491=ORIENTED_EDGE('',*,*,#80,.F.);
#492=ORIENTED_EDGE('',*,*,#100,.F.);
#493=CARTESIAN_POINT('',(0.0,0.0,-0.198499999999996));
#494=DIRECTION('',(0.0,-0.0,-1.0));
#495=DIRECTION('',(0.0,1.0,0.0));
#496=SURFACE_STYLE_FILL_AREA(#542);
#497=ORIENTED_EDGE('',*,*,#82,.T.);
#498=ORIENTED_EDGE('',*,*,#134,.F.);
#499=ORIENTED_EDGE('',*,*,#68,.T.);
#500=ORIENTED_EDGE('',*,*,#136,.T.);
#501=CARTESIAN_POINT('',(0.0,0.0,-25.7985));
#502=DIRECTION('',(-0.0,-0.0,1.0));
#503=DIRECTION('',(0.0,1.0,0.0));
#504=DIRECTION('',(-6.12303176911191E-017,0.500000000000002,-0.866025403784438));
#505=CARTESIAN_POINT('',(0.0,0.0,-61.9));
#506=DIRECTION('',(0.0,0.0,-1.0));
#507=DIRECTION('',(0.0,-1.0,0.0));
#508=CARTESIAN_POINT('',(0.0,0.0,-0.396999999999998));
#509=DIRECTION('',(0.0,0.0,-1.0));
#510=DIRECTION('',(0.0,1.0,0.0));
#511=CARTESIAN_POINT('',(0.0,0.0,-75.6380250014916));
#512=DIRECTION('',(0.0,0.0,-1.0));
#513=DIRECTION('',(0.0,1.0,0.0));
#514=SURFACE_STYLE_FILL_AREA(#543);
#515=SURFACE_STYLE_FILL_AREA(#544);
#516=ORIENTED_EDGE('',*,*,#90,.F.);
#517=ORIENTED_EDGE('',*,*,#92,.F.);
#518=ORIENTED_EDGE('',*,*,#120,.F.);
#519=ORIENTED_EDGE('',*,*,#140,.F.);
#520=CARTESIAN_POINT('',(0.0,0.0,-68.7690125007458));
#521=DIRECTION('',(-0.0,-0.0,1.0));
#522=DIRECTION('',(0.0,1.0,0.0));
#523=SURFACE_STYLE_FILL_AREA(#545);
#524=ORIENTED_EDGE('',*,*,#154,.T.);
#525=ORIENTED_EDGE('',*,*,#92,.T.);
#526=ORIENTED_EDGE('',*,*,#134,.T.);
#527=ORIENTED_EDGE('',*,*,#74,.T.);
#528=CARTESIAN_POINT('',(0.0,0.0,-61.9));
#529=DIRECTION('',(0.0,0.0,-1.0));
#530=DIRECTION('',(0.0,-1.0,0.0));
#531=CARTESIAN_POINT('',(0.0,0.0,-61.9));
#532=DIRECTION('',(0.0,-0.0,1.0));
#533=DIRECTION('',(0.0,1.0,0.0));
#534=FILL_AREA_STYLE('',(#546));
#535=FILL_AREA_STYLE('',(#547));
#536=FILL_AREA_STYLE('',(#548));
#537=FILL_AREA_STYLE('',(#549));
#538=FILL_AREA_STYLE('',(#550));
#539=FILL_AREA_STYLE('',(#551));
#540=FILL_AREA_STYLE('',(#552));
#541=FILL_AREA_STYLE('',(#553));
#542=FILL_AREA_STYLE('',(#554));
#543=FILL_AREA_STYLE('',(#555));
#544=FILL_AREA_STYLE('',(#556));
#545=FILL_AREA_STYLE('',(#557));
#546=FILL_AREA_STYLE_COLOUR('',#558);
#547=FILL_AREA_STYLE_COLOUR('',#559);
#548=FILL_AREA_STYLE_COLOUR('',#560);
#549=FILL_AREA_STYLE_COLOUR('',#561);
#550=FILL_AREA_STYLE_COLOUR('',#562);
#551=FILL_AREA_STYLE_COLOUR('',#563);
#552=FILL_AREA_STYLE_COLOUR('',#564);
#553=FILL_AREA_STYLE_COLOUR('',#565);
#554=FILL_AREA_STYLE_COLOUR('',#566);
#555=FILL_AREA_STYLE_COLOUR('',#567);
#556=FILL_AREA_STYLE_COLOUR('',#568);
#557=FILL_AREA_STYLE_COLOUR('',#569);
#558=COLOUR_RGB('',0.800000011920929,0.800000011920929,0.800000011920929);
#559=COLOUR_RGB('',0.498039215803146,0.498039215803146,0.498039215803146);
#560=COLOUR_RGB('',0.498039215803146,0.498039215803146,0.498039215803146);
#561=COLOUR_RGB('',0.800000011920929,0.800000011920929,0.800000011920929);
#562=COLOUR_RGB('',0.498039215803146,0.498039215803146,0.498039215803146);
#563=COLOUR_RGB('',0.800000011920929,0.800000011920929,0.800000011920929);
#564=COLOUR_RGB('',0.498039215803146,0.498039215803146,0.498039215803146);
#565=COLOUR_RGB('',0.498039215803146,0.498039215803146,0.498039215803146);
#566=COLOUR_RGB('',0.498039215803146,0.498039215803146,0.498039215803146);
#567=COLOUR_RGB('',0.498039215803146,0.498039215803146,0.498039215803146);
#568=COLOUR_RGB('',0.800000011920929,0.800000011920929,0.800000011920929);
#569=COLOUR_RGB('',0.498039215803146,0.498039215803146,0.498039215803146);
#570=AXIS2_PLACEMENT_3D('PCS',#571,#572,#573);
#571=CARTESIAN_POINT('',(0.0,0.0,0.0));
#572=DIRECTION('',(0.0,0.0,1.0));
#573=DIRECTION('',(1.0,0.0,0.0));
#574=AXIS2_PLACEMENT_3D('CIP',#575,#576,#577);
#575=CARTESIAN_POINT('',(0.0,0.0,-76.2));
#576=DIRECTION('',(0.0,0.0,1.0));
#577=DIRECTION('',(1.0,0.0,0.0));
#578=AXIS2_PLACEMENT_3D('CRP',#579,#580,#581);
#579=CARTESIAN_POINT('',(-3.81,0.0,-76.2));
#580=DIRECTION('',(0.0,0.0,1.0));
#581=DIRECTION('',(1.0,0.0,0.0));
#582=AXIS2_PLACEMENT_3D('MCS',#583,#584,#585);
#583=CARTESIAN_POINT('',(0.0,0.0,-51.2));
#584=DIRECTION('',(0.0,0.0,1.0));
#585=DIRECTION('',(1.0,0.0,0.0));
#586=CONSTRUCTIVE_GEOMETRY_REPRESENTATION_RELATIONSHIP('coordinate systems',$,#58,#587);
#587=CONSTRUCTIVE_GEOMETRY_REPRESENTATION('coordinate systems',(#570,#574,#578,#582),#6);
ENDSEC;
END-ISO-10303-21;
