ISO-10303-21;
HEADER;
FILE_DESCRIPTION(('no description'),'unknown implementation level');
FILE_NAME('solid6uRXOX9PWGch1blMdSyu6SSrlps_1.STP','  ',('CIMSOURCE GmbH'),('CADClick - KiM GmbH - www.kimweb.de'),'unknown preprocess','ACIS','unknown authorization');
FILE_SCHEMA(('automotive_design'));
ENDSEC;
DATA;
#1=MECHANICAL_DESIGN_GEOMETRIC_PRESENTATION_REPRESENTATION(' ',(#10,#11,#12,#13,#14,#15,#16,#17,#18,#19,#20,#21,#22,#23,#24,#25,#26,#27,#28,#29,#30,#31,#32,#33,#34,#35,#36,#37,#38,#39,#40,#41,#42,#43,#44,#45,#46,#47,#48,#49,#50,#51,#52,#53),#6);
#2=PRODUCT_DEFINITION_CONTEXT('',#54,'design');
#3=APPLICATION_PROTOCOL_DEFINITION('INTERNATIONAL STANDARD','automotive_design',1994,#54);
#4=PRODUCT_CATEGORY_RELATIONSHIP('NONE','NONE',#55,#56);
#5=SHAPE_DEFINITION_REPRESENTATION(#57,#58);
#6= (GEOMETRIC_REPRESENTATION_CONTEXT(3)GLOBAL_UNCERTAINTY_ASSIGNED_CONTEXT((#61))GLOBAL_UNIT_ASSIGNED_CONTEXT((#63,#64,#65))REPRESENTATION_CONTEXT('NONE','WORKSPACE'));
#10=STYLED_ITEM('',(#67),#68);
#11=STYLED_ITEM('',(#69),#70);
#12=STYLED_ITEM('',(#71),#72);
#13=STYLED_ITEM('',(#73),#74);
#14=STYLED_ITEM('',(#75),#76);
#15=STYLED_ITEM('',(#77),#78);
#16=STYLED_ITEM('',(#79),#80);
#17=STYLED_ITEM('',(#81),#82);
#18=STYLED_ITEM('',(#83),#84);
#19=STYLED_ITEM('',(#85),#86);
#20=STYLED_ITEM('',(#87),#88);
#21=STYLED_ITEM('',(#89),#90);
#22=STYLED_ITEM('',(#91),#92);
#23=STYLED_ITEM('',(#93),#94);
#24=STYLED_ITEM('',(#95),#96);
#25=STYLED_ITEM('',(#97),#98);
#26=STYLED_ITEM('',(#99),#100);
#27=STYLED_ITEM('',(#101),#102);
#28=STYLED_ITEM('',(#103),#104);
#29=STYLED_ITEM('',(#105),#106);
#30=STYLED_ITEM('',(#107),#108);
#31=STYLED_ITEM('',(#109),#110);
#32=STYLED_ITEM('',(#111),#112);
#33=STYLED_ITEM('',(#113),#114);
#34=STYLED_ITEM('',(#115),#116);
#35=STYLED_ITEM('',(#117),#118);
#36=STYLED_ITEM('',(#119),#120);
#37=STYLED_ITEM('',(#121),#122);
#38=STYLED_ITEM('',(#123),#124);
#39=STYLED_ITEM('',(#125),#126);
#40=STYLED_ITEM('',(#127),#128);
#41=STYLED_ITEM('',(#129),#130);
#42=STYLED_ITEM('',(#131),#132);
#43=STYLED_ITEM('',(#133),#134);
#44=STYLED_ITEM('',(#135),#136);
#45=STYLED_ITEM('',(#137),#138);
#46=STYLED_ITEM('',(#139),#140);
#47=STYLED_ITEM('',(#141),#142);
#48=STYLED_ITEM('',(#143),#144);
#49=STYLED_ITEM('',(#145),#146);
#50=STYLED_ITEM('',(#147),#148);
#51=STYLED_ITEM('',(#149),#150);
#52=STYLED_ITEM('',(#151),#152);
#53=STYLED_ITEM('',(#153),#154);
#54=APPLICATION_CONTEXT(' ');
#55=PRODUCT_CATEGORY('part','NONE');
#56=PRODUCT_RELATED_PRODUCT_CATEGORY('detail',' ',(#155));
#57=PRODUCT_DEFINITION_SHAPE('NONE','NONE',#156);
#58=ADVANCED_BREP_SHAPE_REPRESENTATION('1',(#152,#157),#6);
#61=UNCERTAINTY_MEASURE_WITH_UNIT(LENGTH_MEASURE(1.0E-006),#63,'','');
#63= (CONVERSION_BASED_UNIT('MILLIMETRE',#160)LENGTH_UNIT()NAMED_UNIT(#163));
#64= (NAMED_UNIT(#165)PLANE_ANGLE_UNIT()SI_UNIT($,.RADIAN.));
#65= (NAMED_UNIT(#165)SOLID_ANGLE_UNIT()SI_UNIT($,.STERADIAN.));
#67=PRESENTATION_STYLE_ASSIGNMENT((#171));
#68=VERTEX_POINT('',#172);
#69=PRESENTATION_STYLE_ASSIGNMENT((#173));
#70=ADVANCED_FACE('',(#174),#175,.T.);
#71=PRESENTATION_STYLE_ASSIGNMENT((#176));
#72=VERTEX_POINT('',#177);
#73=PRESENTATION_STYLE_ASSIGNMENT((#178));
#74=EDGE_CURVE('',#72,#68,#179,.T.);
#75=PRESENTATION_STYLE_ASSIGNMENT((#180));
#76=EDGE_CURVE('',#128,#150,#181,.T.);
#77=PRESENTATION_STYLE_ASSIGNMENT((#182));
#78=VERTEX_POINT('',#183);
#79=PRESENTATION_STYLE_ASSIGNMENT((#184));
#80=ADVANCED_FACE('',(#185),#186,.T.);
#81=PRESENTATION_STYLE_ASSIGNMENT((#187));
#82=EDGE_CURVE('',#104,#126,#188,.T.);
#83=PRESENTATION_STYLE_ASSIGNMENT((#189));
#84=ADVANCED_FACE('',(#190),#191,.T.);
#85=PRESENTATION_STYLE_ASSIGNMENT((#192));
#86=EDGE_CURVE('',#126,#94,#193,.T.);
#87=PRESENTATION_STYLE_ASSIGNMENT((#194));
#88=EDGE_CURVE('',#98,#104,#195,.T.);
#89=PRESENTATION_STYLE_ASSIGNMENT((#196));
#90=EDGE_CURVE('',#78,#150,#197,.T.);
#91=PRESENTATION_STYLE_ASSIGNMENT((#198));
#92=ADVANCED_FACE('',(#199),#200,.T.);
#93=PRESENTATION_STYLE_ASSIGNMENT((#201));
#94=VERTEX_POINT('',#202);
#95=PRESENTATION_STYLE_ASSIGNMENT((#203));
#96=EDGE_CURVE('',#150,#128,#204,.T.);
#97=PRESENTATION_STYLE_ASSIGNMENT((#205));
#98=VERTEX_POINT('',#206);
#99=PRESENTATION_STYLE_ASSIGNMENT((#207));
#100=EDGE_CURVE('',#150,#138,#208,.T.);
#101=PRESENTATION_STYLE_ASSIGNMENT((#209));
#102=ADVANCED_FACE('',(#210,#211),#212,.T.);
#103=PRESENTATION_STYLE_ASSIGNMENT((#213));
#104=VERTEX_POINT('',#214);
#105=PRESENTATION_STYLE_ASSIGNMENT((#215));
#106=EDGE_CURVE('',#78,#122,#216,.T.);
#107=PRESENTATION_STYLE_ASSIGNMENT((#217));
#108=ADVANCED_FACE('',(#218),#219,.T.);
#109=PRESENTATION_STYLE_ASSIGNMENT((#220));
#110=EDGE_CURVE('',#132,#138,#221,.T.);
#111=PRESENTATION_STYLE_ASSIGNMENT((#222));
#112=EDGE_CURVE('',#72,#94,#223,.T.);
#113=PRESENTATION_STYLE_ASSIGNMENT((#224));
#114=EDGE_CURVE('',#104,#98,#225,.T.);
#115=PRESENTATION_STYLE_ASSIGNMENT((#226));
#116=EDGE_CURVE('',#68,#126,#227,.T.);
#117=PRESENTATION_STYLE_ASSIGNMENT((#228));
#118=EDGE_CURVE('',#94,#72,#229,.T.);
#119=PRESENTATION_STYLE_ASSIGNMENT((#230));
#120=EDGE_CURVE('',#122,#78,#231,.T.);
#121=PRESENTATION_STYLE_ASSIGNMENT((#232));
#122=VERTEX_POINT('',#233);
#123=PRESENTATION_STYLE_ASSIGNMENT((#234));
#124=ADVANCED_FACE('',(#235),#236,.T.);
#125=PRESENTATION_STYLE_ASSIGNMENT((#237));
#126=VERTEX_POINT('',#238);
#127=PRESENTATION_STYLE_ASSIGNMENT((#239));
#128=VERTEX_POINT('',#240);
#129=PRESENTATION_STYLE_ASSIGNMENT((#241));
#130=EDGE_CURVE('',#138,#132,#242,.T.);
#131=PRESENTATION_STYLE_ASSIGNMENT((#243));
#132=VERTEX_POINT('',#244);
#133=PRESENTATION_STYLE_ASSIGNMENT((#245));
#134=EDGE_CURVE('',#68,#98,#246,.T.);
#135=PRESENTATION_STYLE_ASSIGNMENT((#247));
#136=ADVANCED_FACE('',(#248),#249,.T.);
#137=PRESENTATION_STYLE_ASSIGNMENT((#250));
#138=VERTEX_POINT('',#251);
#139=PRESENTATION_STYLE_ASSIGNMENT((#252));
#140=EDGE_CURVE('',#126,#68,#253,.T.);
#141=PRESENTATION_STYLE_ASSIGNMENT((#254));
#142=EDGE_CURVE('',#132,#128,#255,.T.);
#143=PRESENTATION_STYLE_ASSIGNMENT((#256));
#144=ADVANCED_FACE('',(#257),#258,.T.);
#145=PRESENTATION_STYLE_ASSIGNMENT((#259));
#146=ADVANCED_FACE('',(#260),#261,.T.);
#147=PRESENTATION_STYLE_ASSIGNMENT((#262));
#148=ADVANCED_FACE('',(#263),#264,.T.);
#149=PRESENTATION_STYLE_ASSIGNMENT((#265));
#150=VERTEX_POINT('',#266);
#151=PRESENTATION_STYLE_ASSIGNMENT((#267));
#152=MANIFOLD_SOLID_BREP('1',#268);
#153=PRESENTATION_STYLE_ASSIGNMENT((#269));
#154=EDGE_CURVE('',#128,#122,#270,.T.);
#155=PRODUCT('1','1','PART-1-DESC',(#271));
#156=PRODUCT_DEFINITION('NONE','NONE',#272,#2);
#157=AXIS2_PLACEMENT_3D('',#273,#274,#275);
#160=LENGTH_MEASURE_WITH_UNIT(LENGTH_MEASURE(1.0),#276);
#163=DIMENSIONAL_EXPONENTS(1.0,0.0,0.0,0.0,0.0,0.0,0.0);
#165=DIMENSIONAL_EXPONENTS(0.0,0.0,0.0,0.0,0.0,0.0,0.0);
#171=POINT_STYLE(' ',#277,POSITIVE_LENGTH_MEASURE(1.0E-006),#278);
#172=CARTESIAN_POINT('',(0.0,4.699,-75.5083384593772));
#173=SURFACE_STYLE_USAGE(.BOTH.,#279);
#174=FACE_OUTER_BOUND('',#280,.T.);
#175=CYLINDRICAL_SURFACE('',#281,4.7625);
#176=POINT_STYLE(' ',#282,POSITIVE_LENGTH_MEASURE(1.0E-006),#283);
#177=CARTESIAN_POINT('',(0.0,4.699,-56.7));
#178=CURVE_STYLE('',#284,POSITIVE_LENGTH_MEASURE(1.0E-006),#285);
#179=LINE('',#286,#287);
#180=CURVE_STYLE('',#288,POSITIVE_LENGTH_MEASURE(1.0E-006),#289);
#181=CIRCLE('',#290,4.7625);
#182=POINT_STYLE(' ',#291,POSITIVE_LENGTH_MEASURE(1.0E-006),#292);
#183=CARTESIAN_POINT('',(0.0,-4.7625,-56.7));
#184=SURFACE_STYLE_USAGE(.BOTH.,#293);
#185=FACE_OUTER_BOUND('',#294,.T.);
#186=CONICAL_SURFACE('',#295,4.53329194313172,0.523598775598301);
#187=CURVE_STYLE('',#296,POSITIVE_LENGTH_MEASURE(1.0E-006),#297);
#188=LINE('',#298,#299);
#189=SURFACE_STYLE_USAGE(.BOTH.,#300);
#190=FACE_OUTER_BOUND('',#301,.T.);
#191=CONICAL_SURFACE('',#302,4.100003535,1.0471975511966);
#192=CURVE_STYLE('',#303,POSITIVE_LENGTH_MEASURE(1.0E-006),#304);
#193=LINE('',#305,#306);
#194=CURVE_STYLE('',#307,POSITIVE_LENGTH_MEASURE(1.0E-006),#308);
#195=CIRCLE('',#309,3.50100707);
#196=CURVE_STYLE('',#310,POSITIVE_LENGTH_MEASURE(1.0E-006),#311);
#197=LINE('',#312,#313);
#198=SURFACE_STYLE_USAGE(.BOTH.,#314);
#199=FACE_OUTER_BOUND('',#315,.T.);
#200=CONICAL_SURFACE('',#316,4.53329194313172,0.523598775598301);
#201=POINT_STYLE(' ',#317,POSITIVE_LENGTH_MEASURE(1.0E-006),#318);
#202=CARTESIAN_POINT('',(5.75442525661135E-016,-4.699,-56.7));
#203=CURVE_STYLE('',#319,POSITIVE_LENGTH_MEASURE(1.0E-006),#320);
#204=CIRCLE('',#321,4.7625);
#205=POINT_STYLE(' ',#322,POSITIVE_LENGTH_MEASURE(1.0E-006),#323);
#206=CARTESIAN_POINT('',(0.0,3.50100707,-76.2));
#207=CURVE_STYLE('',#324,POSITIVE_LENGTH_MEASURE(1.0E-006),#325);
#208=LINE('',#326,#327);
#209=SURFACE_STYLE_USAGE(.BOTH.,#328);
#210=FACE_BOUND('',#329,.T.);
#211=FACE_OUTER_BOUND('',#330,.T.);
#212=PLANE('',#331);
#213=POINT_STYLE(' ',#332,POSITIVE_LENGTH_MEASURE(1.0E-006),#333);
#214=CARTESIAN_POINT('',(4.28735550269906E-016,-3.50100707,-76.2));
#215=CURVE_STYLE('',#334,POSITIVE_LENGTH_MEASURE(1.0E-006),#335);
#216=CIRCLE('',#336,4.7625);
#217=SURFACE_STYLE_USAGE(.BOTH.,#337);
#218=FACE_OUTER_BOUND('',#338,.T.);
#219=CYLINDRICAL_SURFACE('',#339,4.699);
#220=CURVE_STYLE('',#340,POSITIVE_LENGTH_MEASURE(1.0E-006),#341);
#221=CIRCLE('',#342,4.30408388626344);
#222=CURVE_STYLE('',#343,POSITIVE_LENGTH_MEASURE(1.0E-006),#344);
#223=CIRCLE('',#345,4.699);
#224=CURVE_STYLE('',#346,POSITIVE_LENGTH_MEASURE(1.0E-006),#347);
#225=CIRCLE('',#348,3.50100707);
#226=CURVE_STYLE('',#349,POSITIVE_LENGTH_MEASURE(1.0E-006),#350);
#227=CIRCLE('',#351,4.699);
#228=CURVE_STYLE('',#352,POSITIVE_LENGTH_MEASURE(1.0E-006),#353);
#229=CIRCLE('',#354,4.699);
#230=CURVE_STYLE('',#355,POSITIVE_LENGTH_MEASURE(1.0E-006),#356);
#231=CIRCLE('',#357,4.7625);
#232=POINT_STYLE(' ',#358,POSITIVE_LENGTH_MEASURE(1.0E-006),#359);
#233=CARTESIAN_POINT('',(-5.83218776007907E-016,4.7625,-56.7));
#234=SURFACE_STYLE_USAGE(.BOTH.,#360);
#235=FACE_OUTER_BOUND('',#361,.T.);
#236=PLANE('',#362);
#237=POINT_STYLE(' ',#363,POSITIVE_LENGTH_MEASURE(1.0E-006),#364);
#238=CARTESIAN_POINT('',(5.75442525661135E-016,-4.699,-75.5083384593772));
#239=POINT_STYLE(' ',#365,POSITIVE_LENGTH_MEASURE(1.0E-006),#366);
#240=CARTESIAN_POINT('',(0.0,4.7625,-0.793999999999997));
#241=CURVE_STYLE('',#367,POSITIVE_LENGTH_MEASURE(1.0E-006),#368);
#242=CIRCLE('',#369,4.30408388626344);
#243=POINT_STYLE(' ',#370,POSITIVE_LENGTH_MEASURE(1.0E-006),#371);
#244=CARTESIAN_POINT('',(0.0,4.30408388626344,0.0));
#245=CURVE_STYLE('',#372,POSITIVE_LENGTH_MEASURE(1.0E-006),#373);
#246=LINE('',#374,#375);
#247=SURFACE_STYLE_USAGE(.BOTH.,#376);
#248=FACE_OUTER_BOUND('',#377,.T.);
#249=PLANE('',#378);
#250=POINT_STYLE(' ',#379,POSITIVE_LENGTH_MEASURE(1.0E-006),#380);
#251=CARTESIAN_POINT('',(5.27080847450271E-016,-4.30408388626344,0.0));
#252=CURVE_STYLE('',#381,POSITIVE_LENGTH_MEASURE(1.0E-006),#382);
#253=CIRCLE('',#383,4.699);
#254=CURVE_STYLE('',#384,POSITIVE_LENGTH_MEASURE(1.0E-006),#385);
#255=LINE('',#386,#387);
#256=SURFACE_STYLE_USAGE(.BOTH.,#388);
#257=FACE_OUTER_BOUND('',#389,.T.);
#258=CYLINDRICAL_SURFACE('',#390,4.7625);
#259=SURFACE_STYLE_USAGE(.BOTH.,#391);
#260=FACE_OUTER_BOUND('',#392,.T.);
#261=CONICAL_SURFACE('',#393,4.100003535,1.0471975511966);
#262=SURFACE_STYLE_USAGE(.BOTH.,#394);
#263=FACE_OUTER_BOUND('',#395,.T.);
#264=CYLINDRICAL_SURFACE('',#396,4.699);
#265=POINT_STYLE(' ',#397,POSITIVE_LENGTH_MEASURE(1.0E-006),#398);
#266=CARTESIAN_POINT('',(5.83218776007907E-016,-4.7625,-0.793999999999997));
#267=SURFACE_STYLE_USAGE(.BOTH.,#399);
#268=CLOSED_SHELL('',(#144,#92,#146,#108,#148,#84,#102,#136,#80,#70,#124));
#269=CURVE_STYLE('',#400,POSITIVE_LENGTH_MEASURE(1.0E-006),#401);
#270=LINE('',#402,#403);
#271=PRODUCT_CONTEXT('',#54,'mechanical');
#272=PRODUCT_DEFINITION_FORMATION_WITH_SPECIFIED_SOURCE(' ','NONE',#155,.NOT_KNOWN.);
#273=CARTESIAN_POINT('',(0.0,0.0,0.0));
#274=DIRECTION('',(0.0,0.0,1.0));
#275=DIRECTION('',(1.0,0.0,0.0));
#276= (NAMED_UNIT(#163)LENGTH_UNIT()SI_UNIT(.MILLI.,.METRE.));
#277=PRE_DEFINED_MARKER('');
#278=COLOUR_RGB('',0.800000011920929,0.800000011920929,0.800000011920929);
#279=SURFACE_SIDE_STYLE('',(#405));
#280=EDGE_LOOP('',(#406,#407,#408,#409));
#281=AXIS2_PLACEMENT_3D('',#410,#411,#412);
#282=PRE_DEFINED_MARKER('');
#283=COLOUR_RGB('',0.498039215803146,0.498039215803146,0.498039215803146);
#284=DRAUGHTING_PRE_DEFINED_CURVE_FONT('continuous');
#285=COLOUR_RGB('',0.800000011920929,0.800000011920929,0.800000011920929);
#286=CARTESIAN_POINT('',(-5.75442525661135E-016,4.699,-66.1041692296886));
#287=VECTOR('',#413,1.0);
#288=DRAUGHTING_PRE_DEFINED_CURVE_FONT('continuous');
#289=COLOUR_RGB('',0.498039215803146,0.498039215803146,0.498039215803146);
#290=AXIS2_PLACEMENT_3D('',#414,#415,#416);
#291=PRE_DEFINED_MARKER('');
#292=COLOUR_RGB('',0.498039215803146,0.498039215803146,0.498039215803146);
#293=SURFACE_SIDE_STYLE('',(#417));
#294=EDGE_LOOP('',(#418,#419,#420,#421));
#295=AXIS2_PLACEMENT_3D('',#422,#423,#424);
#296=DRAUGHTING_PRE_DEFINED_CURVE_FONT('continuous');
#297=COLOUR_RGB('',0.800000011920929,0.800000011920929,0.800000011920929);
#298=CARTESIAN_POINT('',(5.02089037965521E-016,-4.100003535,-75.8541692296886));
#299=VECTOR('',#425,1.0);
#300=SURFACE_SIDE_STYLE('',(#426));
#301=EDGE_LOOP('',(#427,#428,#429,#430));
#302=AXIS2_PLACEMENT_3D('',#431,#432,#433);
#303=DRAUGHTING_PRE_DEFINED_CURVE_FONT('continuous');
#304=COLOUR_RGB('',0.800000011920929,0.800000011920929,0.800000011920929);
#305=CARTESIAN_POINT('',(5.75442525661135E-016,-4.699,-66.1041692296886));
#306=VECTOR('',#434,1.0);
#307=DRAUGHTING_PRE_DEFINED_CURVE_FONT('continuous');
#308=COLOUR_RGB('',0.498039215803146,0.498039215803146,0.498039215803146);
#309=AXIS2_PLACEMENT_3D('',#435,#436,#437);
#310=DRAUGHTING_PRE_DEFINED_CURVE_FONT('continuous');
#311=COLOUR_RGB('',0.498039215803146,0.498039215803146,0.498039215803146);
#312=CARTESIAN_POINT('',(5.83218776007907E-016,-4.7625,-23.997));
#313=VECTOR('',#438,1.0);
#314=SURFACE_SIDE_STYLE('',(#439));
#315=EDGE_LOOP('',(#440,#441,#442,#443));
#316=AXIS2_PLACEMENT_3D('',#444,#445,#446);
#317=PRE_DEFINED_MARKER('');
#318=COLOUR_RGB('',0.498039215803146,0.498039215803146,0.498039215803146);
#319=DRAUGHTING_PRE_DEFINED_CURVE_FONT('continuous');
#320=COLOUR_RGB('',0.498039215803146,0.498039215803146,0.498039215803146);
#321=AXIS2_PLACEMENT_3D('',#447,#448,#449);
#322=PRE_DEFINED_MARKER('');
#323=COLOUR_RGB('',0.498039215803146,0.498039215803146,0.498039215803146);
#324=DRAUGHTING_PRE_DEFINED_CURVE_FONT('continuous');
#325=COLOUR_RGB('',0.498039215803146,0.498039215803146,0.498039215803146);
#326=CARTESIAN_POINT('',(5.55149811729089E-016,-4.53329194313172,-0.396999999999998));
#327=VECTOR('',#450,1.0);
#328=SURFACE_SIDE_STYLE('',(#451));
#329=EDGE_LOOP('',(#452,#453));
#330=EDGE_LOOP('',(#454,#455));
#331=AXIS2_PLACEMENT_3D('',#456,#457,#458);
#332=PRE_DEFINED_MARKER('');
#333=COLOUR_RGB('',0.498039215803146,0.498039215803146,0.498039215803146);
#334=DRAUGHTING_PRE_DEFINED_CURVE_FONT('continuous');
#335=COLOUR_RGB('',0.498039215803146,0.498039215803146,0.498039215803146);
#336=AXIS2_PLACEMENT_3D('',#459,#460,#461);
#337=SURFACE_SIDE_STYLE('',(#462));
#338=EDGE_LOOP('',(#463,#464,#465,#466));
#339=AXIS2_PLACEMENT_3D('',#467,#468,#469);
#340=DRAUGHTING_PRE_DEFINED_CURVE_FONT('continuous');
#341=COLOUR_RGB('',0.498039215803146,0.498039215803146,0.498039215803146);
#342=AXIS2_PLACEMENT_3D('',#470,#471,#472);
#343=DRAUGHTING_PRE_DEFINED_CURVE_FONT('continuous');
#344=COLOUR_RGB('',0.498039215803146,0.498039215803146,0.498039215803146);
#345=AXIS2_PLACEMENT_3D('',#473,#474,#475);
#346=DRAUGHTING_PRE_DEFINED_CURVE_FONT('continuous');
#347=COLOUR_RGB('',0.498039215803146,0.498039215803146,0.498039215803146);
#348=AXIS2_PLACEMENT_3D('',#476,#477,#478);
#349=DRAUGHTING_PRE_DEFINED_CURVE_FONT('continuous');
#350=COLOUR_RGB('',0.800000011920929,0.800000011920929,0.800000011920929);
#351=AXIS2_PLACEMENT_3D('',#479,#480,#481);
#352=DRAUGHTING_PRE_DEFINED_CURVE_FONT('continuous');
#353=COLOUR_RGB('',0.498039215803146,0.498039215803146,0.498039215803146);
#354=AXIS2_PLACEMENT_3D('',#482,#483,#484);
#355=DRAUGHTING_PRE_DEFINED_CURVE_FONT('continuous');
#356=COLOUR_RGB('',0.498039215803146,0.498039215803146,0.498039215803146);
#357=AXIS2_PLACEMENT_3D('',#485,#486,#487);
#358=PRE_DEFINED_MARKER('');
#359=COLOUR_RGB('',0.498039215803146,0.498039215803146,0.498039215803146);
#360=SURFACE_SIDE_STYLE('',(#488));
#361=EDGE_LOOP('',(#489,#490));
#362=AXIS2_PLACEMENT_3D('',#491,#492,#493);
#363=PRE_DEFINED_MARKER('');
#364=COLOUR_RGB('',0.800000011920929,0.800000011920929,0.800000011920929);
#365=PRE_DEFINED_MARKER('');
#366=COLOUR_RGB('',0.498039215803146,0.498039215803146,0.498039215803146);
#367=DRAUGHTING_PRE_DEFINED_CURVE_FONT('continuous');
#368=COLOUR_RGB('',0.498039215803146,0.498039215803146,0.498039215803146);
#369=AXIS2_PLACEMENT_3D('',#494,#495,#496);
#370=PRE_DEFINED_MARKER('');
#371=COLOUR_RGB('',0.498039215803146,0.498039215803146,0.498039215803146);
#372=DRAUGHTING_PRE_DEFINED_CURVE_FONT('continuous');
#373=COLOUR_RGB('',0.800000011920929,0.800000011920929,0.800000011920929);
#374=CARTESIAN_POINT('',(-5.02089037965521E-016,4.100003535,-75.8541692296886));
#375=VECTOR('',#497,1.0);
#376=SURFACE_SIDE_STYLE('',(#498));
#377=EDGE_LOOP('',(#499,#500));
#378=AXIS2_PLACEMENT_3D('',#501,#502,#503);
#379=PRE_DEFINED_MARKER('');
#380=COLOUR_RGB('',0.498039215803146,0.498039215803146,0.498039215803146);
#381=DRAUGHTING_PRE_DEFINED_CURVE_FONT('continuous');
#382=COLOUR_RGB('',0.800000011920929,0.800000011920929,0.800000011920929);
#383=AXIS2_PLACEMENT_3D('',#504,#505,#506);
#384=DRAUGHTING_PRE_DEFINED_CURVE_FONT('continuous');
#385=COLOUR_RGB('',0.498039215803146,0.498039215803146,0.498039215803146);
#386=CARTESIAN_POINT('',(-5.5514981172909E-016,4.53329194313172,-0.396999999999998));
#387=VECTOR('',#507,1.0);
#388=SURFACE_SIDE_STYLE('',(#508));
#389=EDGE_LOOP('',(#509,#510,#511,#512));
#390=AXIS2_PLACEMENT_3D('',#513,#514,#515);
#391=SURFACE_SIDE_STYLE('',(#516));
#392=EDGE_LOOP('',(#517,#518,#519,#520));
#393=AXIS2_PLACEMENT_3D('',#521,#522,#523);
#394=SURFACE_SIDE_STYLE('',(#524));
#395=EDGE_LOOP('',(#525,#526,#527,#528));
#396=AXIS2_PLACEMENT_3D('',#529,#530,#531);
#397=PRE_DEFINED_MARKER('');
#398=COLOUR_RGB('',0.498039215803146,0.498039215803146,0.498039215803146);
#399=SURFACE_SIDE_STYLE('',(#532));
#400=DRAUGHTING_PRE_DEFINED_CURVE_FONT('continuous');
#401=COLOUR_RGB('',0.498039215803146,0.498039215803146,0.498039215803146);
#402=CARTESIAN_POINT('',(-5.83218776007907E-016,4.7625,-23.997));
#403=VECTOR('',#533,1.0);
#405=SURFACE_STYLE_FILL_AREA(#534);
#406=ORIENTED_EDGE('',*,*,#154,.T.);
#407=ORIENTED_EDGE('',*,*,#106,.F.);
#408=ORIENTED_EDGE('',*,*,#90,.T.);
#409=ORIENTED_EDGE('',*,*,#96,.T.);
#410=CARTESIAN_POINT('',(0.0,0.0,-23.997));
#411=DIRECTION('',(-0.0,-0.0,1.0));
#412=DIRECTION('',(0.0,1.0,0.0));
#413=DIRECTION('',(0.0,0.0,-1.0));
#414=CARTESIAN_POINT('',(0.0,0.0,-0.793999999999997));
#415=DIRECTION('',(0.0,0.0,-1.0));
#416=DIRECTION('',(0.0,1.0,0.0));
#417=SURFACE_STYLE_FILL_AREA(#535);
#418=ORIENTED_EDGE('',*,*,#142,.T.);
#419=ORIENTED_EDGE('',*,*,#96,.F.);
#420=ORIENTED_EDGE('',*,*,#100,.T.);
#421=ORIENTED_EDGE('',*,*,#130,.T.);
#422=CARTESIAN_POINT('',(0.0,0.0,-0.396999999999998));
#423=DIRECTION('',(0.0,-0.0,-1.0));
#424=DIRECTION('',(0.0,1.0,0.0));
#425=DIRECTION('',(1.06054021204601E-016,-0.866025403784438,0.500000000000002));
#426=SURFACE_STYLE_FILL_AREA(#536);
#427=ORIENTED_EDGE('',*,*,#134,.T.);
#428=ORIENTED_EDGE('',*,*,#114,.F.);
#429=ORIENTED_EDGE('',*,*,#82,.T.);
#430=ORIENTED_EDGE('',*,*,#140,.T.);
#431=CARTESIAN_POINT('',(0.0,0.0,-75.8541692296886));
#432=DIRECTION('',(-0.0,-0.0,1.0));
#433=DIRECTION('',(0.0,1.0,0.0));
#434=DIRECTION('',(-0.0,-0.0,1.0));
#435=CARTESIAN_POINT('',(0.0,0.0,-76.2));
#436=DIRECTION('',(0.0,0.0,-1.0));
#437=DIRECTION('',(0.0,1.0,0.0));
#438=DIRECTION('',(-0.0,-0.0,1.0));
#439=SURFACE_STYLE_FILL_AREA(#537);
#440=ORIENTED_EDGE('',*,*,#142,.F.);
#441=ORIENTED_EDGE('',*,*,#110,.T.);
#442=ORIENTED_EDGE('',*,*,#100,.F.);
#443=ORIENTED_EDGE('',*,*,#76,.F.);
#444=CARTESIAN_POINT('',(0.0,0.0,-0.396999999999998));
#445=DIRECTION('',(0.0,-0.0,-1.0));
#446=DIRECTION('',(0.0,1.0,0.0));
#447=CARTESIAN_POINT('',(0.0,0.0,-0.793999999999997));
#448=DIRECTION('',(0.0,0.0,-1.0));
#449=DIRECTION('',(0.0,1.0,0.0));
#450=DIRECTION('',(-6.12303176911191E-017,0.500000000000002,0.866025403784438));
#451=SURFACE_STYLE_FILL_AREA(#538);
#452=ORIENTED_EDGE('',*,*,#112,.T.);
#453=ORIENTED_EDGE('',*,*,#118,.T.);
#454=ORIENTED_EDGE('',*,*,#106,.T.);
#455=ORIENTED_EDGE('',*,*,#120,.T.);
#456=CARTESIAN_POINT('',(0.0,0.0,-56.7));
#457=DIRECTION('',(0.0,0.0,-1.0));
#458=DIRECTION('',(0.0,-1.0,0.0));
#459=CARTESIAN_POINT('',(0.0,0.0,-56.7));
#460=DIRECTION('',(0.0,0.0,-1.0));
#461=DIRECTION('',(0.0,-1.0,0.0));
#462=SURFACE_STYLE_FILL_AREA(#539);
#463=ORIENTED_EDGE('',*,*,#74,.F.);
#464=ORIENTED_EDGE('',*,*,#118,.F.);
#465=ORIENTED_EDGE('',*,*,#86,.F.);
#466=ORIENTED_EDGE('',*,*,#116,.F.);
#467=CARTESIAN_POINT('',(0.0,0.0,-66.1041692296886));
#468=DIRECTION('',(-0.0,-0.0,1.0));
#469=DIRECTION('',(0.0,1.0,0.0));
#470=CARTESIAN_POINT('',(0.0,0.0,0.0));
#471=DIRECTION('',(0.0,0.0,-1.0));
#472=DIRECTION('',(0.0,1.0,0.0));
#473=CARTESIAN_POINT('',(0.0,0.0,-56.7));
#474=DIRECTION('',(0.0,-0.0,1.0));
#475=DIRECTION('',(0.0,1.0,0.0));
#476=CARTESIAN_POINT('',(0.0,0.0,-76.2));
#477=DIRECTION('',(0.0,0.0,-1.0));
#478=DIRECTION('',(0.0,1.0,0.0));
#479=CARTESIAN_POINT('',(0.0,0.0,-75.5083384593772));
#480=DIRECTION('',(0.0,0.0,-1.0));
#481=DIRECTION('',(0.0,1.0,0.0));
#482=CARTESIAN_POINT('',(0.0,0.0,-56.7));
#483=DIRECTION('',(0.0,-0.0,1.0));
#484=DIRECTION('',(0.0,1.0,0.0));
#485=CARTESIAN_POINT('',(0.0,0.0,-56.7));
#486=DIRECTION('',(0.0,0.0,-1.0));
#487=DIRECTION('',(0.0,-1.0,0.0));
#488=SURFACE_STYLE_FILL_AREA(#540);
#489=ORIENTED_EDGE('',*,*,#88,.T.);
#490=ORIENTED_EDGE('',*,*,#114,.T.);
#491=CARTESIAN_POINT('',(0.0,1.750503535,-76.2));
#492=DIRECTION('',(0.0,0.0,-1.0));
#493=DIRECTION('',(0.0,1.0,0.0));
#494=CARTESIAN_POINT('',(0.0,0.0,0.0));
#495=DIRECTION('',(0.0,0.0,-1.0));
#496=DIRECTION('',(0.0,1.0,0.0));
#497=DIRECTION('',(1.06054021204601E-016,-0.866025403784438,-0.500000000000002));
#498=SURFACE_STYLE_FILL_AREA(#541);
#499=ORIENTED_EDGE('',*,*,#110,.F.);
#500=ORIENTED_EDGE('',*,*,#130,.F.);
#501=CARTESIAN_POINT('',(0.0,2.15204194313172,0.0));
#502=DIRECTION('',(-0.0,0.0,1.0));
#503=DIRECTION('',(0.0,-1.0,0.0));
#504=CARTESIAN_POINT('',(0.0,0.0,-75.5083384593772));
#505=DIRECTION('',(0.0,0.0,-1.0));
#506=DIRECTION('',(0.0,1.0,0.0));
#507=DIRECTION('',(-6.12303176911191E-017,0.500000000000002,-0.866025403784438));
#508=SURFACE_STYLE_FILL_AREA(#542);
#509=ORIENTED_EDGE('',*,*,#154,.F.);
#510=ORIENTED_EDGE('',*,*,#76,.T.);
#511=ORIENTED_EDGE('',*,*,#90,.F.);
#512=ORIENTED_EDGE('',*,*,#120,.F.);
#513=CARTESIAN_POINT('',(0.0,0.0,-23.997));
#514=DIRECTION('',(-0.0,-0.0,1.0));
#515=DIRECTION('',(0.0,1.0,0.0));
#516=SURFACE_STYLE_FILL_AREA(#543);
#517=ORIENTED_EDGE('',*,*,#134,.F.);
#518=ORIENTED_EDGE('',*,*,#116,.T.);
#519=ORIENTED_EDGE('',*,*,#82,.F.);
#520=ORIENTED_EDGE('',*,*,#88,.F.);
#521=CARTESIAN_POINT('',(0.0,0.0,-75.8541692296886));
#522=DIRECTION('',(-0.0,-0.0,1.0));
#523=DIRECTION('',(0.0,1.0,0.0));
#524=SURFACE_STYLE_FILL_AREA(#544);
#525=ORIENTED_EDGE('',*,*,#74,.T.);
#526=ORIENTED_EDGE('',*,*,#140,.F.);
#527=ORIENTED_EDGE('',*,*,#86,.T.);
#528=ORIENTED_EDGE('',*,*,#112,.F.);
#529=CARTESIAN_POINT('',(0.0,0.0,-66.1041692296886));
#530=DIRECTION('',(-0.0,-0.0,1.0));
#531=DIRECTION('',(0.0,1.0,0.0));
#532=SURFACE_STYLE_FILL_AREA(#545);
#533=DIRECTION('',(0.0,0.0,-1.0));
#534=FILL_AREA_STYLE('',(#546));
#535=FILL_AREA_STYLE('',(#547));
#536=FILL_AREA_STYLE('',(#548));
#537=FILL_AREA_STYLE('',(#549));
#538=FILL_AREA_STYLE('',(#550));
#539=FILL_AREA_STYLE('',(#551));
#540=FILL_AREA_STYLE('',(#552));
#541=FILL_AREA_STYLE('',(#553));
#542=FILL_AREA_STYLE('',(#554));
#543=FILL_AREA_STYLE('',(#555));
#544=FILL_AREA_STYLE('',(#556));
#545=FILL_AREA_STYLE('',(#557));
#546=FILL_AREA_STYLE_COLOUR('',#558);
#547=FILL_AREA_STYLE_COLOUR('',#559);
#548=FILL_AREA_STYLE_COLOUR('',#560);
#549=FILL_AREA_STYLE_COLOUR('',#561);
#550=FILL_AREA_STYLE_COLOUR('',#562);
#551=FILL_AREA_STYLE_COLOUR('',#563);
#552=FILL_AREA_STYLE_COLOUR('',#564);
#553=FILL_AREA_STYLE_COLOUR('',#565);
#554=FILL_AREA_STYLE_COLOUR('',#566);
#555=FILL_AREA_STYLE_COLOUR('',#567);
#556=FILL_AREA_STYLE_COLOUR('',#568);
#557=FILL_AREA_STYLE_COLOUR('',#569);
#558=COLOUR_RGB('',0.498039215803146,0.498039215803146,0.498039215803146);
#559=COLOUR_RGB('',0.498039215803146,0.498039215803146,0.498039215803146);
#560=COLOUR_RGB('',0.800000011920929,0.800000011920929,0.800000011920929);
#561=COLOUR_RGB('',0.498039215803146,0.498039215803146,0.498039215803146);
#562=COLOUR_RGB('',0.498039215803146,0.498039215803146,0.498039215803146);
#563=COLOUR_RGB('',0.800000011920929,0.800000011920929,0.800000011920929);
#564=COLOUR_RGB('',0.498039215803146,0.498039215803146,0.498039215803146);
#565=COLOUR_RGB('',0.498039215803146,0.498039215803146,0.498039215803146);
#566=COLOUR_RGB('',0.498039215803146,0.498039215803146,0.498039215803146);
#567=COLOUR_RGB('',0.800000011920929,0.800000011920929,0.800000011920929);
#568=COLOUR_RGB('',0.800000011920929,0.800000011920929,0.800000011920929);
#569=COLOUR_RGB('',0.498039215803146,0.498039215803146,0.498039215803146);
#570=AXIS2_PLACEMENT_3D('PCS',#571,#572,#573);
#571=CARTESIAN_POINT('',(0.0,0.0,0.0));
#572=DIRECTION('',(0.0,0.0,1.0));
#573=DIRECTION('',(1.0,0.0,0.0));
#574=AXIS2_PLACEMENT_3D('CIP',#575,#576,#577);
#575=CARTESIAN_POINT('',(0.0,0.0,-76.2));
#576=DIRECTION('',(0.0,0.0,1.0));
#577=DIRECTION('',(1.0,0.0,0.0));
#578=AXIS2_PLACEMENT_3D('CRP',#579,#580,#581);
#579=CARTESIAN_POINT('',(-4.699,0.0,-76.2));
#580=DIRECTION('',(0.0,0.0,1.0));
#581=DIRECTION('',(1.0,0.0,0.0));
#582=AXIS2_PLACEMENT_3D('MCS',#583,#584,#585);
#583=CARTESIAN_POINT('',(0.0,0.0,-47.2));
#584=DIRECTION('',(0.0,0.0,1.0));
#585=DIRECTION('',(1.0,0.0,0.0));
#586=CONSTRUCTIVE_GEOMETRY_REPRESENTATION_RELATIONSHIP('coordinate systems',$,#58,#587);
#587=CONSTRUCTIVE_GEOMETRY_REPRESENTATION('coordinate systems',(#570,#574,#578,#582),#6);
ENDSEC;
END-ISO-10303-21;
