ISO-10303-21;
HEADER;
FILE_DESCRIPTION(('no description'),'unknown implementation level');
FILE_NAME('solidmAiFVB9nWshzuV0wl9FENlZV6XU_1.STP','  ',('CIMSOURCE GmbH'),('CADClick - KiM GmbH - www.kimweb.de'),'unknown preprocess','ACIS','unknown authorization');
FILE_SCHEMA(('automotive_design'));
ENDSEC;
DATA;
#1=MECHANICAL_DESIGN_GEOMETRIC_PRESENTATION_REPRESENTATION(' ',(#10,#11,#12,#13,#14,#15,#16,#17,#18,#19,#20,#21,#22,#23,#24,#25,#26,#27,#28,#29,#30,#31,#32,#33,#34,#35,#36,#37,#38,#39,#40,#41,#42,#43,#44,#45,#46,#47,#48,#49,#50,#51,#52,#53),#6);
#2=PRODUCT_DEFINITION_CONTEXT('',#54,'design');
#3=APPLICATION_PROTOCOL_DEFINITION('INTERNATIONAL STANDARD','automotive_design',1994,#54);
#4=PRODUCT_CATEGORY_RELATIONSHIP('NONE','NONE',#55,#56);
#5=SHAPE_DEFINITION_REPRESENTATION(#57,#58);
#6= (GEOMETRIC_REPRESENTATION_CONTEXT(3)GLOBAL_UNCERTAINTY_ASSIGNED_CONTEXT((#61))GLOBAL_UNIT_ASSIGNED_CONTEXT((#63,#64,#65))REPRESENTATION_CONTEXT('NONE','WORKSPACE'));
#10=STYLED_ITEM('',(#67),#68);
#11=STYLED_ITEM('',(#69),#70);
#12=STYLED_ITEM('',(#71),#72);
#13=STYLED_ITEM('',(#73),#74);
#14=STYLED_ITEM('',(#75),#76);
#15=STYLED_ITEM('',(#77),#78);
#16=STYLED_ITEM('',(#79),#80);
#17=STYLED_ITEM('',(#81),#82);
#18=STYLED_ITEM('',(#83),#84);
#19=STYLED_ITEM('',(#85),#86);
#20=STYLED_ITEM('',(#87),#88);
#21=STYLED_ITEM('',(#89),#90);
#22=STYLED_ITEM('',(#91),#92);
#23=STYLED_ITEM('',(#93),#94);
#24=STYLED_ITEM('',(#95),#96);
#25=STYLED_ITEM('',(#97),#98);
#26=STYLED_ITEM('',(#99),#100);
#27=STYLED_ITEM('',(#101),#102);
#28=STYLED_ITEM('',(#103),#104);
#29=STYLED_ITEM('',(#105),#106);
#30=STYLED_ITEM('',(#107),#108);
#31=STYLED_ITEM('',(#109),#110);
#32=STYLED_ITEM('',(#111),#112);
#33=STYLED_ITEM('',(#113),#114);
#34=STYLED_ITEM('',(#115),#116);
#35=STYLED_ITEM('',(#117),#118);
#36=STYLED_ITEM('',(#119),#120);
#37=STYLED_ITEM('',(#121),#122);
#38=STYLED_ITEM('',(#123),#124);
#39=STYLED_ITEM('',(#125),#126);
#40=STYLED_ITEM('',(#127),#128);
#41=STYLED_ITEM('',(#129),#130);
#42=STYLED_ITEM('',(#131),#132);
#43=STYLED_ITEM('',(#133),#134);
#44=STYLED_ITEM('',(#135),#136);
#45=STYLED_ITEM('',(#137),#138);
#46=STYLED_ITEM('',(#139),#140);
#47=STYLED_ITEM('',(#141),#142);
#48=STYLED_ITEM('',(#143),#144);
#49=STYLED_ITEM('',(#145),#146);
#50=STYLED_ITEM('',(#147),#148);
#51=STYLED_ITEM('',(#149),#150);
#52=STYLED_ITEM('',(#151),#152);
#53=STYLED_ITEM('',(#153),#154);
#54=APPLICATION_CONTEXT(' ');
#55=PRODUCT_CATEGORY('part','NONE');
#56=PRODUCT_RELATED_PRODUCT_CATEGORY('detail',' ',(#155));
#57=PRODUCT_DEFINITION_SHAPE('NONE','NONE',#156);
#58=ADVANCED_BREP_SHAPE_REPRESENTATION('1',(#114,#157),#6);
#61=UNCERTAINTY_MEASURE_WITH_UNIT(LENGTH_MEASURE(1.0E-006),#63,'','');
#63= (CONVERSION_BASED_UNIT('MILLIMETRE',#160)LENGTH_UNIT()NAMED_UNIT(#163));
#64= (NAMED_UNIT(#165)PLANE_ANGLE_UNIT()SI_UNIT($,.RADIAN.));
#65= (NAMED_UNIT(#165)SOLID_ANGLE_UNIT()SI_UNIT($,.STERADIAN.));
#67=PRESENTATION_STYLE_ASSIGNMENT((#171));
#68=EDGE_CURVE('',#140,#90,#172,.T.);
#69=PRESENTATION_STYLE_ASSIGNMENT((#173));
#70=ADVANCED_FACE('',(#174),#175,.T.);
#71=PRESENTATION_STYLE_ASSIGNMENT((#176));
#72=ADVANCED_FACE('',(#177),#178,.T.);
#73=PRESENTATION_STYLE_ASSIGNMENT((#179));
#74=EDGE_CURVE('',#130,#128,#180,.T.);
#75=PRESENTATION_STYLE_ASSIGNMENT((#181));
#76=VERTEX_POINT('',#182);
#77=PRESENTATION_STYLE_ASSIGNMENT((#183));
#78=ADVANCED_FACE('',(#184),#185,.T.);
#79=PRESENTATION_STYLE_ASSIGNMENT((#186));
#80=VERTEX_POINT('',#187);
#81=PRESENTATION_STYLE_ASSIGNMENT((#188));
#82=EDGE_CURVE('',#94,#76,#189,.T.);
#83=PRESENTATION_STYLE_ASSIGNMENT((#190));
#84=EDGE_CURVE('',#96,#88,#191,.T.);
#85=PRESENTATION_STYLE_ASSIGNMENT((#192));
#86=VERTEX_POINT('',#193);
#87=PRESENTATION_STYLE_ASSIGNMENT((#194));
#88=VERTEX_POINT('',#195);
#89=PRESENTATION_STYLE_ASSIGNMENT((#196));
#90=VERTEX_POINT('',#197);
#91=PRESENTATION_STYLE_ASSIGNMENT((#198));
#92=EDGE_CURVE('',#140,#96,#199,.T.);
#93=PRESENTATION_STYLE_ASSIGNMENT((#200));
#94=VERTEX_POINT('',#201);
#95=PRESENTATION_STYLE_ASSIGNMENT((#202));
#96=VERTEX_POINT('',#203);
#97=PRESENTATION_STYLE_ASSIGNMENT((#204));
#98=VERTEX_POINT('',#205);
#99=PRESENTATION_STYLE_ASSIGNMENT((#206));
#100=EDGE_CURVE('',#76,#80,#207,.T.);
#101=PRESENTATION_STYLE_ASSIGNMENT((#208));
#102=EDGE_CURVE('',#90,#140,#209,.T.);
#103=PRESENTATION_STYLE_ASSIGNMENT((#210));
#104=ADVANCED_FACE('',(#211),#212,.T.);
#105=PRESENTATION_STYLE_ASSIGNMENT((#213));
#106=ADVANCED_FACE('',(#214,#215),#216,.T.);
#107=PRESENTATION_STYLE_ASSIGNMENT((#217));
#108=ADVANCED_FACE('',(#218),#219,.T.);
#109=PRESENTATION_STYLE_ASSIGNMENT((#220));
#110=EDGE_CURVE('',#96,#98,#221,.T.);
#111=PRESENTATION_STYLE_ASSIGNMENT((#222));
#112=EDGE_CURVE('',#130,#80,#223,.T.);
#113=PRESENTATION_STYLE_ASSIGNMENT((#224));
#114=MANIFOLD_SOLID_BREP('1',#225);
#115=PRESENTATION_STYLE_ASSIGNMENT((#226));
#116=EDGE_CURVE('',#86,#98,#227,.T.);
#117=PRESENTATION_STYLE_ASSIGNMENT((#228));
#118=EDGE_CURVE('',#128,#76,#229,.T.);
#119=PRESENTATION_STYLE_ASSIGNMENT((#230));
#120=EDGE_CURVE('',#98,#96,#231,.T.);
#121=PRESENTATION_STYLE_ASSIGNMENT((#232));
#122=EDGE_CURVE('',#80,#130,#233,.T.);
#123=PRESENTATION_STYLE_ASSIGNMENT((#234));
#124=EDGE_CURVE('',#76,#128,#235,.T.);
#125=PRESENTATION_STYLE_ASSIGNMENT((#236));
#126=ADVANCED_FACE('',(#237),#238,.T.);
#127=PRESENTATION_STYLE_ASSIGNMENT((#239));
#128=VERTEX_POINT('',#240);
#129=PRESENTATION_STYLE_ASSIGNMENT((#241));
#130=VERTEX_POINT('',#242);
#131=PRESENTATION_STYLE_ASSIGNMENT((#243));
#132=ADVANCED_FACE('',(#244),#245,.T.);
#133=PRESENTATION_STYLE_ASSIGNMENT((#246));
#134=VERTEX_POINT('',#247);
#135=PRESENTATION_STYLE_ASSIGNMENT((#248));
#136=EDGE_CURVE('',#134,#94,#249,.T.);
#137=PRESENTATION_STYLE_ASSIGNMENT((#250));
#138=EDGE_CURVE('',#88,#86,#251,.T.);
#139=PRESENTATION_STYLE_ASSIGNMENT((#252));
#140=VERTEX_POINT('',#253);
#141=PRESENTATION_STYLE_ASSIGNMENT((#254));
#142=ADVANCED_FACE('',(#255),#256,.T.);
#143=PRESENTATION_STYLE_ASSIGNMENT((#257));
#144=ADVANCED_FACE('',(#258),#259,.T.);
#145=PRESENTATION_STYLE_ASSIGNMENT((#260));
#146=ADVANCED_FACE('',(#261),#262,.T.);
#147=PRESENTATION_STYLE_ASSIGNMENT((#263));
#148=EDGE_CURVE('',#86,#88,#264,.T.);
#149=PRESENTATION_STYLE_ASSIGNMENT((#265));
#150=EDGE_CURVE('',#98,#90,#266,.T.);
#151=PRESENTATION_STYLE_ASSIGNMENT((#267));
#152=EDGE_CURVE('',#128,#134,#268,.T.);
#153=PRESENTATION_STYLE_ASSIGNMENT((#269));
#154=EDGE_CURVE('',#94,#134,#270,.T.);
#155=PRODUCT('1','1','PART-1-DESC',(#271));
#156=PRODUCT_DEFINITION('NONE','NONE',#272,#2);
#157=AXIS2_PLACEMENT_3D('',#273,#274,#275);
#160=LENGTH_MEASURE_WITH_UNIT(LENGTH_MEASURE(1.0),#276);
#163=DIMENSIONAL_EXPONENTS(1.0,0.0,0.0,0.0,0.0,0.0,0.0);
#165=DIMENSIONAL_EXPONENTS(0.0,0.0,0.0,0.0,0.0,0.0,0.0);
#171=CURVE_STYLE('',#277,POSITIVE_LENGTH_MEASURE(1.0E-006),#278);
#172=CIRCLE('',#279,6.35);
#173=SURFACE_STYLE_USAGE(.BOTH.,#280);
#174=FACE_OUTER_BOUND('',#281,.T.);
#175=CYLINDRICAL_SURFACE('',#282,6.35);
#176=SURFACE_STYLE_USAGE(.BOTH.,#283);
#177=FACE_OUTER_BOUND('',#284,.T.);
#178=CONICAL_SURFACE('',#285,6.12079194313172,0.523598775598301);
#179=CURVE_STYLE('',#286,POSITIVE_LENGTH_MEASURE(1.0E-006),#287);
#180=LINE('',#288,#289);
#181=POINT_STYLE(' ',#290,POSITIVE_LENGTH_MEASURE(1.0E-006),#291);
#182=CARTESIAN_POINT('',(7.69848784330437E-016,-6.2865,-101.100466668634));
#183=SURFACE_STYLE_USAGE(.BOTH.,#292);
#184=FACE_OUTER_BOUND('',#293,.T.);
#185=CONICAL_SURFACE('',#294,5.853891445,1.0471975511966);
#186=POINT_STYLE(' ',#295,POSITIVE_LENGTH_MEASURE(1.0E-006),#296);
#187=CARTESIAN_POINT('',(7.69848784330437E-016,-6.2865,-77.6));
#188=CURVE_STYLE('',#297,POSITIVE_LENGTH_MEASURE(1.0E-006),#298);
#189=LINE('',#299,#300);
#190=CURVE_STYLE('',#301,POSITIVE_LENGTH_MEASURE(1.0E-006),#302);
#191=LINE('',#303,#304);
#192=POINT_STYLE(' ',#305,POSITIVE_LENGTH_MEASURE(1.0E-006),#306);
#193=CARTESIAN_POINT('',(0.0,5.89158388626344,7.105427357601E-015));
#194=POINT_STYLE(' ',#307,POSITIVE_LENGTH_MEASURE(1.0E-006),#308);
#195=CARTESIAN_POINT('',(7.21487106119574E-016,-5.89158388626344,7.105427357601E-015));
#196=POINT_STYLE(' ',#309,POSITIVE_LENGTH_MEASURE(1.0E-006),#310);
#197=CARTESIAN_POINT('',(-7.7762503467721E-016,6.35,-77.6));
#198=CURVE_STYLE('',#311,POSITIVE_LENGTH_MEASURE(1.0E-006),#312);
#199=LINE('',#313,#314);
#200=POINT_STYLE(' ',#315,POSITIVE_LENGTH_MEASURE(1.0E-006),#316);
#201=CARTESIAN_POINT('',(6.63893747296254E-016,-5.42128289,-101.6));
#202=POINT_STYLE(' ',#317,POSITIVE_LENGTH_MEASURE(1.0E-006),#318);
#203=CARTESIAN_POINT('',(7.7762503467721E-016,-6.35,-0.79399999999999));
#204=POINT_STYLE(' ',#319,POSITIVE_LENGTH_MEASURE(1.0E-006),#320);
#205=CARTESIAN_POINT('',(0.0,6.35,-0.79399999999999));
#206=CURVE_STYLE('',#321,POSITIVE_LENGTH_MEASURE(1.0E-006),#322);
#207=LINE('',#323,#324);
#208=CURVE_STYLE('',#325,POSITIVE_LENGTH_MEASURE(1.0E-006),#326);
#209=CIRCLE('',#327,6.35);
#210=SURFACE_STYLE_USAGE(.BOTH.,#328);
#211=FACE_OUTER_BOUND('',#329,.T.);
#212=PLANE('',#330);
#213=SURFACE_STYLE_USAGE(.BOTH.,#331);
#214=FACE_BOUND('',#332,.T.);
#215=FACE_OUTER_BOUND('',#333,.T.);
#216=PLANE('',#334);
#217=SURFACE_STYLE_USAGE(.BOTH.,#335);
#218=FACE_OUTER_BOUND('',#336,.T.);
#219=CONICAL_SURFACE('',#337,6.12079194313172,0.523598775598301);
#220=CURVE_STYLE('',#338,POSITIVE_LENGTH_MEASURE(1.0E-006),#339);
#221=CIRCLE('',#340,6.35);
#222=CURVE_STYLE('',#341,POSITIVE_LENGTH_MEASURE(1.0E-006),#342);
#223=CIRCLE('',#343,6.2865);
#224=SURFACE_STYLE_USAGE(.BOTH.,#344);
#225=CLOSED_SHELL('',(#142,#72,#146,#144,#126,#78,#106,#104,#108,#70,#132));
#226=CURVE_STYLE('',#345,POSITIVE_LENGTH_MEASURE(1.0E-006),#346);
#227=LINE('',#347,#348);
#228=CURVE_STYLE('',#349,POSITIVE_LENGTH_MEASURE(1.0E-006),#350);
#229=CIRCLE('',#351,6.2865);
#230=CURVE_STYLE('',#352,POSITIVE_LENGTH_MEASURE(1.0E-006),#353);
#231=CIRCLE('',#354,6.35);
#232=CURVE_STYLE('',#355,POSITIVE_LENGTH_MEASURE(1.0E-006),#356);
#233=CIRCLE('',#357,6.2865);
#234=CURVE_STYLE('',#358,POSITIVE_LENGTH_MEASURE(1.0E-006),#359);
#235=CIRCLE('',#360,6.2865);
#236=SURFACE_STYLE_USAGE(.BOTH.,#361);
#237=FACE_OUTER_BOUND('',#362,.T.);
#238=CYLINDRICAL_SURFACE('',#363,6.2865);
#239=POINT_STYLE(' ',#364,POSITIVE_LENGTH_MEASURE(1.0E-006),#365);
#240=CARTESIAN_POINT('',(0.0,6.2865,-101.100466668634));
#241=POINT_STYLE(' ',#366,POSITIVE_LENGTH_MEASURE(1.0E-006),#367);
#242=CARTESIAN_POINT('',(0.0,6.2865,-77.6));
#243=SURFACE_STYLE_USAGE(.BOTH.,#368);
#244=FACE_OUTER_BOUND('',#369,.T.);
#245=PLANE('',#370);
#246=POINT_STYLE(' ',#371,POSITIVE_LENGTH_MEASURE(1.0E-006),#372);
#247=CARTESIAN_POINT('',(0.0,5.42128289,-101.6));
#248=CURVE_STYLE('',#373,POSITIVE_LENGTH_MEASURE(1.0E-006),#374);
#249=CIRCLE('',#375,5.42128289);
#250=CURVE_STYLE('',#376,POSITIVE_LENGTH_MEASURE(1.0E-006),#377);
#251=CIRCLE('',#378,5.89158388626344);
#252=POINT_STYLE(' ',#379,POSITIVE_LENGTH_MEASURE(1.0E-006),#380);
#253=CARTESIAN_POINT('',(0.0,-6.35,-77.6));
#254=SURFACE_STYLE_USAGE(.BOTH.,#381);
#255=FACE_OUTER_BOUND('',#382,.T.);
#256=CYLINDRICAL_SURFACE('',#383,6.35);
#257=SURFACE_STYLE_USAGE(.BOTH.,#384);
#258=FACE_OUTER_BOUND('',#385,.T.);
#259=CYLINDRICAL_SURFACE('',#386,6.2865);
#260=SURFACE_STYLE_USAGE(.BOTH.,#387);
#261=FACE_OUTER_BOUND('',#388,.T.);
#262=CONICAL_SURFACE('',#389,5.853891445,1.0471975511966);
#263=CURVE_STYLE('',#390,POSITIVE_LENGTH_MEASURE(1.0E-006),#391);
#264=CIRCLE('',#392,5.89158388626344);
#265=CURVE_STYLE('',#393,POSITIVE_LENGTH_MEASURE(1.0E-006),#394);
#266=LINE('',#395,#396);
#267=CURVE_STYLE('',#397,POSITIVE_LENGTH_MEASURE(1.0E-006),#398);
#268=LINE('',#399,#400);
#269=CURVE_STYLE('',#401,POSITIVE_LENGTH_MEASURE(1.0E-006),#402);
#270=CIRCLE('',#403,5.42128289);
#271=PRODUCT_CONTEXT('',#54,'mechanical');
#272=PRODUCT_DEFINITION_FORMATION_WITH_SPECIFIED_SOURCE(' ','NONE',#155,.NOT_KNOWN.);
#273=CARTESIAN_POINT('',(0.0,0.0,0.0));
#274=DIRECTION('',(0.0,0.0,1.0));
#275=DIRECTION('',(1.0,0.0,0.0));
#276= (NAMED_UNIT(#163)LENGTH_UNIT()SI_UNIT(.MILLI.,.METRE.));
#277=DRAUGHTING_PRE_DEFINED_CURVE_FONT('continuous');
#278=COLOUR_RGB('',0.498039215803146,0.498039215803146,0.498039215803146);
#279=AXIS2_PLACEMENT_3D('',#405,#406,#407);
#280=SURFACE_SIDE_STYLE('',(#408));
#281=EDGE_LOOP('',(#409,#410,#411,#412));
#282=AXIS2_PLACEMENT_3D('',#413,#414,#415);
#283=SURFACE_SIDE_STYLE('',(#416));
#284=EDGE_LOOP('',(#417,#418,#419,#420));
#285=AXIS2_PLACEMENT_3D('',#421,#422,#423);
#286=DRAUGHTING_PRE_DEFINED_CURVE_FONT('continuous');
#287=COLOUR_RGB('',0.800000011920929,0.800000011920929,0.800000011920929);
#288=CARTESIAN_POINT('',(-7.69848784330437E-016,6.2865,-89.350233334317));
#289=VECTOR('',#424,1.0);
#290=PRE_DEFINED_MARKER('');
#291=COLOUR_RGB('',0.800000011920929,0.800000011920929,0.800000011920929);
#292=SURFACE_SIDE_STYLE('',(#425));
#293=EDGE_LOOP('',(#426,#427,#428,#429));
#294=AXIS2_PLACEMENT_3D('',#430,#431,#432);
#295=PRE_DEFINED_MARKER('');
#296=COLOUR_RGB('',0.498039215803146,0.498039215803146,0.498039215803146);
#297=DRAUGHTING_PRE_DEFINED_CURVE_FONT('continuous');
#298=COLOUR_RGB('',0.800000011920929,0.800000011920929,0.800000011920929);
#299=CARTESIAN_POINT('',(7.16871265813346E-016,-5.853891445,-101.350233334317));
#300=VECTOR('',#433,1.0);
#301=DRAUGHTING_PRE_DEFINED_CURVE_FONT('continuous');
#302=COLOUR_RGB('',0.498039215803146,0.498039215803146,0.498039215803146);
#303=CARTESIAN_POINT('',(7.49556070398392E-016,-6.12079194313172,-0.396999999999991));
#304=VECTOR('',#434,1.0);
#305=PRE_DEFINED_MARKER('');
#306=COLOUR_RGB('',0.498039215803146,0.498039215803146,0.498039215803146);
#307=PRE_DEFINED_MARKER('');
#308=COLOUR_RGB('',0.498039215803146,0.498039215803146,0.498039215803146);
#309=PRE_DEFINED_MARKER('');
#310=COLOUR_RGB('',0.498039215803146,0.498039215803146,0.498039215803146);
#311=DRAUGHTING_PRE_DEFINED_CURVE_FONT('continuous');
#312=COLOUR_RGB('',0.498039215803146,0.498039215803146,0.498039215803146);
#313=CARTESIAN_POINT('',(7.7762503467721E-016,-6.35,-31.697));
#314=VECTOR('',#435,1.0);
#315=PRE_DEFINED_MARKER('');
#316=COLOUR_RGB('',0.498039215803146,0.498039215803146,0.498039215803146);
#317=PRE_DEFINED_MARKER('');
#318=COLOUR_RGB('',0.498039215803146,0.498039215803146,0.498039215803146);
#319=PRE_DEFINED_MARKER('');
#320=COLOUR_RGB('',0.498039215803146,0.498039215803146,0.498039215803146);
#321=DRAUGHTING_PRE_DEFINED_CURVE_FONT('continuous');
#322=COLOUR_RGB('',0.800000011920929,0.800000011920929,0.800000011920929);
#323=CARTESIAN_POINT('',(7.69848784330437E-016,-6.2865,-89.350233334317));
#324=VECTOR('',#436,1.0);
#325=DRAUGHTING_PRE_DEFINED_CURVE_FONT('continuous');
#326=COLOUR_RGB('',0.498039215803146,0.498039215803146,0.498039215803146);
#327=AXIS2_PLACEMENT_3D('',#437,#438,#439);
#328=SURFACE_SIDE_STYLE('',(#440));
#329=EDGE_LOOP('',(#441,#442));
#330=AXIS2_PLACEMENT_3D('',#443,#444,#445);
#331=SURFACE_SIDE_STYLE('',(#446));
#332=EDGE_LOOP('',(#447,#448));
#333=EDGE_LOOP('',(#449,#450));
#334=AXIS2_PLACEMENT_3D('',#451,#452,#453);
#335=SURFACE_SIDE_STYLE('',(#454));
#336=EDGE_LOOP('',(#455,#456,#457,#458));
#337=AXIS2_PLACEMENT_3D('',#459,#460,#461);
#338=DRAUGHTING_PRE_DEFINED_CURVE_FONT('continuous');
#339=COLOUR_RGB('',0.498039215803146,0.498039215803146,0.498039215803146);
#340=AXIS2_PLACEMENT_3D('',#462,#463,#464);
#341=DRAUGHTING_PRE_DEFINED_CURVE_FONT('continuous');
#342=COLOUR_RGB('',0.498039215803146,0.498039215803146,0.498039215803146);
#343=AXIS2_PLACEMENT_3D('',#465,#466,#467);
#344=SURFACE_SIDE_STYLE('',(#468));
#345=DRAUGHTING_PRE_DEFINED_CURVE_FONT('continuous');
#346=COLOUR_RGB('',0.498039215803146,0.498039215803146,0.498039215803146);
#347=CARTESIAN_POINT('',(-7.49556070398392E-016,6.12079194313172,-0.396999999999991));
#348=VECTOR('',#469,1.0);
#349=DRAUGHTING_PRE_DEFINED_CURVE_FONT('continuous');
#350=COLOUR_RGB('',0.800000011920929,0.800000011920929,0.800000011920929);
#351=AXIS2_PLACEMENT_3D('',#470,#471,#472);
#352=DRAUGHTING_PRE_DEFINED_CURVE_FONT('continuous');
#353=COLOUR_RGB('',0.498039215803146,0.498039215803146,0.498039215803146);
#354=AXIS2_PLACEMENT_3D('',#473,#474,#475);
#355=DRAUGHTING_PRE_DEFINED_CURVE_FONT('continuous');
#356=COLOUR_RGB('',0.498039215803146,0.498039215803146,0.498039215803146);
#357=AXIS2_PLACEMENT_3D('',#476,#477,#478);
#358=DRAUGHTING_PRE_DEFINED_CURVE_FONT('continuous');
#359=COLOUR_RGB('',0.800000011920929,0.800000011920929,0.800000011920929);
#360=AXIS2_PLACEMENT_3D('',#479,#480,#481);
#361=SURFACE_SIDE_STYLE('',(#482));
#362=EDGE_LOOP('',(#483,#484,#485,#486));
#363=AXIS2_PLACEMENT_3D('',#487,#488,#489);
#364=PRE_DEFINED_MARKER('');
#365=COLOUR_RGB('',0.800000011920929,0.800000011920929,0.800000011920929);
#366=PRE_DEFINED_MARKER('');
#367=COLOUR_RGB('',0.498039215803146,0.498039215803146,0.498039215803146);
#368=SURFACE_SIDE_STYLE('',(#490));
#369=EDGE_LOOP('',(#491,#492));
#370=AXIS2_PLACEMENT_3D('',#493,#494,#495);
#371=PRE_DEFINED_MARKER('');
#372=COLOUR_RGB('',0.498039215803146,0.498039215803146,0.498039215803146);
#373=DRAUGHTING_PRE_DEFINED_CURVE_FONT('continuous');
#374=COLOUR_RGB('',0.498039215803146,0.498039215803146,0.498039215803146);
#375=AXIS2_PLACEMENT_3D('',#496,#497,#498);
#376=DRAUGHTING_PRE_DEFINED_CURVE_FONT('continuous');
#377=COLOUR_RGB('',0.498039215803146,0.498039215803146,0.498039215803146);
#378=AXIS2_PLACEMENT_3D('',#499,#500,#501);
#379=PRE_DEFINED_MARKER('');
#380=COLOUR_RGB('',0.498039215803146,0.498039215803146,0.498039215803146);
#381=SURFACE_SIDE_STYLE('',(#502));
#382=EDGE_LOOP('',(#503,#504,#505,#506));
#383=AXIS2_PLACEMENT_3D('',#507,#508,#509);
#384=SURFACE_SIDE_STYLE('',(#510));
#385=EDGE_LOOP('',(#511,#512,#513,#514));
#386=AXIS2_PLACEMENT_3D('',#515,#516,#517);
#387=SURFACE_SIDE_STYLE('',(#518));
#388=EDGE_LOOP('',(#519,#520,#521,#522));
#389=AXIS2_PLACEMENT_3D('',#523,#524,#525);
#390=DRAUGHTING_PRE_DEFINED_CURVE_FONT('continuous');
#391=COLOUR_RGB('',0.498039215803146,0.498039215803146,0.498039215803146);
#392=AXIS2_PLACEMENT_3D('',#526,#527,#528);
#393=DRAUGHTING_PRE_DEFINED_CURVE_FONT('continuous');
#394=COLOUR_RGB('',0.498039215803146,0.498039215803146,0.498039215803146);
#395=CARTESIAN_POINT('',(-7.7762503467721E-016,6.35,-31.697));
#396=VECTOR('',#529,1.0);
#397=DRAUGHTING_PRE_DEFINED_CURVE_FONT('continuous');
#398=COLOUR_RGB('',0.800000011920929,0.800000011920929,0.800000011920929);
#399=CARTESIAN_POINT('',(-7.16871265813346E-016,5.853891445,-101.350233334317));
#400=VECTOR('',#530,1.0);
#401=DRAUGHTING_PRE_DEFINED_CURVE_FONT('continuous');
#402=COLOUR_RGB('',0.498039215803146,0.498039215803146,0.498039215803146);
#403=AXIS2_PLACEMENT_3D('',#531,#532,#533);
#405=CARTESIAN_POINT('',(0.0,0.0,-77.6));
#406=DIRECTION('',(0.0,0.0,-1.0));
#407=DIRECTION('',(0.0,-1.0,0.0));
#408=SURFACE_STYLE_FILL_AREA(#534);
#409=ORIENTED_EDGE('',*,*,#150,.T.);
#410=ORIENTED_EDGE('',*,*,#68,.F.);
#411=ORIENTED_EDGE('',*,*,#92,.T.);
#412=ORIENTED_EDGE('',*,*,#110,.T.);
#413=CARTESIAN_POINT('',(0.0,0.0,-31.697));
#414=DIRECTION('',(-0.0,-0.0,1.0));
#415=DIRECTION('',(0.0,1.0,0.0));
#416=SURFACE_STYLE_FILL_AREA(#535);
#417=ORIENTED_EDGE('',*,*,#116,.F.);
#418=ORIENTED_EDGE('',*,*,#148,.T.);
#419=ORIENTED_EDGE('',*,*,#84,.F.);
#420=ORIENTED_EDGE('',*,*,#120,.F.);
#421=CARTESIAN_POINT('',(0.0,0.0,-0.396999999999991));
#422=DIRECTION('',(0.0,-0.0,-1.0));
#423=DIRECTION('',(0.0,1.0,0.0));
#424=DIRECTION('',(0.0,0.0,-1.0));
#425=SURFACE_STYLE_FILL_AREA(#536);
#426=ORIENTED_EDGE('',*,*,#152,.T.);
#427=ORIENTED_EDGE('',*,*,#154,.F.);
#428=ORIENTED_EDGE('',*,*,#82,.T.);
#429=ORIENTED_EDGE('',*,*,#124,.T.);
#430=CARTESIAN_POINT('',(0.0,0.0,-101.350233334317));
#431=DIRECTION('',(-0.0,-0.0,1.0));
#432=DIRECTION('',(0.0,1.0,0.0));
#433=DIRECTION('',(1.06054021204601E-016,-0.866025403784438,0.500000000000001));
#434=DIRECTION('',(-6.12303176911191E-017,0.500000000000002,0.866025403784438));
#435=DIRECTION('',(-0.0,-0.0,1.0));
#436=DIRECTION('',(-0.0,-0.0,1.0));
#437=CARTESIAN_POINT('',(0.0,0.0,-77.6));
#438=DIRECTION('',(0.0,0.0,-1.0));
#439=DIRECTION('',(0.0,-1.0,0.0));
#440=SURFACE_STYLE_FILL_AREA(#537);
#441=ORIENTED_EDGE('',*,*,#148,.F.);
#442=ORIENTED_EDGE('',*,*,#138,.F.);
#443=CARTESIAN_POINT('',(0.0,2.94579194313172,7.105427357601E-015));
#444=DIRECTION('',(-0.0,0.0,1.0));
#445=DIRECTION('',(0.0,-1.0,0.0));
#446=SURFACE_STYLE_FILL_AREA(#538);
#447=ORIENTED_EDGE('',*,*,#112,.T.);
#448=ORIENTED_EDGE('',*,*,#122,.T.);
#449=ORIENTED_EDGE('',*,*,#68,.T.);
#450=ORIENTED_EDGE('',*,*,#102,.T.);
#451=CARTESIAN_POINT('',(0.0,0.0,-77.6));
#452=DIRECTION('',(0.0,0.0,-1.0));
#453=DIRECTION('',(0.0,-1.0,0.0));
#454=SURFACE_STYLE_FILL_AREA(#539);
#455=ORIENTED_EDGE('',*,*,#116,.T.);
#456=ORIENTED_EDGE('',*,*,#110,.F.);
#457=ORIENTED_EDGE('',*,*,#84,.T.);
#458=ORIENTED_EDGE('',*,*,#138,.T.);
#459=CARTESIAN_POINT('',(0.0,0.0,-0.396999999999991));
#460=DIRECTION('',(0.0,-0.0,-1.0));
#461=DIRECTION('',(0.0,1.0,0.0));
#462=CARTESIAN_POINT('',(0.0,0.0,-0.79399999999999));
#463=DIRECTION('',(0.0,0.0,-1.0));
#464=DIRECTION('',(0.0,1.0,0.0));
#465=CARTESIAN_POINT('',(0.0,0.0,-77.6));
#466=DIRECTION('',(0.0,-0.0,1.0));
#467=DIRECTION('',(0.0,1.0,0.0));
#468=SURFACE_STYLE_FILL_AREA(#540);
#469=DIRECTION('',(-6.12303176911191E-017,0.500000000000002,-0.866025403784438));
#470=CARTESIAN_POINT('',(0.0,0.0,-101.100466668634));
#471=DIRECTION('',(0.0,0.0,-1.0));
#472=DIRECTION('',(0.0,1.0,0.0));
#473=CARTESIAN_POINT('',(0.0,0.0,-0.79399999999999));
#474=DIRECTION('',(0.0,0.0,-1.0));
#475=DIRECTION('',(0.0,1.0,0.0));
#476=CARTESIAN_POINT('',(0.0,0.0,-77.6));
#477=DIRECTION('',(0.0,-0.0,1.0));
#478=DIRECTION('',(0.0,1.0,0.0));
#479=CARTESIAN_POINT('',(0.0,0.0,-101.100466668634));
#480=DIRECTION('',(0.0,0.0,-1.0));
#481=DIRECTION('',(0.0,1.0,0.0));
#482=SURFACE_STYLE_FILL_AREA(#541);
#483=ORIENTED_EDGE('',*,*,#74,.T.);
#484=ORIENTED_EDGE('',*,*,#124,.F.);
#485=ORIENTED_EDGE('',*,*,#100,.T.);
#486=ORIENTED_EDGE('',*,*,#112,.F.);
#487=CARTESIAN_POINT('',(0.0,0.0,-89.350233334317));
#488=DIRECTION('',(-0.0,-0.0,1.0));
#489=DIRECTION('',(0.0,1.0,0.0));
#490=SURFACE_STYLE_FILL_AREA(#542);
#491=ORIENTED_EDGE('',*,*,#136,.T.);
#492=ORIENTED_EDGE('',*,*,#154,.T.);
#493=CARTESIAN_POINT('',(0.0,2.710641445,-101.6));
#494=DIRECTION('',(0.0,0.0,-1.0));
#495=DIRECTION('',(0.0,1.0,0.0));
#496=CARTESIAN_POINT('',(0.0,0.0,-101.6));
#497=DIRECTION('',(0.0,0.0,-1.0));
#498=DIRECTION('',(0.0,1.0,0.0));
#499=CARTESIAN_POINT('',(0.0,0.0,7.105427357601E-015));
#500=DIRECTION('',(0.0,0.0,-1.0));
#501=DIRECTION('',(0.0,1.0,0.0));
#502=SURFACE_STYLE_FILL_AREA(#543);
#503=ORIENTED_EDGE('',*,*,#150,.F.);
#504=ORIENTED_EDGE('',*,*,#120,.T.);
#505=ORIENTED_EDGE('',*,*,#92,.F.);
#506=ORIENTED_EDGE('',*,*,#102,.F.);
#507=CARTESIAN_POINT('',(0.0,0.0,-31.697));
#508=DIRECTION('',(-0.0,-0.0,1.0));
#509=DIRECTION('',(0.0,1.0,0.0));
#510=SURFACE_STYLE_FILL_AREA(#544);
#511=ORIENTED_EDGE('',*,*,#74,.F.);
#512=ORIENTED_EDGE('',*,*,#122,.F.);
#513=ORIENTED_EDGE('',*,*,#100,.F.);
#514=ORIENTED_EDGE('',*,*,#118,.F.);
#515=CARTESIAN_POINT('',(0.0,0.0,-89.350233334317));
#516=DIRECTION('',(-0.0,-0.0,1.0));
#517=DIRECTION('',(0.0,1.0,0.0));
#518=SURFACE_STYLE_FILL_AREA(#545);
#519=ORIENTED_EDGE('',*,*,#152,.F.);
#520=ORIENTED_EDGE('',*,*,#118,.T.);
#521=ORIENTED_EDGE('',*,*,#82,.F.);
#522=ORIENTED_EDGE('',*,*,#136,.F.);
#523=CARTESIAN_POINT('',(0.0,0.0,-101.350233334317));
#524=DIRECTION('',(-0.0,-0.0,1.0));
#525=DIRECTION('',(0.0,1.0,0.0));
#526=CARTESIAN_POINT('',(0.0,0.0,7.105427357601E-015));
#527=DIRECTION('',(0.0,0.0,-1.0));
#528=DIRECTION('',(0.0,1.0,0.0));
#529=DIRECTION('',(0.0,0.0,-1.0));
#530=DIRECTION('',(1.06054021204601E-016,-0.866025403784438,-0.500000000000001));
#531=CARTESIAN_POINT('',(0.0,0.0,-101.6));
#532=DIRECTION('',(0.0,0.0,-1.0));
#533=DIRECTION('',(0.0,1.0,0.0));
#534=FILL_AREA_STYLE('',(#546));
#535=FILL_AREA_STYLE('',(#547));
#536=FILL_AREA_STYLE('',(#548));
#537=FILL_AREA_STYLE('',(#549));
#538=FILL_AREA_STYLE('',(#550));
#539=FILL_AREA_STYLE('',(#551));
#540=FILL_AREA_STYLE('',(#552));
#541=FILL_AREA_STYLE('',(#553));
#542=FILL_AREA_STYLE('',(#554));
#543=FILL_AREA_STYLE('',(#555));
#544=FILL_AREA_STYLE('',(#556));
#545=FILL_AREA_STYLE('',(#557));
#546=FILL_AREA_STYLE_COLOUR('',#558);
#547=FILL_AREA_STYLE_COLOUR('',#559);
#548=FILL_AREA_STYLE_COLOUR('',#560);
#549=FILL_AREA_STYLE_COLOUR('',#561);
#550=FILL_AREA_STYLE_COLOUR('',#562);
#551=FILL_AREA_STYLE_COLOUR('',#563);
#552=FILL_AREA_STYLE_COLOUR('',#564);
#553=FILL_AREA_STYLE_COLOUR('',#565);
#554=FILL_AREA_STYLE_COLOUR('',#566);
#555=FILL_AREA_STYLE_COLOUR('',#567);
#556=FILL_AREA_STYLE_COLOUR('',#568);
#557=FILL_AREA_STYLE_COLOUR('',#569);
#558=COLOUR_RGB('',0.498039215803146,0.498039215803146,0.498039215803146);
#559=COLOUR_RGB('',0.498039215803146,0.498039215803146,0.498039215803146);
#560=COLOUR_RGB('',0.800000011920929,0.800000011920929,0.800000011920929);
#561=COLOUR_RGB('',0.498039215803146,0.498039215803146,0.498039215803146);
#562=COLOUR_RGB('',0.498039215803146,0.498039215803146,0.498039215803146);
#563=COLOUR_RGB('',0.498039215803146,0.498039215803146,0.498039215803146);
#564=COLOUR_RGB('',0.498039215803146,0.498039215803146,0.498039215803146);
#565=COLOUR_RGB('',0.800000011920929,0.800000011920929,0.800000011920929);
#566=COLOUR_RGB('',0.498039215803146,0.498039215803146,0.498039215803146);
#567=COLOUR_RGB('',0.498039215803146,0.498039215803146,0.498039215803146);
#568=COLOUR_RGB('',0.800000011920929,0.800000011920929,0.800000011920929);
#569=COLOUR_RGB('',0.800000011920929,0.800000011920929,0.800000011920929);
#570=AXIS2_PLACEMENT_3D('PCS',#571,#572,#573);
#571=CARTESIAN_POINT('',(0.0,0.0,0.0));
#572=DIRECTION('',(0.0,0.0,1.0));
#573=DIRECTION('',(1.0,0.0,0.0));
#574=AXIS2_PLACEMENT_3D('CIP',#575,#576,#577);
#575=CARTESIAN_POINT('',(0.0,0.0,-101.6));
#576=DIRECTION('',(0.0,0.0,1.0));
#577=DIRECTION('',(1.0,0.0,0.0));
#578=AXIS2_PLACEMENT_3D('CRP',#579,#580,#581);
#579=CARTESIAN_POINT('',(-6.2865,0.0,-101.6));
#580=DIRECTION('',(0.0,0.0,1.0));
#581=DIRECTION('',(1.0,0.0,0.0));
#582=AXIS2_PLACEMENT_3D('MCS',#583,#584,#585);
#583=CARTESIAN_POINT('',(0.0,0.0,-62.6));
#584=DIRECTION('',(0.0,0.0,1.0));
#585=DIRECTION('',(1.0,0.0,0.0));
#586=CONSTRUCTIVE_GEOMETRY_REPRESENTATION_RELATIONSHIP('coordinate systems',$,#58,#587);
#587=CONSTRUCTIVE_GEOMETRY_REPRESENTATION('coordinate systems',(#570,#574,#578,#582),#6);
ENDSEC;
END-ISO-10303-21;
