ISO-10303-21;
HEADER;
FILE_DESCRIPTION(('no description'),'unknown implementation level');
FILE_NAME('solidBtB8dKzhHbXVrGdBypExs7rE92Q_1.STP','  ',('CIMSOURCE GmbH'),('CADClick - KiM GmbH - www.kimweb.de'),'unknown preprocess','ACIS','unknown authorization');
FILE_SCHEMA(('automotive_design'));
ENDSEC;
DATA;
#1=MECHANICAL_DESIGN_GEOMETRIC_PRESENTATION_REPRESENTATION(' ',(#10,#11,#12,#13,#14,#15,#16,#17,#18,#19,#20,#21,#22,#23,#24,#25,#26,#27,#28,#29,#30,#31,#32,#33,#34,#35,#36,#37,#38,#39,#40,#41,#42,#43,#44,#45,#46,#47,#48,#49,#50,#51,#52,#53),#6);
#2=PRODUCT_DEFINITION_CONTEXT('',#54,'design');
#3=APPLICATION_PROTOCOL_DEFINITION('INTERNATIONAL STANDARD','automotive_design',1994,#54);
#4=PRODUCT_CATEGORY_RELATIONSHIP('NONE','NONE',#55,#56);
#5=SHAPE_DEFINITION_REPRESENTATION(#57,#58);
#6= (GEOMETRIC_REPRESENTATION_CONTEXT(3)GLOBAL_UNCERTAINTY_ASSIGNED_CONTEXT((#61))GLOBAL_UNIT_ASSIGNED_CONTEXT((#63,#64,#65))REPRESENTATION_CONTEXT('NONE','WORKSPACE'));
#10=STYLED_ITEM('',(#67),#68);
#11=STYLED_ITEM('',(#69),#70);
#12=STYLED_ITEM('',(#71),#72);
#13=STYLED_ITEM('',(#73),#74);
#14=STYLED_ITEM('',(#75),#76);
#15=STYLED_ITEM('',(#77),#78);
#16=STYLED_ITEM('',(#79),#80);
#17=STYLED_ITEM('',(#81),#82);
#18=STYLED_ITEM('',(#83),#84);
#19=STYLED_ITEM('',(#85),#86);
#20=STYLED_ITEM('',(#87),#88);
#21=STYLED_ITEM('',(#89),#90);
#22=STYLED_ITEM('',(#91),#92);
#23=STYLED_ITEM('',(#93),#94);
#24=STYLED_ITEM('',(#95),#96);
#25=STYLED_ITEM('',(#97),#98);
#26=STYLED_ITEM('',(#99),#100);
#27=STYLED_ITEM('',(#101),#102);
#28=STYLED_ITEM('',(#103),#104);
#29=STYLED_ITEM('',(#105),#106);
#30=STYLED_ITEM('',(#107),#108);
#31=STYLED_ITEM('',(#109),#110);
#32=STYLED_ITEM('',(#111),#112);
#33=STYLED_ITEM('',(#113),#114);
#34=STYLED_ITEM('',(#115),#116);
#35=STYLED_ITEM('',(#117),#118);
#36=STYLED_ITEM('',(#119),#120);
#37=STYLED_ITEM('',(#121),#122);
#38=STYLED_ITEM('',(#123),#124);
#39=STYLED_ITEM('',(#125),#126);
#40=STYLED_ITEM('',(#127),#128);
#41=STYLED_ITEM('',(#129),#130);
#42=STYLED_ITEM('',(#131),#132);
#43=STYLED_ITEM('',(#133),#134);
#44=STYLED_ITEM('',(#135),#136);
#45=STYLED_ITEM('',(#137),#138);
#46=STYLED_ITEM('',(#139),#140);
#47=STYLED_ITEM('',(#141),#142);
#48=STYLED_ITEM('',(#143),#144);
#49=STYLED_ITEM('',(#145),#146);
#50=STYLED_ITEM('',(#147),#148);
#51=STYLED_ITEM('',(#149),#150);
#52=STYLED_ITEM('',(#151),#152);
#53=STYLED_ITEM('',(#153),#154);
#54=APPLICATION_CONTEXT(' ');
#55=PRODUCT_CATEGORY('part','NONE');
#56=PRODUCT_RELATED_PRODUCT_CATEGORY('detail',' ',(#155));
#57=PRODUCT_DEFINITION_SHAPE('NONE','NONE',#156);
#58=ADVANCED_BREP_SHAPE_REPRESENTATION('1',(#110,#157),#6);
#61=UNCERTAINTY_MEASURE_WITH_UNIT(LENGTH_MEASURE(1.0E-006),#63,'','');
#63= (CONVERSION_BASED_UNIT('MILLIMETRE',#160)LENGTH_UNIT()NAMED_UNIT(#163));
#64= (NAMED_UNIT(#165)PLANE_ANGLE_UNIT()SI_UNIT($,.RADIAN.));
#65= (NAMED_UNIT(#165)SOLID_ANGLE_UNIT()SI_UNIT($,.STERADIAN.));
#67=PRESENTATION_STYLE_ASSIGNMENT((#171));
#68=VERTEX_POINT('',#172);
#69=PRESENTATION_STYLE_ASSIGNMENT((#173));
#70=EDGE_CURVE('',#146,#84,#174,.T.);
#71=PRESENTATION_STYLE_ASSIGNMENT((#175));
#72=EDGE_CURVE('',#106,#84,#176,.T.);
#73=PRESENTATION_STYLE_ASSIGNMENT((#177));
#74=EDGE_CURVE('',#146,#100,#178,.T.);
#75=PRESENTATION_STYLE_ASSIGNMENT((#179));
#76=EDGE_CURVE('',#108,#146,#180,.T.);
#77=PRESENTATION_STYLE_ASSIGNMENT((#181));
#78=EDGE_CURVE('',#82,#68,#182,.T.);
#79=PRESENTATION_STYLE_ASSIGNMENT((#183));
#80=EDGE_CURVE('',#84,#146,#184,.T.);
#81=PRESENTATION_STYLE_ASSIGNMENT((#185));
#82=VERTEX_POINT('',#186);
#83=PRESENTATION_STYLE_ASSIGNMENT((#187));
#84=VERTEX_POINT('',#188);
#85=PRESENTATION_STYLE_ASSIGNMENT((#189));
#86=ADVANCED_FACE('',(#190,#191),#192,.T.);
#87=PRESENTATION_STYLE_ASSIGNMENT((#193));
#88=ADVANCED_FACE('',(#194),#195,.T.);
#89=PRESENTATION_STYLE_ASSIGNMENT((#196));
#90=ADVANCED_FACE('',(#197),#198,.T.);
#91=PRESENTATION_STYLE_ASSIGNMENT((#199));
#92=EDGE_CURVE('',#68,#82,#200,.T.);
#93=PRESENTATION_STYLE_ASSIGNMENT((#201));
#94=EDGE_CURVE('',#68,#116,#202,.T.);
#95=PRESENTATION_STYLE_ASSIGNMENT((#203));
#96=EDGE_CURVE('',#104,#82,#204,.T.);
#97=PRESENTATION_STYLE_ASSIGNMENT((#205));
#98=VERTEX_POINT('',#206);
#99=PRESENTATION_STYLE_ASSIGNMENT((#207));
#100=VERTEX_POINT('',#208);
#101=PRESENTATION_STYLE_ASSIGNMENT((#209));
#102=EDGE_CURVE('',#108,#144,#210,.T.);
#103=PRESENTATION_STYLE_ASSIGNMENT((#211));
#104=VERTEX_POINT('',#212);
#105=PRESENTATION_STYLE_ASSIGNMENT((#213));
#106=VERTEX_POINT('',#214);
#107=PRESENTATION_STYLE_ASSIGNMENT((#215));
#108=VERTEX_POINT('',#216);
#109=PRESENTATION_STYLE_ASSIGNMENT((#217));
#110=MANIFOLD_SOLID_BREP('1',#218);
#111=PRESENTATION_STYLE_ASSIGNMENT((#219));
#112=ADVANCED_FACE('',(#220),#221,.T.);
#113=PRESENTATION_STYLE_ASSIGNMENT((#222));
#114=EDGE_CURVE('',#100,#106,#223,.T.);
#115=PRESENTATION_STYLE_ASSIGNMENT((#224));
#116=VERTEX_POINT('',#225);
#117=PRESENTATION_STYLE_ASSIGNMENT((#226));
#118=ADVANCED_FACE('',(#227),#228,.T.);
#119=PRESENTATION_STYLE_ASSIGNMENT((#229));
#120=ADVANCED_FACE('',(#230),#231,.T.);
#121=PRESENTATION_STYLE_ASSIGNMENT((#232));
#122=EDGE_CURVE('',#142,#68,#233,.T.);
#123=PRESENTATION_STYLE_ASSIGNMENT((#234));
#124=EDGE_CURVE('',#104,#116,#235,.T.);
#125=PRESENTATION_STYLE_ASSIGNMENT((#236));
#126=EDGE_CURVE('',#82,#98,#237,.T.);
#127=PRESENTATION_STYLE_ASSIGNMENT((#238));
#128=ADVANCED_FACE('',(#239),#240,.T.);
#129=PRESENTATION_STYLE_ASSIGNMENT((#241));
#130=ADVANCED_FACE('',(#242),#243,.T.);
#131=PRESENTATION_STYLE_ASSIGNMENT((#244));
#132=ADVANCED_FACE('',(#245),#246,.T.);
#133=PRESENTATION_STYLE_ASSIGNMENT((#247));
#134=EDGE_CURVE('',#116,#104,#248,.T.);
#135=PRESENTATION_STYLE_ASSIGNMENT((#249));
#136=EDGE_CURVE('',#98,#142,#250,.T.);
#137=PRESENTATION_STYLE_ASSIGNMENT((#251));
#138=EDGE_CURVE('',#84,#144,#252,.T.);
#139=PRESENTATION_STYLE_ASSIGNMENT((#253));
#140=EDGE_CURVE('',#142,#98,#254,.T.);
#141=PRESENTATION_STYLE_ASSIGNMENT((#255));
#142=VERTEX_POINT('',#256);
#143=PRESENTATION_STYLE_ASSIGNMENT((#257));
#144=VERTEX_POINT('',#258);
#145=PRESENTATION_STYLE_ASSIGNMENT((#259));
#146=VERTEX_POINT('',#260);
#147=PRESENTATION_STYLE_ASSIGNMENT((#261));
#148=ADVANCED_FACE('',(#262),#263,.T.);
#149=PRESENTATION_STYLE_ASSIGNMENT((#264));
#150=ADVANCED_FACE('',(#265),#266,.T.);
#151=PRESENTATION_STYLE_ASSIGNMENT((#267));
#152=EDGE_CURVE('',#106,#100,#268,.T.);
#153=PRESENTATION_STYLE_ASSIGNMENT((#269));
#154=EDGE_CURVE('',#144,#108,#270,.T.);
#155=PRODUCT('1','1','PART-1-DESC',(#271));
#156=PRODUCT_DEFINITION('NONE','NONE',#272,#2);
#157=AXIS2_PLACEMENT_3D('',#273,#274,#275);
#160=LENGTH_MEASURE_WITH_UNIT(LENGTH_MEASURE(1.0),#276);
#163=DIMENSIONAL_EXPONENTS(1.0,0.0,0.0,0.0,0.0,0.0,0.0);
#165=DIMENSIONAL_EXPONENTS(0.0,0.0,0.0,0.0,0.0,0.0,0.0);
#171=POINT_STYLE(' ',#277,POSITIVE_LENGTH_MEASURE(1.0E-006),#278);
#172=CARTESIAN_POINT('',(0.0,7.9375,-0.79399999999999));
#173=CURVE_STYLE('',#279,POSITIVE_LENGTH_MEASURE(1.0E-006),#280);
#174=CIRCLE('',#281,7.874);
#175=CURVE_STYLE('',#282,POSITIVE_LENGTH_MEASURE(1.0E-006),#283);
#176=LINE('',#284,#285);
#177=CURVE_STYLE('',#286,POSITIVE_LENGTH_MEASURE(1.0E-006),#287);
#178=LINE('',#288,#289);
#179=CURVE_STYLE('',#290,POSITIVE_LENGTH_MEASURE(1.0E-006),#291);
#180=LINE('',#292,#293);
#181=CURVE_STYLE('',#294,POSITIVE_LENGTH_MEASURE(1.0E-006),#295);
#182=CIRCLE('',#296,7.9375);
#183=CURVE_STYLE('',#297,POSITIVE_LENGTH_MEASURE(1.0E-006),#298);
#184=CIRCLE('',#299,7.874);
#185=POINT_STYLE(' ',#300,POSITIVE_LENGTH_MEASURE(1.0E-006),#301);
#186=CARTESIAN_POINT('',(9.72031293346512E-016,-7.9375,-0.79399999999999));
#187=POINT_STYLE(' ',#302,POSITIVE_LENGTH_MEASURE(1.0E-006),#303);
#188=CARTESIAN_POINT('',(9.6425504299974E-016,-7.874,-100.700840002387));
#189=SURFACE_STYLE_USAGE(.BOTH.,#304);
#190=FACE_BOUND('',#305,.T.);
#191=FACE_OUTER_BOUND('',#306,.T.);
#192=PLANE('',#307);
#193=SURFACE_STYLE_USAGE(.BOTH.,#308);
#194=FACE_OUTER_BOUND('',#309,.T.);
#195=CONICAL_SURFACE('',#310,7.0953046,1.0471975511966);
#196=SURFACE_STYLE_USAGE(.BOTH.,#311);
#197=FACE_OUTER_BOUND('',#312,.T.);
#198=CYLINDRICAL_SURFACE('',#313,7.9375);
#199=CURVE_STYLE('',#314,POSITIVE_LENGTH_MEASURE(1.0E-006),#315);
#200=CIRCLE('',#316,7.9375);
#201=CURVE_STYLE('',#317,POSITIVE_LENGTH_MEASURE(1.0E-006),#318);
#202=LINE('',#319,#320);
#203=CURVE_STYLE('',#321,POSITIVE_LENGTH_MEASURE(1.0E-006),#322);
#204=LINE('',#323,#324);
#205=POINT_STYLE(' ',#325,POSITIVE_LENGTH_MEASURE(1.0E-006),#326);
#206=CARTESIAN_POINT('',(9.15893364788876E-016,-7.47908388626344,7.105427357601E-015));
#207=POINT_STYLE(' ',#327,POSITIVE_LENGTH_MEASURE(1.0E-006),#328);
#208=CARTESIAN_POINT('',(0.0,6.3166092,-101.6));
#209=CURVE_STYLE('',#329,POSITIVE_LENGTH_MEASURE(1.0E-006),#330);
#210=CIRCLE('',#331,7.874);
#211=POINT_STYLE(' ',#332,POSITIVE_LENGTH_MEASURE(1.0E-006),#333);
#212=CARTESIAN_POINT('',(0.0,-7.9375,-71.1));
#213=POINT_STYLE(' ',#334,POSITIVE_LENGTH_MEASURE(1.0E-006),#335);
#214=CARTESIAN_POINT('',(7.73535976093288E-016,-6.3166092,-101.6));
#215=POINT_STYLE(' ',#336,POSITIVE_LENGTH_MEASURE(1.0E-006),#337);
#216=CARTESIAN_POINT('',(0.0,7.874,-71.1));
#217=SURFACE_STYLE_USAGE(.BOTH.,#338);
#218=CLOSED_SHELL('',(#90,#118,#120,#130,#112,#88,#86,#150,#148,#128,#132));
#219=SURFACE_STYLE_USAGE(.BOTH.,#339);
#220=FACE_OUTER_BOUND('',#340,.T.);
#221=CYLINDRICAL_SURFACE('',#341,7.874);
#222=CURVE_STYLE('',#342,POSITIVE_LENGTH_MEASURE(1.0E-006),#343);
#223=CIRCLE('',#344,6.3166092);
#224=POINT_STYLE(' ',#345,POSITIVE_LENGTH_MEASURE(1.0E-006),#346);
#225=CARTESIAN_POINT('',(-9.72031293346512E-016,7.9375,-71.1));
#226=SURFACE_STYLE_USAGE(.BOTH.,#347);
#227=FACE_OUTER_BOUND('',#348,.T.);
#228=CONICAL_SURFACE('',#349,7.70829194313172,0.523598775598301);
#229=SURFACE_STYLE_USAGE(.BOTH.,#350);
#230=FACE_OUTER_BOUND('',#351,.T.);
#231=CONICAL_SURFACE('',#352,7.0953046,1.0471975511966);
#232=CURVE_STYLE('',#353,POSITIVE_LENGTH_MEASURE(1.0E-006),#354);
#233=LINE('',#355,#356);
#234=CURVE_STYLE('',#357,POSITIVE_LENGTH_MEASURE(1.0E-006),#358);
#235=CIRCLE('',#359,7.9375);
#236=CURVE_STYLE('',#360,POSITIVE_LENGTH_MEASURE(1.0E-006),#361);
#237=LINE('',#362,#363);
#238=SURFACE_STYLE_USAGE(.BOTH.,#364);
#239=FACE_OUTER_BOUND('',#365,.T.);
#240=CYLINDRICAL_SURFACE('',#366,7.9375);
#241=SURFACE_STYLE_USAGE(.BOTH.,#367);
#242=FACE_OUTER_BOUND('',#368,.T.);
#243=CYLINDRICAL_SURFACE('',#369,7.874);
#244=SURFACE_STYLE_USAGE(.BOTH.,#370);
#245=FACE_OUTER_BOUND('',#371,.T.);
#246=PLANE('',#372);
#247=CURVE_STYLE('',#373,POSITIVE_LENGTH_MEASURE(1.0E-006),#374);
#248=CIRCLE('',#375,7.9375);
#249=CURVE_STYLE('',#376,POSITIVE_LENGTH_MEASURE(1.0E-006),#377);
#250=CIRCLE('',#378,7.47908388626344);
#251=CURVE_STYLE('',#379,POSITIVE_LENGTH_MEASURE(1.0E-006),#380);
#252=LINE('',#381,#382);
#253=CURVE_STYLE('',#383,POSITIVE_LENGTH_MEASURE(1.0E-006),#384);
#254=CIRCLE('',#385,7.47908388626344);
#255=POINT_STYLE(' ',#386,POSITIVE_LENGTH_MEASURE(1.0E-006),#387);
#256=CARTESIAN_POINT('',(0.0,7.47908388626344,7.105427357601E-015));
#257=POINT_STYLE(' ',#388,POSITIVE_LENGTH_MEASURE(1.0E-006),#389);
#258=CARTESIAN_POINT('',(9.6425504299974E-016,-7.874,-71.1));
#259=POINT_STYLE(' ',#390,POSITIVE_LENGTH_MEASURE(1.0E-006),#391);
#260=CARTESIAN_POINT('',(0.0,7.874,-100.700840002387));
#261=SURFACE_STYLE_USAGE(.BOTH.,#392);
#262=FACE_OUTER_BOUND('',#393,.T.);
#263=CONICAL_SURFACE('',#394,7.70829194313172,0.523598775598301);
#264=SURFACE_STYLE_USAGE(.BOTH.,#395);
#265=FACE_OUTER_BOUND('',#396,.T.);
#266=PLANE('',#397);
#267=CURVE_STYLE('',#398,POSITIVE_LENGTH_MEASURE(1.0E-006),#399);
#268=CIRCLE('',#400,6.3166092);
#269=CURVE_STYLE('',#401,POSITIVE_LENGTH_MEASURE(1.0E-006),#402);
#270=CIRCLE('',#403,7.874);
#271=PRODUCT_CONTEXT('',#54,'mechanical');
#272=PRODUCT_DEFINITION_FORMATION_WITH_SPECIFIED_SOURCE(' ','NONE',#155,.NOT_KNOWN.);
#273=CARTESIAN_POINT('',(0.0,0.0,0.0));
#274=DIRECTION('',(0.0,0.0,1.0));
#275=DIRECTION('',(1.0,0.0,0.0));
#276= (NAMED_UNIT(#163)LENGTH_UNIT()SI_UNIT(.MILLI.,.METRE.));
#277=PRE_DEFINED_MARKER('');
#278=COLOUR_RGB('',0.498039215803146,0.498039215803146,0.498039215803146);
#279=DRAUGHTING_PRE_DEFINED_CURVE_FONT('continuous');
#280=COLOUR_RGB('',0.800000011920929,0.800000011920929,0.800000011920929);
#281=AXIS2_PLACEMENT_3D('',#405,#406,#407);
#282=DRAUGHTING_PRE_DEFINED_CURVE_FONT('continuous');
#283=COLOUR_RGB('',0.800000011920929,0.800000011920929,0.800000011920929);
#284=CARTESIAN_POINT('',(8.68895509546514E-016,-7.0953046,-101.150420001193));
#285=VECTOR('',#408,1.0);
#286=DRAUGHTING_PRE_DEFINED_CURVE_FONT('continuous');
#287=COLOUR_RGB('',0.800000011920929,0.800000011920929,0.800000011920929);
#288=CARTESIAN_POINT('',(-8.68895509546514E-016,7.0953046,-101.150420001193));
#289=VECTOR('',#409,1.0);
#290=DRAUGHTING_PRE_DEFINED_CURVE_FONT('continuous');
#291=COLOUR_RGB('',0.800000011920929,0.800000011920929,0.800000011920929);
#292=CARTESIAN_POINT('',(-9.6425504299974E-016,7.874,-85.9004200011933));
#293=VECTOR('',#410,1.0);
#294=DRAUGHTING_PRE_DEFINED_CURVE_FONT('continuous');
#295=COLOUR_RGB('',0.498039215803146,0.498039215803146,0.498039215803146);
#296=AXIS2_PLACEMENT_3D('',#411,#412,#413);
#297=DRAUGHTING_PRE_DEFINED_CURVE_FONT('continuous');
#298=COLOUR_RGB('',0.800000011920929,0.800000011920929,0.800000011920929);
#299=AXIS2_PLACEMENT_3D('',#414,#415,#416);
#300=PRE_DEFINED_MARKER('');
#301=COLOUR_RGB('',0.498039215803146,0.498039215803146,0.498039215803146);
#302=PRE_DEFINED_MARKER('');
#303=COLOUR_RGB('',0.800000011920929,0.800000011920929,0.800000011920929);
#304=SURFACE_SIDE_STYLE('',(#417));
#305=EDGE_LOOP('',(#418,#419));
#306=EDGE_LOOP('',(#420,#421));
#307=AXIS2_PLACEMENT_3D('',#422,#423,#424);
#308=SURFACE_SIDE_STYLE('',(#425));
#309=EDGE_LOOP('',(#426,#427,#428,#429));
#310=AXIS2_PLACEMENT_3D('',#430,#431,#432);
#311=SURFACE_SIDE_STYLE('',(#433));
#312=EDGE_LOOP('',(#434,#435,#436,#437));
#313=AXIS2_PLACEMENT_3D('',#438,#439,#440);
#314=DRAUGHTING_PRE_DEFINED_CURVE_FONT('continuous');
#315=COLOUR_RGB('',0.498039215803146,0.498039215803146,0.498039215803146);
#316=AXIS2_PLACEMENT_3D('',#441,#442,#443);
#317=DRAUGHTING_PRE_DEFINED_CURVE_FONT('continuous');
#318=COLOUR_RGB('',0.498039215803146,0.498039215803146,0.498039215803146);
#319=CARTESIAN_POINT('',(-9.72031293346512E-016,7.9375,-29.447));
#320=VECTOR('',#444,1.0);
#321=DRAUGHTING_PRE_DEFINED_CURVE_FONT('continuous');
#322=COLOUR_RGB('',0.498039215803146,0.498039215803146,0.498039215803146);
#323=CARTESIAN_POINT('',(9.72031293346512E-016,-7.9375,-29.447));
#324=VECTOR('',#445,1.0);
#325=PRE_DEFINED_MARKER('');
#326=COLOUR_RGB('',0.498039215803146,0.498039215803146,0.498039215803146);
#327=PRE_DEFINED_MARKER('');
#328=COLOUR_RGB('',0.498039215803146,0.498039215803146,0.498039215803146);
#329=DRAUGHTING_PRE_DEFINED_CURVE_FONT('continuous');
#330=COLOUR_RGB('',0.498039215803146,0.498039215803146,0.498039215803146);
#331=AXIS2_PLACEMENT_3D('',#446,#447,#448);
#332=PRE_DEFINED_MARKER('');
#333=COLOUR_RGB('',0.498039215803146,0.498039215803146,0.498039215803146);
#334=PRE_DEFINED_MARKER('');
#335=COLOUR_RGB('',0.498039215803146,0.498039215803146,0.498039215803146);
#336=PRE_DEFINED_MARKER('');
#337=COLOUR_RGB('',0.498039215803146,0.498039215803146,0.498039215803146);
#338=SURFACE_SIDE_STYLE('',(#449));
#339=SURFACE_SIDE_STYLE('',(#450));
#340=EDGE_LOOP('',(#451,#452,#453,#454));
#341=AXIS2_PLACEMENT_3D('',#455,#456,#457);
#342=DRAUGHTING_PRE_DEFINED_CURVE_FONT('continuous');
#343=COLOUR_RGB('',0.498039215803146,0.498039215803146,0.498039215803146);
#344=AXIS2_PLACEMENT_3D('',#458,#459,#460);
#345=PRE_DEFINED_MARKER('');
#346=COLOUR_RGB('',0.498039215803146,0.498039215803146,0.498039215803146);
#347=SURFACE_SIDE_STYLE('',(#461));
#348=EDGE_LOOP('',(#462,#463,#464,#465));
#349=AXIS2_PLACEMENT_3D('',#466,#467,#468);
#350=SURFACE_SIDE_STYLE('',(#469));
#351=EDGE_LOOP('',(#470,#471,#472,#473));
#352=AXIS2_PLACEMENT_3D('',#474,#475,#476);
#353=DRAUGHTING_PRE_DEFINED_CURVE_FONT('continuous');
#354=COLOUR_RGB('',0.498039215803146,0.498039215803146,0.498039215803146);
#355=CARTESIAN_POINT('',(-9.43962329067694E-016,7.70829194313172,-0.396999999999991));
#356=VECTOR('',#477,1.0);
#357=DRAUGHTING_PRE_DEFINED_CURVE_FONT('continuous');
#358=COLOUR_RGB('',0.498039215803146,0.498039215803146,0.498039215803146);
#359=AXIS2_PLACEMENT_3D('',#478,#479,#480);
#360=DRAUGHTING_PRE_DEFINED_CURVE_FONT('continuous');
#361=COLOUR_RGB('',0.498039215803146,0.498039215803146,0.498039215803146);
#362=CARTESIAN_POINT('',(9.43962329067694E-016,-7.70829194313172,-0.396999999999991));
#363=VECTOR('',#481,1.0);
#364=SURFACE_SIDE_STYLE('',(#482));
#365=EDGE_LOOP('',(#483,#484,#485,#486));
#366=AXIS2_PLACEMENT_3D('',#487,#488,#489);
#367=SURFACE_SIDE_STYLE('',(#490));
#368=EDGE_LOOP('',(#491,#492,#493,#494));
#369=AXIS2_PLACEMENT_3D('',#495,#496,#497);
#370=SURFACE_SIDE_STYLE('',(#498));
#371=EDGE_LOOP('',(#499,#500));
#372=AXIS2_PLACEMENT_3D('',#501,#502,#503);
#373=DRAUGHTING_PRE_DEFINED_CURVE_FONT('continuous');
#374=COLOUR_RGB('',0.498039215803146,0.498039215803146,0.498039215803146);
#375=AXIS2_PLACEMENT_3D('',#504,#505,#506);
#376=DRAUGHTING_PRE_DEFINED_CURVE_FONT('continuous');
#377=COLOUR_RGB('',0.498039215803146,0.498039215803146,0.498039215803146);
#378=AXIS2_PLACEMENT_3D('',#507,#508,#509);
#379=DRAUGHTING_PRE_DEFINED_CURVE_FONT('continuous');
#380=COLOUR_RGB('',0.800000011920929,0.800000011920929,0.800000011920929);
#381=CARTESIAN_POINT('',(9.6425504299974E-016,-7.874,-85.9004200011933));
#382=VECTOR('',#510,1.0);
#383=DRAUGHTING_PRE_DEFINED_CURVE_FONT('continuous');
#384=COLOUR_RGB('',0.498039215803146,0.498039215803146,0.498039215803146);
#385=AXIS2_PLACEMENT_3D('',#511,#512,#513);
#386=PRE_DEFINED_MARKER('');
#387=COLOUR_RGB('',0.498039215803146,0.498039215803146,0.498039215803146);
#388=PRE_DEFINED_MARKER('');
#389=COLOUR_RGB('',0.498039215803146,0.498039215803146,0.498039215803146);
#390=PRE_DEFINED_MARKER('');
#391=COLOUR_RGB('',0.800000011920929,0.800000011920929,0.800000011920929);
#392=SURFACE_SIDE_STYLE('',(#514));
#393=EDGE_LOOP('',(#515,#516,#517,#518));
#394=AXIS2_PLACEMENT_3D('',#519,#520,#521);
#395=SURFACE_SIDE_STYLE('',(#522));
#396=EDGE_LOOP('',(#523,#524));
#397=AXIS2_PLACEMENT_3D('',#525,#526,#527);
#398=DRAUGHTING_PRE_DEFINED_CURVE_FONT('continuous');
#399=COLOUR_RGB('',0.498039215803146,0.498039215803146,0.498039215803146);
#400=AXIS2_PLACEMENT_3D('',#528,#529,#530);
#401=DRAUGHTING_PRE_DEFINED_CURVE_FONT('continuous');
#402=COLOUR_RGB('',0.498039215803146,0.498039215803146,0.498039215803146);
#403=AXIS2_PLACEMENT_3D('',#531,#532,#533);
#405=CARTESIAN_POINT('',(0.0,0.0,-100.700840002387));
#406=DIRECTION('',(0.0,0.0,-1.0));
#407=DIRECTION('',(0.0,1.0,0.0));
#408=DIRECTION('',(1.06054021204601E-016,-0.866025403784439,0.499999999999999));
#409=DIRECTION('',(1.06054021204601E-016,-0.866025403784439,-0.499999999999999));
#410=DIRECTION('',(0.0,0.0,-1.0));
#411=CARTESIAN_POINT('',(0.0,0.0,-0.79399999999999));
#412=DIRECTION('',(0.0,0.0,-1.0));
#413=DIRECTION('',(0.0,1.0,0.0));
#414=CARTESIAN_POINT('',(0.0,0.0,-100.700840002387));
#415=DIRECTION('',(0.0,0.0,-1.0));
#416=DIRECTION('',(0.0,1.0,0.0));
#417=SURFACE_STYLE_FILL_AREA(#534);
#418=ORIENTED_EDGE('',*,*,#102,.T.);
#419=ORIENTED_EDGE('',*,*,#154,.T.);
#420=ORIENTED_EDGE('',*,*,#124,.T.);
#421=ORIENTED_EDGE('',*,*,#134,.T.);
#422=CARTESIAN_POINT('',(0.0,0.0,-71.1));
#423=DIRECTION('',(0.0,0.0,-1.0));
#424=DIRECTION('',(0.0,-1.0,0.0));
#425=SURFACE_STYLE_FILL_AREA(#535);
#426=ORIENTED_EDGE('',*,*,#74,.T.);
#427=ORIENTED_EDGE('',*,*,#152,.F.);
#428=ORIENTED_EDGE('',*,*,#72,.T.);
#429=ORIENTED_EDGE('',*,*,#80,.T.);
#430=CARTESIAN_POINT('',(0.0,0.0,-101.150420001193));
#431=DIRECTION('',(-0.0,-0.0,1.0));
#432=DIRECTION('',(0.0,1.0,0.0));
#433=SURFACE_STYLE_FILL_AREA(#536);
#434=ORIENTED_EDGE('',*,*,#94,.F.);
#435=ORIENTED_EDGE('',*,*,#92,.T.);
#436=ORIENTED_EDGE('',*,*,#96,.F.);
#437=ORIENTED_EDGE('',*,*,#134,.F.);
#438=CARTESIAN_POINT('',(0.0,0.0,-29.447));
#439=DIRECTION('',(-0.0,-0.0,1.0));
#440=DIRECTION('',(0.0,1.0,0.0));
#441=CARTESIAN_POINT('',(0.0,0.0,-0.79399999999999));
#442=DIRECTION('',(0.0,0.0,-1.0));
#443=DIRECTION('',(0.0,1.0,0.0));
#444=DIRECTION('',(0.0,0.0,-1.0));
#445=DIRECTION('',(-0.0,-0.0,1.0));
#446=CARTESIAN_POINT('',(0.0,0.0,-71.1));
#447=DIRECTION('',(0.0,-0.0,1.0));
#448=DIRECTION('',(0.0,1.0,0.0));
#449=SURFACE_STYLE_FILL_AREA(#537);
#450=SURFACE_STYLE_FILL_AREA(#538);
#451=ORIENTED_EDGE('',*,*,#76,.T.);
#452=ORIENTED_EDGE('',*,*,#80,.F.);
#453=ORIENTED_EDGE('',*,*,#138,.T.);
#454=ORIENTED_EDGE('',*,*,#102,.F.);
#455=CARTESIAN_POINT('',(0.0,0.0,-85.9004200011933));
#456=DIRECTION('',(-0.0,-0.0,1.0));
#457=DIRECTION('',(0.0,1.0,0.0));
#458=CARTESIAN_POINT('',(0.0,0.0,-101.6));
#459=DIRECTION('',(0.0,0.0,-1.0));
#460=DIRECTION('',(0.0,1.0,0.0));
#461=SURFACE_STYLE_FILL_AREA(#539);
#462=ORIENTED_EDGE('',*,*,#122,.F.);
#463=ORIENTED_EDGE('',*,*,#140,.T.);
#464=ORIENTED_EDGE('',*,*,#126,.F.);
#465=ORIENTED_EDGE('',*,*,#92,.F.);
#466=CARTESIAN_POINT('',(0.0,0.0,-0.396999999999991));
#467=DIRECTION('',(0.0,-0.0,-1.0));
#468=DIRECTION('',(0.0,1.0,0.0));
#469=SURFACE_STYLE_FILL_AREA(#540);
#470=ORIENTED_EDGE('',*,*,#74,.F.);
#471=ORIENTED_EDGE('',*,*,#70,.T.);
#472=ORIENTED_EDGE('',*,*,#72,.F.);
#473=ORIENTED_EDGE('',*,*,#114,.F.);
#474=CARTESIAN_POINT('',(0.0,0.0,-101.150420001193));
#475=DIRECTION('',(-0.0,-0.0,1.0));
#476=DIRECTION('',(0.0,1.0,0.0));
#477=DIRECTION('',(-6.12303176911191E-017,0.500000000000002,-0.866025403784438));
#478=CARTESIAN_POINT('',(0.0,0.0,-71.1));
#479=DIRECTION('',(0.0,0.0,-1.0));
#480=DIRECTION('',(0.0,-1.0,0.0));
#481=DIRECTION('',(-6.12303176911191E-017,0.500000000000002,0.866025403784438));
#482=SURFACE_STYLE_FILL_AREA(#541);
#483=ORIENTED_EDGE('',*,*,#94,.T.);
#484=ORIENTED_EDGE('',*,*,#124,.F.);
#485=ORIENTED_EDGE('',*,*,#96,.T.);
#486=ORIENTED_EDGE('',*,*,#78,.T.);
#487=CARTESIAN_POINT('',(0.0,0.0,-29.447));
#488=DIRECTION('',(-0.0,-0.0,1.0));
#489=DIRECTION('',(0.0,1.0,0.0));
#490=SURFACE_STYLE_FILL_AREA(#542);
#491=ORIENTED_EDGE('',*,*,#76,.F.);
#492=ORIENTED_EDGE('',*,*,#154,.F.);
#493=ORIENTED_EDGE('',*,*,#138,.F.);
#494=ORIENTED_EDGE('',*,*,#70,.F.);
#495=CARTESIAN_POINT('',(0.0,0.0,-85.9004200011933));
#496=DIRECTION('',(-0.0,-0.0,1.0));
#497=DIRECTION('',(0.0,1.0,0.0));
#498=SURFACE_STYLE_FILL_AREA(#543);
#499=ORIENTED_EDGE('',*,*,#114,.T.);
#500=ORIENTED_EDGE('',*,*,#152,.T.);
#501=CARTESIAN_POINT('',(0.0,3.1583046,-101.6));
#502=DIRECTION('',(0.0,0.0,-1.0));
#503=DIRECTION('',(0.0,1.0,0.0));
#504=CARTESIAN_POINT('',(0.0,0.0,-71.1));
#505=DIRECTION('',(0.0,0.0,-1.0));
#506=DIRECTION('',(0.0,-1.0,0.0));
#507=CARTESIAN_POINT('',(0.0,0.0,7.105427357601E-015));
#508=DIRECTION('',(0.0,0.0,-1.0));
#509=DIRECTION('',(0.0,1.0,0.0));
#510=DIRECTION('',(-0.0,-0.0,1.0));
#511=CARTESIAN_POINT('',(0.0,0.0,7.105427357601E-015));
#512=DIRECTION('',(0.0,0.0,-1.0));
#513=DIRECTION('',(0.0,1.0,0.0));
#514=SURFACE_STYLE_FILL_AREA(#544);
#515=ORIENTED_EDGE('',*,*,#122,.T.);
#516=ORIENTED_EDGE('',*,*,#78,.F.);
#517=ORIENTED_EDGE('',*,*,#126,.T.);
#518=ORIENTED_EDGE('',*,*,#136,.T.);
#519=CARTESIAN_POINT('',(0.0,0.0,-0.396999999999991));
#520=DIRECTION('',(0.0,-0.0,-1.0));
#521=DIRECTION('',(0.0,1.0,0.0));
#522=SURFACE_STYLE_FILL_AREA(#545);
#523=ORIENTED_EDGE('',*,*,#140,.F.);
#524=ORIENTED_EDGE('',*,*,#136,.F.);
#525=CARTESIAN_POINT('',(0.0,3.73954194313172,7.105427357601E-015));
#526=DIRECTION('',(-0.0,0.0,1.0));
#527=DIRECTION('',(0.0,-1.0,0.0));
#528=CARTESIAN_POINT('',(0.0,0.0,-101.6));
#529=DIRECTION('',(0.0,0.0,-1.0));
#530=DIRECTION('',(0.0,1.0,0.0));
#531=CARTESIAN_POINT('',(0.0,0.0,-71.1));
#532=DIRECTION('',(0.0,-0.0,1.0));
#533=DIRECTION('',(0.0,1.0,0.0));
#534=FILL_AREA_STYLE('',(#546));
#535=FILL_AREA_STYLE('',(#547));
#536=FILL_AREA_STYLE('',(#548));
#537=FILL_AREA_STYLE('',(#549));
#538=FILL_AREA_STYLE('',(#550));
#539=FILL_AREA_STYLE('',(#551));
#540=FILL_AREA_STYLE('',(#552));
#541=FILL_AREA_STYLE('',(#553));
#542=FILL_AREA_STYLE('',(#554));
#543=FILL_AREA_STYLE('',(#555));
#544=FILL_AREA_STYLE('',(#556));
#545=FILL_AREA_STYLE('',(#557));
#546=FILL_AREA_STYLE_COLOUR('',#558);
#547=FILL_AREA_STYLE_COLOUR('',#559);
#548=FILL_AREA_STYLE_COLOUR('',#560);
#549=FILL_AREA_STYLE_COLOUR('',#561);
#550=FILL_AREA_STYLE_COLOUR('',#562);
#551=FILL_AREA_STYLE_COLOUR('',#563);
#552=FILL_AREA_STYLE_COLOUR('',#564);
#553=FILL_AREA_STYLE_COLOUR('',#565);
#554=FILL_AREA_STYLE_COLOUR('',#566);
#555=FILL_AREA_STYLE_COLOUR('',#567);
#556=FILL_AREA_STYLE_COLOUR('',#568);
#557=FILL_AREA_STYLE_COLOUR('',#569);
#558=COLOUR_RGB('',0.498039215803146,0.498039215803146,0.498039215803146);
#559=COLOUR_RGB('',0.800000011920929,0.800000011920929,0.800000011920929);
#560=COLOUR_RGB('',0.498039215803146,0.498039215803146,0.498039215803146);
#561=COLOUR_RGB('',0.498039215803146,0.498039215803146,0.498039215803146);
#562=COLOUR_RGB('',0.800000011920929,0.800000011920929,0.800000011920929);
#563=COLOUR_RGB('',0.498039215803146,0.498039215803146,0.498039215803146);
#564=COLOUR_RGB('',0.800000011920929,0.800000011920929,0.800000011920929);
#565=COLOUR_RGB('',0.498039215803146,0.498039215803146,0.498039215803146);
#566=COLOUR_RGB('',0.800000011920929,0.800000011920929,0.800000011920929);
#567=COLOUR_RGB('',0.498039215803146,0.498039215803146,0.498039215803146);
#568=COLOUR_RGB('',0.498039215803146,0.498039215803146,0.498039215803146);
#569=COLOUR_RGB('',0.498039215803146,0.498039215803146,0.498039215803146);
#570=AXIS2_PLACEMENT_3D('PCS',#571,#572,#573);
#571=CARTESIAN_POINT('',(0.0,0.0,0.0));
#572=DIRECTION('',(0.0,0.0,1.0));
#573=DIRECTION('',(1.0,0.0,0.0));
#574=AXIS2_PLACEMENT_3D('CIP',#575,#576,#577);
#575=CARTESIAN_POINT('',(0.0,0.0,-101.6));
#576=DIRECTION('',(0.0,0.0,1.0));
#577=DIRECTION('',(1.0,0.0,0.0));
#578=AXIS2_PLACEMENT_3D('CRP',#579,#580,#581);
#579=CARTESIAN_POINT('',(-7.874,0.0,-101.6));
#580=DIRECTION('',(0.0,0.0,1.0));
#581=DIRECTION('',(1.0,0.0,0.0));
#582=AXIS2_PLACEMENT_3D('MCS',#583,#584,#585);
#583=CARTESIAN_POINT('',(0.0,0.0,-58.1));
#584=DIRECTION('',(0.0,0.0,1.0));
#585=DIRECTION('',(1.0,0.0,0.0));
#586=CONSTRUCTIVE_GEOMETRY_REPRESENTATION_RELATIONSHIP('coordinate systems',$,#58,#587);
#587=CONSTRUCTIVE_GEOMETRY_REPRESENTATION('coordinate systems',(#570,#574,#578,#582),#6);
ENDSEC;
END-ISO-10303-21;
