ISO-10303-21;
HEADER;
FILE_DESCRIPTION(('no description'),'unknown implementation level');
FILE_NAME('solidOAzX97__Yz8fwXhewgBjTcqmOUA_1.STP','  ',('CIMSOURCE GmbH'),('CADClick - KiM GmbH - www.kimweb.de'),'unknown preprocess','ACIS','unknown authorization');
FILE_SCHEMA(('automotive_design'));
ENDSEC;
DATA;
#1=MECHANICAL_DESIGN_GEOMETRIC_PRESENTATION_REPRESENTATION(' ',(#10,#11,#12,#13,#14,#15,#16,#17,#18,#19,#20,#21,#22,#23,#24,#25,#26,#27,#28,#29,#30,#31,#32,#33,#34,#35,#36,#37,#38,#39,#40,#41,#42,#43,#44,#45,#46,#47,#48,#49,#50,#51,#52,#53),#6);
#2=PRODUCT_DEFINITION_CONTEXT('',#54,'design');
#3=APPLICATION_PROTOCOL_DEFINITION('INTERNATIONAL STANDARD','automotive_design',1994,#54);
#4=PRODUCT_CATEGORY_RELATIONSHIP('NONE','NONE',#55,#56);
#5=SHAPE_DEFINITION_REPRESENTATION(#57,#58);
#6= (GEOMETRIC_REPRESENTATION_CONTEXT(3)GLOBAL_UNCERTAINTY_ASSIGNED_CONTEXT((#61))GLOBAL_UNIT_ASSIGNED_CONTEXT((#63,#64,#65))REPRESENTATION_CONTEXT('NONE','WORKSPACE'));
#10=STYLED_ITEM('',(#67),#68);
#11=STYLED_ITEM('',(#69),#70);
#12=STYLED_ITEM('',(#71),#72);
#13=STYLED_ITEM('',(#73),#74);
#14=STYLED_ITEM('',(#75),#76);
#15=STYLED_ITEM('',(#77),#78);
#16=STYLED_ITEM('',(#79),#80);
#17=STYLED_ITEM('',(#81),#82);
#18=STYLED_ITEM('',(#83),#84);
#19=STYLED_ITEM('',(#85),#86);
#20=STYLED_ITEM('',(#87),#88);
#21=STYLED_ITEM('',(#89),#90);
#22=STYLED_ITEM('',(#91),#92);
#23=STYLED_ITEM('',(#93),#94);
#24=STYLED_ITEM('',(#95),#96);
#25=STYLED_ITEM('',(#97),#98);
#26=STYLED_ITEM('',(#99),#100);
#27=STYLED_ITEM('',(#101),#102);
#28=STYLED_ITEM('',(#103),#104);
#29=STYLED_ITEM('',(#105),#106);
#30=STYLED_ITEM('',(#107),#108);
#31=STYLED_ITEM('',(#109),#110);
#32=STYLED_ITEM('',(#111),#112);
#33=STYLED_ITEM('',(#113),#114);
#34=STYLED_ITEM('',(#115),#116);
#35=STYLED_ITEM('',(#117),#118);
#36=STYLED_ITEM('',(#119),#120);
#37=STYLED_ITEM('',(#121),#122);
#38=STYLED_ITEM('',(#123),#124);
#39=STYLED_ITEM('',(#125),#126);
#40=STYLED_ITEM('',(#127),#128);
#41=STYLED_ITEM('',(#129),#130);
#42=STYLED_ITEM('',(#131),#132);
#43=STYLED_ITEM('',(#133),#134);
#44=STYLED_ITEM('',(#135),#136);
#45=STYLED_ITEM('',(#137),#138);
#46=STYLED_ITEM('',(#139),#140);
#47=STYLED_ITEM('',(#141),#142);
#48=STYLED_ITEM('',(#143),#144);
#49=STYLED_ITEM('',(#145),#146);
#50=STYLED_ITEM('',(#147),#148);
#51=STYLED_ITEM('',(#149),#150);
#52=STYLED_ITEM('',(#151),#152);
#53=STYLED_ITEM('',(#153),#154);
#54=APPLICATION_CONTEXT(' ');
#55=PRODUCT_CATEGORY('part','NONE');
#56=PRODUCT_RELATED_PRODUCT_CATEGORY('detail',' ',(#155));
#57=PRODUCT_DEFINITION_SHAPE('NONE','NONE',#156);
#58=ADVANCED_BREP_SHAPE_REPRESENTATION('1',(#140,#157),#6);
#61=UNCERTAINTY_MEASURE_WITH_UNIT(LENGTH_MEASURE(1.0E-006),#63,'','');
#63= (CONVERSION_BASED_UNIT('MILLIMETRE',#160)LENGTH_UNIT()NAMED_UNIT(#163));
#64= (NAMED_UNIT(#165)PLANE_ANGLE_UNIT()SI_UNIT($,.RADIAN.));
#65= (NAMED_UNIT(#165)SOLID_ANGLE_UNIT()SI_UNIT($,.STERADIAN.));
#67=PRESENTATION_STYLE_ASSIGNMENT((#171));
#68=ADVANCED_FACE('',(#172),#173,.T.);
#69=PRESENTATION_STYLE_ASSIGNMENT((#174));
#70=ADVANCED_FACE('',(#175,#176),#177,.T.);
#71=PRESENTATION_STYLE_ASSIGNMENT((#178));
#72=EDGE_CURVE('',#94,#110,#179,.T.);
#73=PRESENTATION_STYLE_ASSIGNMENT((#180));
#74=ADVANCED_FACE('',(#181),#182,.T.);
#75=PRESENTATION_STYLE_ASSIGNMENT((#183));
#76=ADVANCED_FACE('',(#184),#185,.T.);
#77=PRESENTATION_STYLE_ASSIGNMENT((#186));
#78=VERTEX_POINT('',#187);
#79=PRESENTATION_STYLE_ASSIGNMENT((#188));
#80=VERTEX_POINT('',#189);
#81=PRESENTATION_STYLE_ASSIGNMENT((#190));
#82=VERTEX_POINT('',#191);
#83=PRESENTATION_STYLE_ASSIGNMENT((#192));
#84=EDGE_CURVE('',#112,#82,#193,.T.);
#85=PRESENTATION_STYLE_ASSIGNMENT((#194));
#86=EDGE_CURVE('',#110,#94,#195,.T.);
#87=PRESENTATION_STYLE_ASSIGNMENT((#196));
#88=EDGE_CURVE('',#92,#78,#197,.T.);
#89=PRESENTATION_STYLE_ASSIGNMENT((#198));
#90=EDGE_CURVE('',#80,#100,#199,.T.);
#91=PRESENTATION_STYLE_ASSIGNMENT((#200));
#92=VERTEX_POINT('',#201);
#93=PRESENTATION_STYLE_ASSIGNMENT((#202));
#94=VERTEX_POINT('',#203);
#95=PRESENTATION_STYLE_ASSIGNMENT((#204));
#96=EDGE_CURVE('',#122,#154,#205,.T.);
#97=PRESENTATION_STYLE_ASSIGNMENT((#206));
#98=EDGE_CURVE('',#130,#144,#207,.T.);
#99=PRESENTATION_STYLE_ASSIGNMENT((#208));
#100=VERTEX_POINT('',#209);
#101=PRESENTATION_STYLE_ASSIGNMENT((#210));
#102=EDGE_CURVE('',#80,#144,#211,.T.);
#103=PRESENTATION_STYLE_ASSIGNMENT((#212));
#104=EDGE_CURVE('',#122,#82,#213,.T.);
#105=PRESENTATION_STYLE_ASSIGNMENT((#214));
#106=ADVANCED_FACE('',(#215),#216,.T.);
#107=PRESENTATION_STYLE_ASSIGNMENT((#217));
#108=EDGE_CURVE('',#154,#112,#218,.T.);
#109=PRESENTATION_STYLE_ASSIGNMENT((#219));
#110=VERTEX_POINT('',#220);
#111=PRESENTATION_STYLE_ASSIGNMENT((#221));
#112=VERTEX_POINT('',#222);
#113=PRESENTATION_STYLE_ASSIGNMENT((#223));
#114=ADVANCED_FACE('',(#224),#225,.T.);
#115=PRESENTATION_STYLE_ASSIGNMENT((#226));
#116=EDGE_CURVE('',#130,#100,#227,.T.);
#117=PRESENTATION_STYLE_ASSIGNMENT((#228));
#118=ADVANCED_FACE('',(#229),#230,.T.);
#119=PRESENTATION_STYLE_ASSIGNMENT((#231));
#120=ADVANCED_FACE('',(#232),#233,.T.);
#121=PRESENTATION_STYLE_ASSIGNMENT((#234));
#122=VERTEX_POINT('',#235);
#123=PRESENTATION_STYLE_ASSIGNMENT((#236));
#124=EDGE_CURVE('',#100,#130,#237,.T.);
#125=PRESENTATION_STYLE_ASSIGNMENT((#238));
#126=ADVANCED_FACE('',(#239),#240,.T.);
#127=PRESENTATION_STYLE_ASSIGNMENT((#241));
#128=ADVANCED_FACE('',(#242),#243,.T.);
#129=PRESENTATION_STYLE_ASSIGNMENT((#244));
#130=VERTEX_POINT('',#245);
#131=PRESENTATION_STYLE_ASSIGNMENT((#246));
#132=EDGE_CURVE('',#144,#80,#247,.T.);
#133=PRESENTATION_STYLE_ASSIGNMENT((#248));
#134=EDGE_CURVE('',#92,#130,#249,.T.);
#135=PRESENTATION_STYLE_ASSIGNMENT((#250));
#136=EDGE_CURVE('',#110,#122,#251,.T.);
#137=PRESENTATION_STYLE_ASSIGNMENT((#252));
#138=EDGE_CURVE('',#78,#92,#253,.T.);
#139=PRESENTATION_STYLE_ASSIGNMENT((#254));
#140=MANIFOLD_SOLID_BREP('1',#255);
#141=PRESENTATION_STYLE_ASSIGNMENT((#256));
#142=EDGE_CURVE('',#112,#154,#257,.T.);
#143=PRESENTATION_STYLE_ASSIGNMENT((#258));
#144=VERTEX_POINT('',#259);
#145=PRESENTATION_STYLE_ASSIGNMENT((#260));
#146=EDGE_CURVE('',#82,#94,#261,.T.);
#147=PRESENTATION_STYLE_ASSIGNMENT((#262));
#148=EDGE_CURVE('',#100,#78,#263,.T.);
#149=PRESENTATION_STYLE_ASSIGNMENT((#264));
#150=EDGE_CURVE('',#82,#122,#265,.T.);
#151=PRESENTATION_STYLE_ASSIGNMENT((#266));
#152=ADVANCED_FACE('',(#267),#268,.T.);
#153=PRESENTATION_STYLE_ASSIGNMENT((#269));
#154=VERTEX_POINT('',#270);
#155=PRODUCT('1','1','PART-1-DESC',(#271));
#156=PRODUCT_DEFINITION('NONE','NONE',#272,#2);
#157=AXIS2_PLACEMENT_3D('',#273,#274,#275);
#160=LENGTH_MEASURE_WITH_UNIT(LENGTH_MEASURE(1.0),#276);
#163=DIMENSIONAL_EXPONENTS(1.0,0.0,0.0,0.0,0.0,0.0,0.0);
#165=DIMENSIONAL_EXPONENTS(0.0,0.0,0.0,0.0,0.0,0.0,0.0);
#171=SURFACE_STYLE_USAGE(.BOTH.,#277);
#172=FACE_OUTER_BOUND('',#278,.T.);
#173=CYLINDRICAL_SURFACE('',#279,9.525);
#174=SURFACE_STYLE_USAGE(.BOTH.,#280);
#175=FACE_BOUND('',#281,.T.);
#176=FACE_OUTER_BOUND('',#282,.T.);
#177=PLANE('',#283);
#178=CURVE_STYLE('',#284,POSITIVE_LENGTH_MEASURE(1.0E-006),#285);
#179=CIRCLE('',#286,9.4615);
#180=SURFACE_STYLE_USAGE(.BOTH.,#287);
#181=FACE_OUTER_BOUND('',#288,.T.);
#182=CYLINDRICAL_SURFACE('',#289,9.525);
#183=SURFACE_STYLE_USAGE(.BOTH.,#290);
#184=FACE_OUTER_BOUND('',#291,.T.);
#185=CONICAL_SURFACE('',#292,8.596282885,1.0471975511966);
#186=POINT_STYLE(' ',#293,POSITIVE_LENGTH_MEASURE(1.0E-006),#294);
#187=CARTESIAN_POINT('',(-1.16643755201581E-015,9.525,-67.7));
#188=POINT_STYLE(' ',#295,POSITIVE_LENGTH_MEASURE(1.0E-006),#296);
#189=CARTESIAN_POINT('',(0.0,8.83737582939516,7.105427357601E-015));
#190=POINT_STYLE(' ',#297,POSITIVE_LENGTH_MEASURE(1.0E-006),#298);
#191=CARTESIAN_POINT('',(1.15866130166904E-015,-9.4615,-100.600933331495));
#192=CURVE_STYLE('',#299,POSITIVE_LENGTH_MEASURE(1.0E-006),#300);
#193=LINE('',#301,#302);
#194=CURVE_STYLE('',#303,POSITIVE_LENGTH_MEASURE(1.0E-006),#304);
#195=CIRCLE('',#305,9.4615);
#196=CURVE_STYLE('',#306,POSITIVE_LENGTH_MEASURE(1.0E-006),#307);
#197=CIRCLE('',#308,9.525);
#198=CURVE_STYLE('',#309,POSITIVE_LENGTH_MEASURE(1.0E-006),#310);
#199=LINE('',#311,#312);
#200=POINT_STYLE(' ',#313,POSITIVE_LENGTH_MEASURE(1.0E-006),#314);
#201=CARTESIAN_POINT('',(0.0,-9.525,-67.7));
#202=POINT_STYLE(' ',#315,POSITIVE_LENGTH_MEASURE(1.0E-006),#316);
#203=CARTESIAN_POINT('',(1.15866130166904E-015,-9.4615,-67.7));
#204=CURVE_STYLE('',#317,POSITIVE_LENGTH_MEASURE(1.0E-006),#318);
#205=LINE('',#319,#320);
#206=CURVE_STYLE('',#321,POSITIVE_LENGTH_MEASURE(1.0E-006),#322);
#207=LINE('',#323,#324);
#208=POINT_STYLE(' ',#325,POSITIVE_LENGTH_MEASURE(1.0E-006),#326);
#209=CARTESIAN_POINT('',(0.0,9.525,-1.191));
#210=CURVE_STYLE('',#327,POSITIVE_LENGTH_MEASURE(1.0E-006),#328);
#211=CIRCLE('',#329,8.83737582939516);
#212=CURVE_STYLE('',#330,POSITIVE_LENGTH_MEASURE(1.0E-006),#331);
#213=CIRCLE('',#332,9.4615);
#214=SURFACE_STYLE_USAGE(.BOTH.,#333);
#215=FACE_OUTER_BOUND('',#334,.T.);
#216=CONICAL_SURFACE('',#335,9.18118791469758,0.523598775598298);
#217=CURVE_STYLE('',#336,POSITIVE_LENGTH_MEASURE(1.0E-006),#337);
#218=CIRCLE('',#338,7.73106577);
#219=POINT_STYLE(' ',#339,POSITIVE_LENGTH_MEASURE(1.0E-006),#340);
#220=CARTESIAN_POINT('',(0.0,9.4615,-67.7));
#221=POINT_STYLE(' ',#341,POSITIVE_LENGTH_MEASURE(1.0E-006),#342);
#222=CARTESIAN_POINT('',(9.46751226376069E-016,-7.73106577,-101.6));
#223=SURFACE_STYLE_USAGE(.BOTH.,#343);
#224=FACE_OUTER_BOUND('',#344,.T.);
#225=CYLINDRICAL_SURFACE('',#345,9.4615);
#226=CURVE_STYLE('',#346,POSITIVE_LENGTH_MEASURE(1.0E-006),#347);
#227=CIRCLE('',#348,9.525);
#228=SURFACE_STYLE_USAGE(.BOTH.,#349);
#229=FACE_OUTER_BOUND('',#350,.T.);
#230=PLANE('',#351);
#231=SURFACE_STYLE_USAGE(.BOTH.,#352);
#232=FACE_OUTER_BOUND('',#353,.T.);
#233=PLANE('',#354);
#234=POINT_STYLE(' ',#355,POSITIVE_LENGTH_MEASURE(1.0E-006),#356);
#235=CARTESIAN_POINT('',(0.0,9.4615,-100.600933331495));
#236=CURVE_STYLE('',#357,POSITIVE_LENGTH_MEASURE(1.0E-006),#358);
#237=CIRCLE('',#359,9.525);
#238=SURFACE_STYLE_USAGE(.BOTH.,#360);
#239=FACE_OUTER_BOUND('',#361,.T.);
#240=CONICAL_SURFACE('',#362,8.596282885,1.0471975511966);
#241=SURFACE_STYLE_USAGE(.BOTH.,#363);
#242=FACE_OUTER_BOUND('',#364,.T.);
#243=CYLINDRICAL_SURFACE('',#365,9.4615);
#244=POINT_STYLE(' ',#366,POSITIVE_LENGTH_MEASURE(1.0E-006),#367);
#245=CARTESIAN_POINT('',(1.16643755201581E-015,-9.525,-1.191));
#246=CURVE_STYLE('',#368,POSITIVE_LENGTH_MEASURE(1.0E-006),#369);
#247=CIRCLE('',#370,8.83737582939516);
#248=CURVE_STYLE('',#371,POSITIVE_LENGTH_MEASURE(1.0E-006),#372);
#249=LINE('',#373,#374);
#250=CURVE_STYLE('',#375,POSITIVE_LENGTH_MEASURE(1.0E-006),#376);
#251=LINE('',#377,#378);
#252=CURVE_STYLE('',#379,POSITIVE_LENGTH_MEASURE(1.0E-006),#380);
#253=CIRCLE('',#381,9.525);
#254=SURFACE_STYLE_USAGE(.BOTH.,#382);
#255=CLOSED_SHELL('',(#74,#152,#126,#128,#114,#76,#70,#118,#106,#68,#120));
#256=CURVE_STYLE('',#383,POSITIVE_LENGTH_MEASURE(1.0E-006),#384);
#257=CIRCLE('',#385,7.73106577);
#258=POINT_STYLE(' ',#386,POSITIVE_LENGTH_MEASURE(1.0E-006),#387);
#259=CARTESIAN_POINT('',(1.08223065917936E-015,-8.83737582939516,7.105427357601E-015));
#260=CURVE_STYLE('',#388,POSITIVE_LENGTH_MEASURE(1.0E-006),#389);
#261=LINE('',#390,#391);
#262=CURVE_STYLE('',#392,POSITIVE_LENGTH_MEASURE(1.0E-006),#393);
#263=LINE('',#394,#395);
#264=CURVE_STYLE('',#396,POSITIVE_LENGTH_MEASURE(1.0E-006),#397);
#265=CIRCLE('',#398,9.4615);
#266=SURFACE_STYLE_USAGE(.BOTH.,#399);
#267=FACE_OUTER_BOUND('',#400,.T.);
#268=CONICAL_SURFACE('',#401,9.18118791469758,0.523598775598298);
#269=POINT_STYLE(' ',#402,POSITIVE_LENGTH_MEASURE(1.0E-006),#403);
#270=CARTESIAN_POINT('',(0.0,7.73106577,-101.6));
#271=PRODUCT_CONTEXT('',#54,'mechanical');
#272=PRODUCT_DEFINITION_FORMATION_WITH_SPECIFIED_SOURCE(' ','NONE',#155,.NOT_KNOWN.);
#273=CARTESIAN_POINT('',(0.0,0.0,0.0));
#274=DIRECTION('',(0.0,0.0,1.0));
#275=DIRECTION('',(1.0,0.0,0.0));
#276= (NAMED_UNIT(#163)LENGTH_UNIT()SI_UNIT(.MILLI.,.METRE.));
#277=SURFACE_SIDE_STYLE('',(#405));
#278=EDGE_LOOP('',(#406,#407,#408,#409));
#279=AXIS2_PLACEMENT_3D('',#410,#411,#412);
#280=SURFACE_SIDE_STYLE('',(#413));
#281=EDGE_LOOP('',(#414,#415));
#282=EDGE_LOOP('',(#416,#417));
#283=AXIS2_PLACEMENT_3D('',#418,#419,#420);
#284=DRAUGHTING_PRE_DEFINED_CURVE_FONT('continuous');
#285=COLOUR_RGB('',0.498039215803146,0.498039215803146,0.498039215803146);
#286=AXIS2_PLACEMENT_3D('',#421,#422,#423);
#287=SURFACE_SIDE_STYLE('',(#424));
#288=EDGE_LOOP('',(#425,#426,#427,#428));
#289=AXIS2_PLACEMENT_3D('',#429,#430,#431);
#290=SURFACE_SIDE_STYLE('',(#432));
#291=EDGE_LOOP('',(#433,#434,#435,#436));
#292=AXIS2_PLACEMENT_3D('',#437,#438,#439);
#293=PRE_DEFINED_MARKER('');
#294=COLOUR_RGB('',0.498039215803146,0.498039215803146,0.498039215803146);
#295=PRE_DEFINED_MARKER('');
#296=COLOUR_RGB('',0.498039215803146,0.498039215803146,0.498039215803146);
#297=PRE_DEFINED_MARKER('');
#298=COLOUR_RGB('',0.800000011920929,0.800000011920929,0.800000011920929);
#299=DRAUGHTING_PRE_DEFINED_CURVE_FONT('continuous');
#300=COLOUR_RGB('',0.800000011920929,0.800000011920929,0.800000011920929);
#301=CARTESIAN_POINT('',(1.05270626402256E-015,-8.596282885,-101.100466665747));
#302=VECTOR('',#440,1.0);
#303=DRAUGHTING_PRE_DEFINED_CURVE_FONT('continuous');
#304=COLOUR_RGB('',0.498039215803146,0.498039215803146,0.498039215803146);
#305=AXIS2_PLACEMENT_3D('',#441,#442,#443);
#306=DRAUGHTING_PRE_DEFINED_CURVE_FONT('continuous');
#307=COLOUR_RGB('',0.498039215803146,0.498039215803146,0.498039215803146);
#308=AXIS2_PLACEMENT_3D('',#444,#445,#446);
#309=DRAUGHTING_PRE_DEFINED_CURVE_FONT('continuous');
#310=COLOUR_RGB('',0.498039215803146,0.498039215803146,0.498039215803146);
#311=CARTESIAN_POINT('',(-1.12433410559759E-015,9.18118791469758,-0.595499999999994));
#312=VECTOR('',#447,1.0);
#313=PRE_DEFINED_MARKER('');
#314=COLOUR_RGB('',0.498039215803146,0.498039215803146,0.498039215803146);
#315=PRE_DEFINED_MARKER('');
#316=COLOUR_RGB('',0.498039215803146,0.498039215803146,0.498039215803146);
#317=DRAUGHTING_PRE_DEFINED_CURVE_FONT('continuous');
#318=COLOUR_RGB('',0.800000011920929,0.800000011920929,0.800000011920929);
#319=CARTESIAN_POINT('',(-1.05270626402256E-015,8.596282885,-101.100466665747));
#320=VECTOR('',#448,1.0);
#321=DRAUGHTING_PRE_DEFINED_CURVE_FONT('continuous');
#322=COLOUR_RGB('',0.498039215803146,0.498039215803146,0.498039215803146);
#323=CARTESIAN_POINT('',(1.12433410559759E-015,-9.18118791469758,-0.595499999999994));
#324=VECTOR('',#449,1.0);
#325=PRE_DEFINED_MARKER('');
#326=COLOUR_RGB('',0.498039215803146,0.498039215803146,0.498039215803146);
#327=DRAUGHTING_PRE_DEFINED_CURVE_FONT('continuous');
#328=COLOUR_RGB('',0.498039215803146,0.498039215803146,0.498039215803146);
#329=AXIS2_PLACEMENT_3D('',#450,#451,#452);
#330=DRAUGHTING_PRE_DEFINED_CURVE_FONT('continuous');
#331=COLOUR_RGB('',0.800000011920929,0.800000011920929,0.800000011920929);
#332=AXIS2_PLACEMENT_3D('',#453,#454,#455);
#333=SURFACE_SIDE_STYLE('',(#456));
#334=EDGE_LOOP('',(#457,#458,#459,#460));
#335=AXIS2_PLACEMENT_3D('',#461,#462,#463);
#336=DRAUGHTING_PRE_DEFINED_CURVE_FONT('continuous');
#337=COLOUR_RGB('',0.498039215803146,0.498039215803146,0.498039215803146);
#338=AXIS2_PLACEMENT_3D('',#464,#465,#466);
#339=PRE_DEFINED_MARKER('');
#340=COLOUR_RGB('',0.498039215803146,0.498039215803146,0.498039215803146);
#341=PRE_DEFINED_MARKER('');
#342=COLOUR_RGB('',0.498039215803146,0.498039215803146,0.498039215803146);
#343=SURFACE_SIDE_STYLE('',(#467));
#344=EDGE_LOOP('',(#468,#469,#470,#471));
#345=AXIS2_PLACEMENT_3D('',#472,#473,#474);
#346=DRAUGHTING_PRE_DEFINED_CURVE_FONT('continuous');
#347=COLOUR_RGB('',0.498039215803146,0.498039215803146,0.498039215803146);
#348=AXIS2_PLACEMENT_3D('',#475,#476,#477);
#349=SURFACE_SIDE_STYLE('',(#478));
#350=EDGE_LOOP('',(#479,#480));
#351=AXIS2_PLACEMENT_3D('',#481,#482,#483);
#352=SURFACE_SIDE_STYLE('',(#484));
#353=EDGE_LOOP('',(#485,#486));
#354=AXIS2_PLACEMENT_3D('',#487,#488,#489);
#355=PRE_DEFINED_MARKER('');
#356=COLOUR_RGB('',0.800000011920929,0.800000011920929,0.800000011920929);
#357=DRAUGHTING_PRE_DEFINED_CURVE_FONT('continuous');
#358=COLOUR_RGB('',0.498039215803146,0.498039215803146,0.498039215803146);
#359=AXIS2_PLACEMENT_3D('',#490,#491,#492);
#360=SURFACE_SIDE_STYLE('',(#493));
#361=EDGE_LOOP('',(#494,#495,#496,#497));
#362=AXIS2_PLACEMENT_3D('',#498,#499,#500);
#363=SURFACE_SIDE_STYLE('',(#501));
#364=EDGE_LOOP('',(#502,#503,#504,#505));
#365=AXIS2_PLACEMENT_3D('',#506,#507,#508);
#366=PRE_DEFINED_MARKER('');
#367=COLOUR_RGB('',0.498039215803146,0.498039215803146,0.498039215803146);
#368=DRAUGHTING_PRE_DEFINED_CURVE_FONT('continuous');
#369=COLOUR_RGB('',0.498039215803146,0.498039215803146,0.498039215803146);
#370=AXIS2_PLACEMENT_3D('',#509,#510,#511);
#371=DRAUGHTING_PRE_DEFINED_CURVE_FONT('continuous');
#372=COLOUR_RGB('',0.498039215803146,0.498039215803146,0.498039215803146);
#373=CARTESIAN_POINT('',(1.16643755201581E-015,-9.525,-26.3955));
#374=VECTOR('',#512,1.0);
#375=DRAUGHTING_PRE_DEFINED_CURVE_FONT('continuous');
#376=COLOUR_RGB('',0.800000011920929,0.800000011920929,0.800000011920929);
#377=CARTESIAN_POINT('',(-1.15866130166904E-015,9.4615,-84.1504666657473));
#378=VECTOR('',#513,1.0);
#379=DRAUGHTING_PRE_DEFINED_CURVE_FONT('continuous');
#380=COLOUR_RGB('',0.498039215803146,0.498039215803146,0.498039215803146);
#381=AXIS2_PLACEMENT_3D('',#514,#515,#516);
#382=SURFACE_SIDE_STYLE('',(#517));
#383=DRAUGHTING_PRE_DEFINED_CURVE_FONT('continuous');
#384=COLOUR_RGB('',0.498039215803146,0.498039215803146,0.498039215803146);
#385=AXIS2_PLACEMENT_3D('',#518,#519,#520);
#386=PRE_DEFINED_MARKER('');
#387=COLOUR_RGB('',0.498039215803146,0.498039215803146,0.498039215803146);
#388=DRAUGHTING_PRE_DEFINED_CURVE_FONT('continuous');
#389=COLOUR_RGB('',0.800000011920929,0.800000011920929,0.800000011920929);
#390=CARTESIAN_POINT('',(1.15866130166904E-015,-9.4615,-84.1504666657473));
#391=VECTOR('',#521,1.0);
#392=DRAUGHTING_PRE_DEFINED_CURVE_FONT('continuous');
#393=COLOUR_RGB('',0.498039215803146,0.498039215803146,0.498039215803146);
#394=CARTESIAN_POINT('',(-1.16643755201581E-015,9.525,-26.3955));
#395=VECTOR('',#522,1.0);
#396=DRAUGHTING_PRE_DEFINED_CURVE_FONT('continuous');
#397=COLOUR_RGB('',0.800000011920929,0.800000011920929,0.800000011920929);
#398=AXIS2_PLACEMENT_3D('',#523,#524,#525);
#399=SURFACE_SIDE_STYLE('',(#526));
#400=EDGE_LOOP('',(#527,#528,#529,#530));
#401=AXIS2_PLACEMENT_3D('',#531,#532,#533);
#402=PRE_DEFINED_MARKER('');
#403=COLOUR_RGB('',0.498039215803146,0.498039215803146,0.498039215803146);
#405=SURFACE_STYLE_FILL_AREA(#534);
#406=ORIENTED_EDGE('',*,*,#148,.T.);
#407=ORIENTED_EDGE('',*,*,#88,.F.);
#408=ORIENTED_EDGE('',*,*,#134,.T.);
#409=ORIENTED_EDGE('',*,*,#116,.T.);
#410=CARTESIAN_POINT('',(0.0,0.0,-26.3955));
#411=DIRECTION('',(-0.0,-0.0,1.0));
#412=DIRECTION('',(0.0,1.0,0.0));
#413=SURFACE_STYLE_FILL_AREA(#535);
#414=ORIENTED_EDGE('',*,*,#86,.T.);
#415=ORIENTED_EDGE('',*,*,#72,.T.);
#416=ORIENTED_EDGE('',*,*,#88,.T.);
#417=ORIENTED_EDGE('',*,*,#138,.T.);
#418=CARTESIAN_POINT('',(0.0,0.0,-67.7));
#419=DIRECTION('',(0.0,0.0,-1.0));
#420=DIRECTION('',(0.0,-1.0,0.0));
#421=CARTESIAN_POINT('',(0.0,0.0,-67.7));
#422=DIRECTION('',(0.0,-0.0,1.0));
#423=DIRECTION('',(0.0,1.0,0.0));
#424=SURFACE_STYLE_FILL_AREA(#536);
#425=ORIENTED_EDGE('',*,*,#148,.F.);
#426=ORIENTED_EDGE('',*,*,#124,.T.);
#427=ORIENTED_EDGE('',*,*,#134,.F.);
#428=ORIENTED_EDGE('',*,*,#138,.F.);
#429=CARTESIAN_POINT('',(0.0,0.0,-26.3955));
#430=DIRECTION('',(-0.0,-0.0,1.0));
#431=DIRECTION('',(0.0,1.0,0.0));
#432=SURFACE_STYLE_FILL_AREA(#537);
#433=ORIENTED_EDGE('',*,*,#96,.T.);
#434=ORIENTED_EDGE('',*,*,#142,.F.);
#435=ORIENTED_EDGE('',*,*,#84,.T.);
#436=ORIENTED_EDGE('',*,*,#150,.T.);
#437=CARTESIAN_POINT('',(0.0,0.0,-101.100466665747));
#438=DIRECTION('',(-0.0,-0.0,1.0));
#439=DIRECTION('',(0.0,1.0,0.0));
#440=DIRECTION('',(1.06054021204601E-016,-0.866025403784439,0.5));
#441=CARTESIAN_POINT('',(0.0,0.0,-67.7));
#442=DIRECTION('',(0.0,-0.0,1.0));
#443=DIRECTION('',(0.0,1.0,0.0));
#444=CARTESIAN_POINT('',(0.0,0.0,-67.7));
#445=DIRECTION('',(0.0,0.0,-1.0));
#446=DIRECTION('',(0.0,-1.0,0.0));
#447=DIRECTION('',(-6.12303176911187E-017,0.499999999999999,-0.866025403784439));
#448=DIRECTION('',(1.06054021204601E-016,-0.866025403784439,-0.5));
#449=DIRECTION('',(-6.12303176911187E-017,0.499999999999999,0.866025403784439));
#450=CARTESIAN_POINT('',(0.0,0.0,7.105427357601E-015));
#451=DIRECTION('',(0.0,0.0,-1.0));
#452=DIRECTION('',(0.0,1.0,0.0));
#453=CARTESIAN_POINT('',(0.0,0.0,-100.600933331495));
#454=DIRECTION('',(0.0,0.0,-1.0));
#455=DIRECTION('',(0.0,1.0,0.0));
#456=SURFACE_STYLE_FILL_AREA(#538);
#457=ORIENTED_EDGE('',*,*,#90,.T.);
#458=ORIENTED_EDGE('',*,*,#116,.F.);
#459=ORIENTED_EDGE('',*,*,#98,.T.);
#460=ORIENTED_EDGE('',*,*,#132,.T.);
#461=CARTESIAN_POINT('',(0.0,0.0,-0.595499999999994));
#462=DIRECTION('',(0.0,-0.0,-1.0));
#463=DIRECTION('',(0.0,1.0,0.0));
#464=CARTESIAN_POINT('',(0.0,0.0,-101.6));
#465=DIRECTION('',(0.0,0.0,-1.0));
#466=DIRECTION('',(0.0,1.0,0.0));
#467=SURFACE_STYLE_FILL_AREA(#539);
#468=ORIENTED_EDGE('',*,*,#136,.T.);
#469=ORIENTED_EDGE('',*,*,#150,.F.);
#470=ORIENTED_EDGE('',*,*,#146,.T.);
#471=ORIENTED_EDGE('',*,*,#86,.F.);
#472=CARTESIAN_POINT('',(0.0,0.0,-84.1504666657473));
#473=DIRECTION('',(-0.0,-0.0,1.0));
#474=DIRECTION('',(0.0,1.0,0.0));
#475=CARTESIAN_POINT('',(0.0,0.0,-1.191));
#476=DIRECTION('',(0.0,0.0,-1.0));
#477=DIRECTION('',(0.0,1.0,0.0));
#478=SURFACE_STYLE_FILL_AREA(#540);
#479=ORIENTED_EDGE('',*,*,#102,.F.);
#480=ORIENTED_EDGE('',*,*,#132,.F.);
#481=CARTESIAN_POINT('',(0.0,4.41868791469758,7.105427357601E-015));
#482=DIRECTION('',(-0.0,0.0,1.0));
#483=DIRECTION('',(0.0,-1.0,0.0));
#484=SURFACE_STYLE_FILL_AREA(#541);
#485=ORIENTED_EDGE('',*,*,#108,.T.);
#486=ORIENTED_EDGE('',*,*,#142,.T.);
#487=CARTESIAN_POINT('',(0.0,3.865532885,-101.6));
#488=DIRECTION('',(0.0,0.0,-1.0));
#489=DIRECTION('',(0.0,1.0,0.0));
#490=CARTESIAN_POINT('',(0.0,0.0,-1.191));
#491=DIRECTION('',(0.0,0.0,-1.0));
#492=DIRECTION('',(0.0,1.0,0.0));
#493=SURFACE_STYLE_FILL_AREA(#542);
#494=ORIENTED_EDGE('',*,*,#96,.F.);
#495=ORIENTED_EDGE('',*,*,#104,.T.);
#496=ORIENTED_EDGE('',*,*,#84,.F.);
#497=ORIENTED_EDGE('',*,*,#108,.F.);
#498=CARTESIAN_POINT('',(0.0,0.0,-101.100466665747));
#499=DIRECTION('',(-0.0,-0.0,1.0));
#500=DIRECTION('',(0.0,1.0,0.0));
#501=SURFACE_STYLE_FILL_AREA(#543);
#502=ORIENTED_EDGE('',*,*,#136,.F.);
#503=ORIENTED_EDGE('',*,*,#72,.F.);
#504=ORIENTED_EDGE('',*,*,#146,.F.);
#505=ORIENTED_EDGE('',*,*,#104,.F.);
#506=CARTESIAN_POINT('',(0.0,0.0,-84.1504666657473));
#507=DIRECTION('',(-0.0,-0.0,1.0));
#508=DIRECTION('',(0.0,1.0,0.0));
#509=CARTESIAN_POINT('',(0.0,0.0,7.105427357601E-015));
#510=DIRECTION('',(0.0,0.0,-1.0));
#511=DIRECTION('',(0.0,1.0,0.0));
#512=DIRECTION('',(-0.0,-0.0,1.0));
#513=DIRECTION('',(0.0,0.0,-1.0));
#514=CARTESIAN_POINT('',(0.0,0.0,-67.7));
#515=DIRECTION('',(0.0,0.0,-1.0));
#516=DIRECTION('',(0.0,-1.0,0.0));
#517=SURFACE_STYLE_FILL_AREA(#544);
#518=CARTESIAN_POINT('',(0.0,0.0,-101.6));
#519=DIRECTION('',(0.0,0.0,-1.0));
#520=DIRECTION('',(0.0,1.0,0.0));
#521=DIRECTION('',(-0.0,-0.0,1.0));
#522=DIRECTION('',(0.0,0.0,-1.0));
#523=CARTESIAN_POINT('',(0.0,0.0,-100.600933331495));
#524=DIRECTION('',(0.0,0.0,-1.0));
#525=DIRECTION('',(0.0,1.0,0.0));
#526=SURFACE_STYLE_FILL_AREA(#545);
#527=ORIENTED_EDGE('',*,*,#90,.F.);
#528=ORIENTED_EDGE('',*,*,#102,.T.);
#529=ORIENTED_EDGE('',*,*,#98,.F.);
#530=ORIENTED_EDGE('',*,*,#124,.F.);
#531=CARTESIAN_POINT('',(0.0,0.0,-0.595499999999994));
#532=DIRECTION('',(0.0,-0.0,-1.0));
#533=DIRECTION('',(0.0,1.0,0.0));
#534=FILL_AREA_STYLE('',(#546));
#535=FILL_AREA_STYLE('',(#547));
#536=FILL_AREA_STYLE('',(#548));
#537=FILL_AREA_STYLE('',(#549));
#538=FILL_AREA_STYLE('',(#550));
#539=FILL_AREA_STYLE('',(#551));
#540=FILL_AREA_STYLE('',(#552));
#541=FILL_AREA_STYLE('',(#553));
#542=FILL_AREA_STYLE('',(#554));
#543=FILL_AREA_STYLE('',(#555));
#544=FILL_AREA_STYLE('',(#556));
#545=FILL_AREA_STYLE('',(#557));
#546=FILL_AREA_STYLE_COLOUR('',#558);
#547=FILL_AREA_STYLE_COLOUR('',#559);
#548=FILL_AREA_STYLE_COLOUR('',#560);
#549=FILL_AREA_STYLE_COLOUR('',#561);
#550=FILL_AREA_STYLE_COLOUR('',#562);
#551=FILL_AREA_STYLE_COLOUR('',#563);
#552=FILL_AREA_STYLE_COLOUR('',#564);
#553=FILL_AREA_STYLE_COLOUR('',#565);
#554=FILL_AREA_STYLE_COLOUR('',#566);
#555=FILL_AREA_STYLE_COLOUR('',#567);
#556=FILL_AREA_STYLE_COLOUR('',#568);
#557=FILL_AREA_STYLE_COLOUR('',#569);
#558=COLOUR_RGB('',0.498039215803146,0.498039215803146,0.498039215803146);
#559=COLOUR_RGB('',0.498039215803146,0.498039215803146,0.498039215803146);
#560=COLOUR_RGB('',0.498039215803146,0.498039215803146,0.498039215803146);
#561=COLOUR_RGB('',0.800000011920929,0.800000011920929,0.800000011920929);
#562=COLOUR_RGB('',0.498039215803146,0.498039215803146,0.498039215803146);
#563=COLOUR_RGB('',0.800000011920929,0.800000011920929,0.800000011920929);
#564=COLOUR_RGB('',0.498039215803146,0.498039215803146,0.498039215803146);
#565=COLOUR_RGB('',0.498039215803146,0.498039215803146,0.498039215803146);
#566=COLOUR_RGB('',0.800000011920929,0.800000011920929,0.800000011920929);
#567=COLOUR_RGB('',0.800000011920929,0.800000011920929,0.800000011920929);
#568=COLOUR_RGB('',0.498039215803146,0.498039215803146,0.498039215803146);
#569=COLOUR_RGB('',0.498039215803146,0.498039215803146,0.498039215803146);
#570=AXIS2_PLACEMENT_3D('PCS',#571,#572,#573);
#571=CARTESIAN_POINT('',(0.0,0.0,0.0));
#572=DIRECTION('',(0.0,0.0,1.0));
#573=DIRECTION('',(1.0,0.0,0.0));
#574=AXIS2_PLACEMENT_3D('CIP',#575,#576,#577);
#575=CARTESIAN_POINT('',(0.0,0.0,-101.6));
#576=DIRECTION('',(0.0,0.0,1.0));
#577=DIRECTION('',(1.0,0.0,0.0));
#578=AXIS2_PLACEMENT_3D('CRP',#579,#580,#581);
#579=CARTESIAN_POINT('',(-9.4615,0.0,-101.6));
#580=DIRECTION('',(0.0,0.0,1.0));
#581=DIRECTION('',(1.0,0.0,0.0));
#582=AXIS2_PLACEMENT_3D('MCS',#583,#584,#585);
#583=CARTESIAN_POINT('',(0.0,0.0,-51.6));
#584=DIRECTION('',(0.0,0.0,1.0));
#585=DIRECTION('',(1.0,0.0,0.0));
#586=CONSTRUCTIVE_GEOMETRY_REPRESENTATION_RELATIONSHIP('coordinate systems',$,#58,#587);
#587=CONSTRUCTIVE_GEOMETRY_REPRESENTATION('coordinate systems',(#570,#574,#578,#582),#6);
ENDSEC;
END-ISO-10303-21;
