ISO-10303-21;
HEADER;
FILE_DESCRIPTION(('no description'),'unknown implementation level');
FILE_NAME('solidY2s9K_Qq1keXme5dcm5knmg4k3k_1.STP','  ',('CIMSOURCE GmbH'),('CADClick - KiM GmbH - www.kimweb.de'),'unknown preprocess','ACIS','unknown authorization');
FILE_SCHEMA(('automotive_design'));
ENDSEC;
DATA;
#1=MECHANICAL_DESIGN_GEOMETRIC_PRESENTATION_REPRESENTATION(' ',(#10,#11,#12,#13,#14,#15,#16,#17,#18,#19,#20,#21,#22,#23,#24,#25,#26,#27,#28,#29,#30,#31,#32,#33,#34,#35,#36,#37,#38,#39,#40,#41,#42,#43,#44,#45,#46,#47,#48,#49,#50,#51,#52,#53),#6);
#2=PRODUCT_DEFINITION_CONTEXT('',#54,'design');
#3=APPLICATION_PROTOCOL_DEFINITION('INTERNATIONAL STANDARD','automotive_design',1994,#54);
#4=PRODUCT_CATEGORY_RELATIONSHIP('NONE','NONE',#55,#56);
#5=SHAPE_DEFINITION_REPRESENTATION(#57,#58);
#6= (GEOMETRIC_REPRESENTATION_CONTEXT(3)GLOBAL_UNCERTAINTY_ASSIGNED_CONTEXT((#61))GLOBAL_UNIT_ASSIGNED_CONTEXT((#63,#64,#65))REPRESENTATION_CONTEXT('NONE','WORKSPACE'));
#10=STYLED_ITEM('',(#67),#68);
#11=STYLED_ITEM('',(#69),#70);
#12=STYLED_ITEM('',(#71),#72);
#13=STYLED_ITEM('',(#73),#74);
#14=STYLED_ITEM('',(#75),#76);
#15=STYLED_ITEM('',(#77),#78);
#16=STYLED_ITEM('',(#79),#80);
#17=STYLED_ITEM('',(#81),#82);
#18=STYLED_ITEM('',(#83),#84);
#19=STYLED_ITEM('',(#85),#86);
#20=STYLED_ITEM('',(#87),#88);
#21=STYLED_ITEM('',(#89),#90);
#22=STYLED_ITEM('',(#91),#92);
#23=STYLED_ITEM('',(#93),#94);
#24=STYLED_ITEM('',(#95),#96);
#25=STYLED_ITEM('',(#97),#98);
#26=STYLED_ITEM('',(#99),#100);
#27=STYLED_ITEM('',(#101),#102);
#28=STYLED_ITEM('',(#103),#104);
#29=STYLED_ITEM('',(#105),#106);
#30=STYLED_ITEM('',(#107),#108);
#31=STYLED_ITEM('',(#109),#110);
#32=STYLED_ITEM('',(#111),#112);
#33=STYLED_ITEM('',(#113),#114);
#34=STYLED_ITEM('',(#115),#116);
#35=STYLED_ITEM('',(#117),#118);
#36=STYLED_ITEM('',(#119),#120);
#37=STYLED_ITEM('',(#121),#122);
#38=STYLED_ITEM('',(#123),#124);
#39=STYLED_ITEM('',(#125),#126);
#40=STYLED_ITEM('',(#127),#128);
#41=STYLED_ITEM('',(#129),#130);
#42=STYLED_ITEM('',(#131),#132);
#43=STYLED_ITEM('',(#133),#134);
#44=STYLED_ITEM('',(#135),#136);
#45=STYLED_ITEM('',(#137),#138);
#46=STYLED_ITEM('',(#139),#140);
#47=STYLED_ITEM('',(#141),#142);
#48=STYLED_ITEM('',(#143),#144);
#49=STYLED_ITEM('',(#145),#146);
#50=STYLED_ITEM('',(#147),#148);
#51=STYLED_ITEM('',(#149),#150);
#52=STYLED_ITEM('',(#151),#152);
#53=STYLED_ITEM('',(#153),#154);
#54=APPLICATION_CONTEXT(' ');
#55=PRODUCT_CATEGORY('part','NONE');
#56=PRODUCT_RELATED_PRODUCT_CATEGORY('detail',' ',(#155));
#57=PRODUCT_DEFINITION_SHAPE('NONE','NONE',#156);
#58=ADVANCED_BREP_SHAPE_REPRESENTATION('1',(#136,#157),#6);
#61=UNCERTAINTY_MEASURE_WITH_UNIT(LENGTH_MEASURE(1.0E-006),#63,'','');
#63= (CONVERSION_BASED_UNIT('MILLIMETRE',#160)LENGTH_UNIT()NAMED_UNIT(#163));
#64= (NAMED_UNIT(#165)PLANE_ANGLE_UNIT()SI_UNIT($,.RADIAN.));
#65= (NAMED_UNIT(#165)SOLID_ANGLE_UNIT()SI_UNIT($,.STERADIAN.));
#67=PRESENTATION_STYLE_ASSIGNMENT((#171));
#68=ADVANCED_FACE('',(#172),#173,.T.);
#69=PRESENTATION_STYLE_ASSIGNMENT((#174));
#70=VERTEX_POINT('',#175);
#71=PRESENTATION_STYLE_ASSIGNMENT((#176));
#72=VERTEX_POINT('',#177);
#73=PRESENTATION_STYLE_ASSIGNMENT((#178));
#74=ADVANCED_FACE('',(#179),#180,.T.);
#75=PRESENTATION_STYLE_ASSIGNMENT((#181));
#76=EDGE_CURVE('',#146,#124,#182,.T.);
#77=PRESENTATION_STYLE_ASSIGNMENT((#183));
#78=ADVANCED_FACE('',(#184),#185,.T.);
#79=PRESENTATION_STYLE_ASSIGNMENT((#186));
#80=EDGE_CURVE('',#116,#90,#187,.T.);
#81=PRESENTATION_STYLE_ASSIGNMENT((#188));
#82=EDGE_CURVE('',#122,#100,#189,.T.);
#83=PRESENTATION_STYLE_ASSIGNMENT((#190));
#84=ADVANCED_FACE('',(#191),#192,.T.);
#85=PRESENTATION_STYLE_ASSIGNMENT((#193));
#86=EDGE_CURVE('',#124,#146,#194,.T.);
#87=PRESENTATION_STYLE_ASSIGNMENT((#195));
#88=VERTEX_POINT('',#196);
#89=PRESENTATION_STYLE_ASSIGNMENT((#197));
#90=VERTEX_POINT('',#198);
#91=PRESENTATION_STYLE_ASSIGNMENT((#199));
#92=EDGE_CURVE('',#110,#88,#200,.T.);
#93=PRESENTATION_STYLE_ASSIGNMENT((#201));
#94=EDGE_CURVE('',#90,#116,#202,.T.);
#95=PRESENTATION_STYLE_ASSIGNMENT((#203));
#96=ADVANCED_FACE('',(#204),#205,.T.);
#97=PRESENTATION_STYLE_ASSIGNMENT((#206));
#98=EDGE_CURVE('',#148,#144,#207,.T.);
#99=PRESENTATION_STYLE_ASSIGNMENT((#208));
#100=VERTEX_POINT('',#209);
#101=PRESENTATION_STYLE_ASSIGNMENT((#210));
#102=EDGE_CURVE('',#70,#90,#211,.T.);
#103=PRESENTATION_STYLE_ASSIGNMENT((#212));
#104=EDGE_CURVE('',#116,#72,#213,.T.);
#105=PRESENTATION_STYLE_ASSIGNMENT((#214));
#106=ADVANCED_FACE('',(#215),#216,.T.);
#107=PRESENTATION_STYLE_ASSIGNMENT((#217));
#108=EDGE_CURVE('',#144,#148,#218,.T.);
#109=PRESENTATION_STYLE_ASSIGNMENT((#219));
#110=VERTEX_POINT('',#220);
#111=PRESENTATION_STYLE_ASSIGNMENT((#221));
#112=EDGE_CURVE('',#90,#100,#222,.T.);
#113=PRESENTATION_STYLE_ASSIGNMENT((#223));
#114=ADVANCED_FACE('',(#224),#225,.T.);
#115=PRESENTATION_STYLE_ASSIGNMENT((#226));
#116=VERTEX_POINT('',#227);
#117=PRESENTATION_STYLE_ASSIGNMENT((#228));
#118=ADVANCED_FACE('',(#229),#230,.T.);
#119=PRESENTATION_STYLE_ASSIGNMENT((#231));
#120=EDGE_CURVE('',#122,#116,#232,.T.);
#121=PRESENTATION_STYLE_ASSIGNMENT((#233));
#122=VERTEX_POINT('',#234);
#123=PRESENTATION_STYLE_ASSIGNMENT((#235));
#124=VERTEX_POINT('',#236);
#125=PRESENTATION_STYLE_ASSIGNMENT((#237));
#126=ADVANCED_FACE('',(#238),#239,.T.);
#127=PRESENTATION_STYLE_ASSIGNMENT((#240));
#128=EDGE_CURVE('',#70,#72,#241,.T.);
#129=PRESENTATION_STYLE_ASSIGNMENT((#242));
#130=ADVANCED_FACE('',(#243,#244),#245,.T.);
#131=PRESENTATION_STYLE_ASSIGNMENT((#246));
#132=EDGE_CURVE('',#88,#124,#247,.T.);
#133=PRESENTATION_STYLE_ASSIGNMENT((#248));
#134=EDGE_CURVE('',#100,#122,#249,.T.);
#135=PRESENTATION_STYLE_ASSIGNMENT((#250));
#136=MANIFOLD_SOLID_BREP('1',#251);
#137=PRESENTATION_STYLE_ASSIGNMENT((#252));
#138=ADVANCED_FACE('',(#253),#254,.T.);
#139=PRESENTATION_STYLE_ASSIGNMENT((#255));
#140=EDGE_CURVE('',#146,#110,#256,.T.);
#141=PRESENTATION_STYLE_ASSIGNMENT((#257));
#142=EDGE_CURVE('',#72,#70,#258,.T.);
#143=PRESENTATION_STYLE_ASSIGNMENT((#259));
#144=VERTEX_POINT('',#260);
#145=PRESENTATION_STYLE_ASSIGNMENT((#261));
#146=VERTEX_POINT('',#262);
#147=PRESENTATION_STYLE_ASSIGNMENT((#263));
#148=VERTEX_POINT('',#264);
#149=PRESENTATION_STYLE_ASSIGNMENT((#265));
#150=EDGE_CURVE('',#124,#144,#266,.T.);
#151=PRESENTATION_STYLE_ASSIGNMENT((#267));
#152=EDGE_CURVE('',#88,#110,#268,.T.);
#153=PRESENTATION_STYLE_ASSIGNMENT((#269));
#154=EDGE_CURVE('',#148,#146,#270,.T.);
#155=PRODUCT('1','1','PART-1-DESC',(#271));
#156=PRODUCT_DEFINITION('NONE','NONE',#272,#2);
#157=AXIS2_PLACEMENT_3D('',#273,#274,#275);
#160=LENGTH_MEASURE_WITH_UNIT(LENGTH_MEASURE(1.0),#276);
#163=DIMENSIONAL_EXPONENTS(1.0,0.0,0.0,0.0,0.0,0.0,0.0);
#165=DIMENSIONAL_EXPONENTS(0.0,0.0,0.0,0.0,0.0,0.0,0.0);
#171=SURFACE_STYLE_USAGE(.BOTH.,#277);
#172=FACE_OUTER_BOUND('',#278,.T.);
#173=CYLINDRICAL_SURFACE('',#279,9.4615);
#174=POINT_STYLE(' ',#280,POSITIVE_LENGTH_MEASURE(1.0E-006),#281);
#175=CARTESIAN_POINT('',(0.0,-9.525,-67.1));
#176=POINT_STYLE(' ',#282,POSITIVE_LENGTH_MEASURE(1.0E-006),#283);
#177=CARTESIAN_POINT('',(-1.16643755201581E-015,9.525,-67.1));
#178=SURFACE_STYLE_USAGE(.BOTH.,#284);
#179=FACE_OUTER_BOUND('',#285,.T.);
#180=CONICAL_SURFACE('',#286,9.18118791469758,0.523598775598298);
#181=CURVE_STYLE('',#287,POSITIVE_LENGTH_MEASURE(1.0E-006),#288);
#182=CIRCLE('',#289,9.4615);
#183=SURFACE_STYLE_USAGE(.BOTH.,#290);
#184=FACE_OUTER_BOUND('',#291,.T.);
#185=CONICAL_SURFACE('',#292,8.905289,1.0471975511966);
#186=CURVE_STYLE('',#293,POSITIVE_LENGTH_MEASURE(1.0E-006),#294);
#187=CIRCLE('',#295,9.525);
#188=CURVE_STYLE('',#296,POSITIVE_LENGTH_MEASURE(1.0E-006),#297);
#189=CIRCLE('',#298,8.83737582939516);
#190=SURFACE_STYLE_USAGE(.BOTH.,#299);
#191=FACE_OUTER_BOUND('',#300,.T.);
#192=CONICAL_SURFACE('',#301,8.905289,1.0471975511966);
#193=CURVE_STYLE('',#302,POSITIVE_LENGTH_MEASURE(1.0E-006),#303);
#194=CIRCLE('',#304,9.4615);
#195=POINT_STYLE(' ',#305,POSITIVE_LENGTH_MEASURE(1.0E-006),#306);
#196=CARTESIAN_POINT('',(0.0,9.4615,-67.1));
#197=POINT_STYLE(' ',#307,POSITIVE_LENGTH_MEASURE(1.0E-006),#308);
#198=CARTESIAN_POINT('',(1.16643755201581E-015,-9.525,-1.191));
#199=CURVE_STYLE('',#309,POSITIVE_LENGTH_MEASURE(1.0E-006),#310);
#200=CIRCLE('',#311,9.4615);
#201=CURVE_STYLE('',#312,POSITIVE_LENGTH_MEASURE(1.0E-006),#313);
#202=CIRCLE('',#314,9.525);
#203=SURFACE_STYLE_USAGE(.BOTH.,#315);
#204=FACE_OUTER_BOUND('',#316,.T.);
#205=CYLINDRICAL_SURFACE('',#317,9.525);
#206=CURVE_STYLE('',#318,POSITIVE_LENGTH_MEASURE(1.0E-006),#319);
#207=CIRCLE('',#320,8.349078);
#208=POINT_STYLE(' ',#321,POSITIVE_LENGTH_MEASURE(1.0E-006),#322);
#209=CARTESIAN_POINT('',(1.08223065917936E-015,-8.83737582939516,7.105427357601E-015));
#210=CURVE_STYLE('',#323,POSITIVE_LENGTH_MEASURE(1.0E-006),#324);
#211=LINE('',#325,#326);
#212=CURVE_STYLE('',#327,POSITIVE_LENGTH_MEASURE(1.0E-006),#328);
#213=LINE('',#329,#330);
#214=SURFACE_STYLE_USAGE(.BOTH.,#331);
#215=FACE_OUTER_BOUND('',#332,.T.);
#216=CONICAL_SURFACE('',#333,9.18118791469758,0.523598775598298);
#217=CURVE_STYLE('',#334,POSITIVE_LENGTH_MEASURE(1.0E-006),#335);
#218=CIRCLE('',#336,8.349078);
#219=POINT_STYLE(' ',#337,POSITIVE_LENGTH_MEASURE(1.0E-006),#338);
#220=CARTESIAN_POINT('',(1.15866130166904E-015,-9.4615,-67.1));
#221=CURVE_STYLE('',#339,POSITIVE_LENGTH_MEASURE(1.0E-006),#340);
#222=LINE('',#341,#342);
#223=SURFACE_STYLE_USAGE(.BOTH.,#343);
#224=FACE_OUTER_BOUND('',#344,.T.);
#225=PLANE('',#345);
#226=POINT_STYLE(' ',#346,POSITIVE_LENGTH_MEASURE(1.0E-006),#347);
#227=CARTESIAN_POINT('',(0.0,9.525,-1.191));
#228=SURFACE_STYLE_USAGE(.BOTH.,#348);
#229=FACE_OUTER_BOUND('',#349,.T.);
#230=CYLINDRICAL_SURFACE('',#350,9.4615);
#231=CURVE_STYLE('',#351,POSITIVE_LENGTH_MEASURE(1.0E-006),#352);
#232=LINE('',#353,#354);
#233=POINT_STYLE(' ',#355,POSITIVE_LENGTH_MEASURE(1.0E-006),#356);
#234=CARTESIAN_POINT('',(0.0,8.83737582939516,7.105427357601E-015));
#235=POINT_STYLE(' ',#357,POSITIVE_LENGTH_MEASURE(1.0E-006),#358);
#236=CARTESIAN_POINT('',(0.0,9.4615,-100.957742858848));
#237=SURFACE_STYLE_USAGE(.BOTH.,#359);
#238=FACE_OUTER_BOUND('',#360,.T.);
#239=CYLINDRICAL_SURFACE('',#361,9.525);
#240=CURVE_STYLE('',#362,POSITIVE_LENGTH_MEASURE(1.0E-006),#363);
#241=CIRCLE('',#364,9.525);
#242=SURFACE_STYLE_USAGE(.BOTH.,#365);
#243=FACE_BOUND('',#366,.T.);
#244=FACE_OUTER_BOUND('',#367,.T.);
#245=PLANE('',#368);
#246=CURVE_STYLE('',#369,POSITIVE_LENGTH_MEASURE(1.0E-006),#370);
#247=LINE('',#371,#372);
#248=CURVE_STYLE('',#373,POSITIVE_LENGTH_MEASURE(1.0E-006),#374);
#249=CIRCLE('',#375,8.83737582939516);
#250=SURFACE_STYLE_USAGE(.BOTH.,#376);
#251=CLOSED_SHELL('',(#96,#106,#84,#118,#68,#78,#130,#114,#74,#126,#138));
#252=SURFACE_STYLE_USAGE(.BOTH.,#377);
#253=FACE_OUTER_BOUND('',#378,.T.);
#254=PLANE('',#379);
#255=CURVE_STYLE('',#380,POSITIVE_LENGTH_MEASURE(1.0E-006),#381);
#256=LINE('',#382,#383);
#257=CURVE_STYLE('',#384,POSITIVE_LENGTH_MEASURE(1.0E-006),#385);
#258=CIRCLE('',#386,9.525);
#259=POINT_STYLE(' ',#387,POSITIVE_LENGTH_MEASURE(1.0E-006),#388);
#260=CARTESIAN_POINT('',(0.0,8.349078,-101.6));
#261=POINT_STYLE(' ',#389,POSITIVE_LENGTH_MEASURE(1.0E-006),#390);
#262=CARTESIAN_POINT('',(1.15866130166904E-015,-9.4615,-100.957742858848));
#263=POINT_STYLE(' ',#391,POSITIVE_LENGTH_MEASURE(1.0E-006),#392);
#264=CARTESIAN_POINT('',(1.02243339673586E-015,-8.349078,-101.6));
#265=CURVE_STYLE('',#393,POSITIVE_LENGTH_MEASURE(1.0E-006),#394);
#266=LINE('',#395,#396);
#267=CURVE_STYLE('',#397,POSITIVE_LENGTH_MEASURE(1.0E-006),#398);
#268=CIRCLE('',#399,9.4615);
#269=CURVE_STYLE('',#400,POSITIVE_LENGTH_MEASURE(1.0E-006),#401);
#270=LINE('',#402,#403);
#271=PRODUCT_CONTEXT('',#54,'mechanical');
#272=PRODUCT_DEFINITION_FORMATION_WITH_SPECIFIED_SOURCE(' ','NONE',#155,.NOT_KNOWN.);
#273=CARTESIAN_POINT('',(0.0,0.0,0.0));
#274=DIRECTION('',(0.0,0.0,1.0));
#275=DIRECTION('',(1.0,0.0,0.0));
#276= (NAMED_UNIT(#163)LENGTH_UNIT()SI_UNIT(.MILLI.,.METRE.));
#277=SURFACE_SIDE_STYLE('',(#405));
#278=EDGE_LOOP('',(#406,#407,#408,#409));
#279=AXIS2_PLACEMENT_3D('',#410,#411,#412);
#280=PRE_DEFINED_MARKER('');
#281=COLOUR_RGB('',0.498039215803146,0.498039215803146,0.498039215803146);
#282=PRE_DEFINED_MARKER('');
#283=COLOUR_RGB('',0.498039215803146,0.498039215803146,0.498039215803146);
#284=SURFACE_SIDE_STYLE('',(#413));
#285=EDGE_LOOP('',(#414,#415,#416,#417));
#286=AXIS2_PLACEMENT_3D('',#418,#419,#420);
#287=DRAUGHTING_PRE_DEFINED_CURVE_FONT('continuous');
#288=COLOUR_RGB('',0.800000011920929,0.800000011920929,0.800000011920929);
#289=AXIS2_PLACEMENT_3D('',#421,#422,#423);
#290=SURFACE_SIDE_STYLE('',(#424));
#291=EDGE_LOOP('',(#425,#426,#427,#428));
#292=AXIS2_PLACEMENT_3D('',#429,#430,#431);
#293=DRAUGHTING_PRE_DEFINED_CURVE_FONT('continuous');
#294=COLOUR_RGB('',0.498039215803146,0.498039215803146,0.498039215803146);
#295=AXIS2_PLACEMENT_3D('',#432,#433,#434);
#296=DRAUGHTING_PRE_DEFINED_CURVE_FONT('continuous');
#297=COLOUR_RGB('',0.498039215803146,0.498039215803146,0.498039215803146);
#298=AXIS2_PLACEMENT_3D('',#435,#436,#437);
#299=SURFACE_SIDE_STYLE('',(#438));
#300=EDGE_LOOP('',(#439,#440,#441,#442));
#301=AXIS2_PLACEMENT_3D('',#443,#444,#445);
#302=DRAUGHTING_PRE_DEFINED_CURVE_FONT('continuous');
#303=COLOUR_RGB('',0.800000011920929,0.800000011920929,0.800000011920929);
#304=AXIS2_PLACEMENT_3D('',#446,#447,#448);
#305=PRE_DEFINED_MARKER('');
#306=COLOUR_RGB('',0.498039215803146,0.498039215803146,0.498039215803146);
#307=PRE_DEFINED_MARKER('');
#308=COLOUR_RGB('',0.498039215803146,0.498039215803146,0.498039215803146);
#309=DRAUGHTING_PRE_DEFINED_CURVE_FONT('continuous');
#310=COLOUR_RGB('',0.498039215803146,0.498039215803146,0.498039215803146);
#311=AXIS2_PLACEMENT_3D('',#449,#450,#451);
#312=DRAUGHTING_PRE_DEFINED_CURVE_FONT('continuous');
#313=COLOUR_RGB('',0.498039215803146,0.498039215803146,0.498039215803146);
#314=AXIS2_PLACEMENT_3D('',#452,#453,#454);
#315=SURFACE_SIDE_STYLE('',(#455));
#316=EDGE_LOOP('',(#456,#457,#458,#459));
#317=AXIS2_PLACEMENT_3D('',#460,#461,#462);
#318=DRAUGHTING_PRE_DEFINED_CURVE_FONT('continuous');
#319=COLOUR_RGB('',0.498039215803146,0.498039215803146,0.498039215803146);
#320=AXIS2_PLACEMENT_3D('',#463,#464,#465);
#321=PRE_DEFINED_MARKER('');
#322=COLOUR_RGB('',0.498039215803146,0.498039215803146,0.498039215803146);
#323=DRAUGHTING_PRE_DEFINED_CURVE_FONT('continuous');
#324=COLOUR_RGB('',0.498039215803146,0.498039215803146,0.498039215803146);
#325=CARTESIAN_POINT('',(1.16643755201581E-015,-9.525,-26.3955));
#326=VECTOR('',#466,1.0);
#327=DRAUGHTING_PRE_DEFINED_CURVE_FONT('continuous');
#328=COLOUR_RGB('',0.498039215803146,0.498039215803146,0.498039215803146);
#329=CARTESIAN_POINT('',(-1.16643755201581E-015,9.525,-26.3955));
#330=VECTOR('',#467,1.0);
#331=SURFACE_SIDE_STYLE('',(#468));
#332=EDGE_LOOP('',(#469,#470,#471,#472));
#333=AXIS2_PLACEMENT_3D('',#473,#474,#475);
#334=DRAUGHTING_PRE_DEFINED_CURVE_FONT('continuous');
#335=COLOUR_RGB('',0.498039215803146,0.498039215803146,0.498039215803146);
#336=AXIS2_PLACEMENT_3D('',#476,#477,#478);
#337=PRE_DEFINED_MARKER('');
#338=COLOUR_RGB('',0.498039215803146,0.498039215803146,0.498039215803146);
#339=DRAUGHTING_PRE_DEFINED_CURVE_FONT('continuous');
#340=COLOUR_RGB('',0.498039215803146,0.498039215803146,0.498039215803146);
#341=CARTESIAN_POINT('',(1.12433410559759E-015,-9.18118791469758,-0.595499999999994));
#342=VECTOR('',#479,1.0);
#343=SURFACE_SIDE_STYLE('',(#480));
#344=EDGE_LOOP('',(#481,#482));
#345=AXIS2_PLACEMENT_3D('',#483,#484,#485);
#346=PRE_DEFINED_MARKER('');
#347=COLOUR_RGB('',0.498039215803146,0.498039215803146,0.498039215803146);
#348=SURFACE_SIDE_STYLE('',(#486));
#349=EDGE_LOOP('',(#487,#488,#489,#490));
#350=AXIS2_PLACEMENT_3D('',#491,#492,#493);
#351=DRAUGHTING_PRE_DEFINED_CURVE_FONT('continuous');
#352=COLOUR_RGB('',0.498039215803146,0.498039215803146,0.498039215803146);
#353=CARTESIAN_POINT('',(-1.12433410559759E-015,9.18118791469758,-0.595499999999994));
#354=VECTOR('',#494,1.0);
#355=PRE_DEFINED_MARKER('');
#356=COLOUR_RGB('',0.498039215803146,0.498039215803146,0.498039215803146);
#357=PRE_DEFINED_MARKER('');
#358=COLOUR_RGB('',0.800000011920929,0.800000011920929,0.800000011920929);
#359=SURFACE_SIDE_STYLE('',(#495));
#360=EDGE_LOOP('',(#496,#497,#498,#499));
#361=AXIS2_PLACEMENT_3D('',#500,#501,#502);
#362=DRAUGHTING_PRE_DEFINED_CURVE_FONT('continuous');
#363=COLOUR_RGB('',0.498039215803146,0.498039215803146,0.498039215803146);
#364=AXIS2_PLACEMENT_3D('',#503,#504,#505);
#365=SURFACE_SIDE_STYLE('',(#506));
#366=EDGE_LOOP('',(#507,#508));
#367=EDGE_LOOP('',(#509,#510));
#368=AXIS2_PLACEMENT_3D('',#511,#512,#513);
#369=DRAUGHTING_PRE_DEFINED_CURVE_FONT('continuous');
#370=COLOUR_RGB('',0.800000011920929,0.800000011920929,0.800000011920929);
#371=CARTESIAN_POINT('',(-1.15866130166904E-015,9.4615,-84.0288714294238));
#372=VECTOR('',#514,1.0);
#373=DRAUGHTING_PRE_DEFINED_CURVE_FONT('continuous');
#374=COLOUR_RGB('',0.498039215803146,0.498039215803146,0.498039215803146);
#375=AXIS2_PLACEMENT_3D('',#515,#516,#517);
#376=SURFACE_SIDE_STYLE('',(#518));
#377=SURFACE_SIDE_STYLE('',(#519));
#378=EDGE_LOOP('',(#520,#521));
#379=AXIS2_PLACEMENT_3D('',#522,#523,#524);
#380=DRAUGHTING_PRE_DEFINED_CURVE_FONT('continuous');
#381=COLOUR_RGB('',0.800000011920929,0.800000011920929,0.800000011920929);
#382=CARTESIAN_POINT('',(1.15866130166904E-015,-9.4615,-84.0288714294238));
#383=VECTOR('',#525,1.0);
#384=DRAUGHTING_PRE_DEFINED_CURVE_FONT('continuous');
#385=COLOUR_RGB('',0.498039215803146,0.498039215803146,0.498039215803146);
#386=AXIS2_PLACEMENT_3D('',#526,#527,#528);
#387=PRE_DEFINED_MARKER('');
#388=COLOUR_RGB('',0.498039215803146,0.498039215803146,0.498039215803146);
#389=PRE_DEFINED_MARKER('');
#390=COLOUR_RGB('',0.800000011920929,0.800000011920929,0.800000011920929);
#391=PRE_DEFINED_MARKER('');
#392=COLOUR_RGB('',0.498039215803146,0.498039215803146,0.498039215803146);
#393=DRAUGHTING_PRE_DEFINED_CURVE_FONT('continuous');
#394=COLOUR_RGB('',0.800000011920929,0.800000011920929,0.800000011920929);
#395=CARTESIAN_POINT('',(-1.09054734920245E-015,8.905289,-101.278871429424));
#396=VECTOR('',#529,1.0);
#397=DRAUGHTING_PRE_DEFINED_CURVE_FONT('continuous');
#398=COLOUR_RGB('',0.498039215803146,0.498039215803146,0.498039215803146);
#399=AXIS2_PLACEMENT_3D('',#530,#531,#532);
#400=DRAUGHTING_PRE_DEFINED_CURVE_FONT('continuous');
#401=COLOUR_RGB('',0.800000011920929,0.800000011920929,0.800000011920929);
#402=CARTESIAN_POINT('',(1.09054734920245E-015,-8.905289,-101.278871429424));
#403=VECTOR('',#533,1.0);
#405=SURFACE_STYLE_FILL_AREA(#534);
#406=ORIENTED_EDGE('',*,*,#132,.T.);
#407=ORIENTED_EDGE('',*,*,#76,.F.);
#408=ORIENTED_EDGE('',*,*,#140,.T.);
#409=ORIENTED_EDGE('',*,*,#152,.F.);
#410=CARTESIAN_POINT('',(0.0,0.0,-84.0288714294238));
#411=DIRECTION('',(-0.0,-0.0,1.0));
#412=DIRECTION('',(0.0,1.0,0.0));
#413=SURFACE_STYLE_FILL_AREA(#535);
#414=ORIENTED_EDGE('',*,*,#120,.T.);
#415=ORIENTED_EDGE('',*,*,#94,.F.);
#416=ORIENTED_EDGE('',*,*,#112,.T.);
#417=ORIENTED_EDGE('',*,*,#134,.T.);
#418=CARTESIAN_POINT('',(0.0,0.0,-0.595499999999994));
#419=DIRECTION('',(0.0,-0.0,-1.0));
#420=DIRECTION('',(0.0,1.0,0.0));
#421=CARTESIAN_POINT('',(0.0,0.0,-100.957742858848));
#422=DIRECTION('',(0.0,0.0,-1.0));
#423=DIRECTION('',(0.0,1.0,0.0));
#424=SURFACE_STYLE_FILL_AREA(#536);
#425=ORIENTED_EDGE('',*,*,#150,.T.);
#426=ORIENTED_EDGE('',*,*,#98,.F.);
#427=ORIENTED_EDGE('',*,*,#154,.T.);
#428=ORIENTED_EDGE('',*,*,#76,.T.);
#429=CARTESIAN_POINT('',(0.0,0.0,-101.278871429424));
#430=DIRECTION('',(-0.0,-0.0,1.0));
#431=DIRECTION('',(0.0,1.0,0.0));
#432=CARTESIAN_POINT('',(0.0,0.0,-1.191));
#433=DIRECTION('',(0.0,0.0,-1.0));
#434=DIRECTION('',(0.0,1.0,0.0));
#435=CARTESIAN_POINT('',(0.0,0.0,7.105427357601E-015));
#436=DIRECTION('',(0.0,0.0,-1.0));
#437=DIRECTION('',(0.0,1.0,0.0));
#438=SURFACE_STYLE_FILL_AREA(#537);
#439=ORIENTED_EDGE('',*,*,#150,.F.);
#440=ORIENTED_EDGE('',*,*,#86,.T.);
#441=ORIENTED_EDGE('',*,*,#154,.F.);
#442=ORIENTED_EDGE('',*,*,#108,.F.);
#443=CARTESIAN_POINT('',(0.0,0.0,-101.278871429424));
#444=DIRECTION('',(-0.0,-0.0,1.0));
#445=DIRECTION('',(0.0,1.0,0.0));
#446=CARTESIAN_POINT('',(0.0,0.0,-100.957742858848));
#447=DIRECTION('',(0.0,0.0,-1.0));
#448=DIRECTION('',(0.0,1.0,0.0));
#449=CARTESIAN_POINT('',(0.0,0.0,-67.1));
#450=DIRECTION('',(0.0,-0.0,1.0));
#451=DIRECTION('',(0.0,1.0,0.0));
#452=CARTESIAN_POINT('',(0.0,0.0,-1.191));
#453=DIRECTION('',(0.0,0.0,-1.0));
#454=DIRECTION('',(0.0,1.0,0.0));
#455=SURFACE_STYLE_FILL_AREA(#538);
#456=ORIENTED_EDGE('',*,*,#104,.F.);
#457=ORIENTED_EDGE('',*,*,#80,.T.);
#458=ORIENTED_EDGE('',*,*,#102,.F.);
#459=ORIENTED_EDGE('',*,*,#142,.F.);
#460=CARTESIAN_POINT('',(0.0,0.0,-26.3955));
#461=DIRECTION('',(-0.0,-0.0,1.0));
#462=DIRECTION('',(0.0,1.0,0.0));
#463=CARTESIAN_POINT('',(0.0,0.0,-101.6));
#464=DIRECTION('',(0.0,0.0,-1.0));
#465=DIRECTION('',(0.0,1.0,0.0));
#466=DIRECTION('',(-0.0,-0.0,1.0));
#467=DIRECTION('',(0.0,0.0,-1.0));
#468=SURFACE_STYLE_FILL_AREA(#539);
#469=ORIENTED_EDGE('',*,*,#120,.F.);
#470=ORIENTED_EDGE('',*,*,#82,.T.);
#471=ORIENTED_EDGE('',*,*,#112,.F.);
#472=ORIENTED_EDGE('',*,*,#80,.F.);
#473=CARTESIAN_POINT('',(0.0,0.0,-0.595499999999994));
#474=DIRECTION('',(0.0,-0.0,-1.0));
#475=DIRECTION('',(0.0,1.0,0.0));
#476=CARTESIAN_POINT('',(0.0,0.0,-101.6));
#477=DIRECTION('',(0.0,0.0,-1.0));
#478=DIRECTION('',(0.0,1.0,0.0));
#479=DIRECTION('',(-6.12303176911187E-017,0.499999999999999,0.866025403784439));
#480=SURFACE_STYLE_FILL_AREA(#540);
#481=ORIENTED_EDGE('',*,*,#82,.F.);
#482=ORIENTED_EDGE('',*,*,#134,.F.);
#483=CARTESIAN_POINT('',(0.0,4.41868791469758,7.105427357601E-015));
#484=DIRECTION('',(-0.0,0.0,1.0));
#485=DIRECTION('',(0.0,-1.0,0.0));
#486=SURFACE_STYLE_FILL_AREA(#541);
#487=ORIENTED_EDGE('',*,*,#132,.F.);
#488=ORIENTED_EDGE('',*,*,#92,.F.);
#489=ORIENTED_EDGE('',*,*,#140,.F.);
#490=ORIENTED_EDGE('',*,*,#86,.F.);
#491=CARTESIAN_POINT('',(0.0,0.0,-84.0288714294238));
#492=DIRECTION('',(-0.0,-0.0,1.0));
#493=DIRECTION('',(0.0,1.0,0.0));
#494=DIRECTION('',(-6.12303176911187E-017,0.499999999999999,-0.866025403784439));
#495=SURFACE_STYLE_FILL_AREA(#542);
#496=ORIENTED_EDGE('',*,*,#104,.T.);
#497=ORIENTED_EDGE('',*,*,#128,.F.);
#498=ORIENTED_EDGE('',*,*,#102,.T.);
#499=ORIENTED_EDGE('',*,*,#94,.T.);
#500=CARTESIAN_POINT('',(0.0,0.0,-26.3955));
#501=DIRECTION('',(-0.0,-0.0,1.0));
#502=DIRECTION('',(0.0,1.0,0.0));
#503=CARTESIAN_POINT('',(0.0,0.0,-67.1));
#504=DIRECTION('',(0.0,0.0,-1.0));
#505=DIRECTION('',(0.0,-1.0,0.0));
#506=SURFACE_STYLE_FILL_AREA(#543);
#507=ORIENTED_EDGE('',*,*,#152,.T.);
#508=ORIENTED_EDGE('',*,*,#92,.T.);
#509=ORIENTED_EDGE('',*,*,#128,.T.);
#510=ORIENTED_EDGE('',*,*,#142,.T.);
#511=CARTESIAN_POINT('',(0.0,0.0,-67.1));
#512=DIRECTION('',(0.0,0.0,-1.0));
#513=DIRECTION('',(0.0,-1.0,0.0));
#514=DIRECTION('',(0.0,0.0,-1.0));
#515=CARTESIAN_POINT('',(0.0,0.0,7.105427357601E-015));
#516=DIRECTION('',(0.0,0.0,-1.0));
#517=DIRECTION('',(0.0,1.0,0.0));
#518=SURFACE_STYLE_FILL_AREA(#544);
#519=SURFACE_STYLE_FILL_AREA(#545);
#520=ORIENTED_EDGE('',*,*,#108,.T.);
#521=ORIENTED_EDGE('',*,*,#98,.T.);
#522=CARTESIAN_POINT('',(0.0,4.174539,-101.6));
#523=DIRECTION('',(0.0,0.0,-1.0));
#524=DIRECTION('',(0.0,1.0,0.0));
#525=DIRECTION('',(-0.0,-0.0,1.0));
#526=CARTESIAN_POINT('',(0.0,0.0,-67.1));
#527=DIRECTION('',(0.0,0.0,-1.0));
#528=DIRECTION('',(0.0,-1.0,0.0));
#529=DIRECTION('',(1.06054021204601E-016,-0.866025403784438,-0.5));
#530=CARTESIAN_POINT('',(0.0,0.0,-67.1));
#531=DIRECTION('',(0.0,-0.0,1.0));
#532=DIRECTION('',(0.0,1.0,0.0));
#533=DIRECTION('',(1.06054021204601E-016,-0.866025403784438,0.5));
#534=FILL_AREA_STYLE('',(#546));
#535=FILL_AREA_STYLE('',(#547));
#536=FILL_AREA_STYLE('',(#548));
#537=FILL_AREA_STYLE('',(#549));
#538=FILL_AREA_STYLE('',(#550));
#539=FILL_AREA_STYLE('',(#551));
#540=FILL_AREA_STYLE('',(#552));
#541=FILL_AREA_STYLE('',(#553));
#542=FILL_AREA_STYLE('',(#554));
#543=FILL_AREA_STYLE('',(#555));
#544=FILL_AREA_STYLE('',(#556));
#545=FILL_AREA_STYLE('',(#557));
#546=FILL_AREA_STYLE_COLOUR('',#558);
#547=FILL_AREA_STYLE_COLOUR('',#559);
#548=FILL_AREA_STYLE_COLOUR('',#560);
#549=FILL_AREA_STYLE_COLOUR('',#561);
#550=FILL_AREA_STYLE_COLOUR('',#562);
#551=FILL_AREA_STYLE_COLOUR('',#563);
#552=FILL_AREA_STYLE_COLOUR('',#564);
#553=FILL_AREA_STYLE_COLOUR('',#565);
#554=FILL_AREA_STYLE_COLOUR('',#566);
#555=FILL_AREA_STYLE_COLOUR('',#567);
#556=FILL_AREA_STYLE_COLOUR('',#568);
#557=FILL_AREA_STYLE_COLOUR('',#569);
#558=COLOUR_RGB('',0.800000011920929,0.800000011920929,0.800000011920929);
#559=COLOUR_RGB('',0.498039215803146,0.498039215803146,0.498039215803146);
#560=COLOUR_RGB('',0.800000011920929,0.800000011920929,0.800000011920929);
#561=COLOUR_RGB('',0.800000011920929,0.800000011920929,0.800000011920929);
#562=COLOUR_RGB('',0.498039215803146,0.498039215803146,0.498039215803146);
#563=COLOUR_RGB('',0.498039215803146,0.498039215803146,0.498039215803146);
#564=COLOUR_RGB('',0.498039215803146,0.498039215803146,0.498039215803146);
#565=COLOUR_RGB('',0.800000011920929,0.800000011920929,0.800000011920929);
#566=COLOUR_RGB('',0.498039215803146,0.498039215803146,0.498039215803146);
#567=COLOUR_RGB('',0.498039215803146,0.498039215803146,0.498039215803146);
#568=COLOUR_RGB('',0.498039215803146,0.498039215803146,0.498039215803146);
#569=COLOUR_RGB('',0.498039215803146,0.498039215803146,0.498039215803146);
#570=AXIS2_PLACEMENT_3D('PCS',#571,#572,#573);
#571=CARTESIAN_POINT('',(0.0,0.0,0.0));
#572=DIRECTION('',(0.0,0.0,1.0));
#573=DIRECTION('',(1.0,0.0,0.0));
#574=AXIS2_PLACEMENT_3D('CIP',#575,#576,#577);
#575=CARTESIAN_POINT('',(0.0,0.0,-101.6));
#576=DIRECTION('',(0.0,0.0,1.0));
#577=DIRECTION('',(1.0,0.0,0.0));
#578=AXIS2_PLACEMENT_3D('CRP',#579,#580,#581);
#579=CARTESIAN_POINT('',(-9.4615,0.0,-101.6));
#580=DIRECTION('',(0.0,0.0,1.0));
#581=DIRECTION('',(1.0,0.0,0.0));
#582=AXIS2_PLACEMENT_3D('MCS',#583,#584,#585);
#583=CARTESIAN_POINT('',(0.0,0.0,-51.6));
#584=DIRECTION('',(0.0,0.0,1.0));
#585=DIRECTION('',(1.0,0.0,0.0));
#586=CONSTRUCTIVE_GEOMETRY_REPRESENTATION_RELATIONSHIP('coordinate systems',$,#58,#587);
#587=CONSTRUCTIVE_GEOMETRY_REPRESENTATION('coordinate systems',(#570,#574,#578,#582),#6);
ENDSEC;
END-ISO-10303-21;
