ISO-10303-21;
HEADER;
FILE_DESCRIPTION(('no description'),'unknown implementation level');
FILE_NAME('solidocnRzoJ2V8tHGzzqDDYu_upMfmU_1.STP','  ',('CIMSOURCE GmbH'),('CADClick - KiM GmbH - www.kimweb.de'),'unknown preprocess','ACIS','unknown authorization');
FILE_SCHEMA(('automotive_design'));
ENDSEC;
DATA;
#1=MECHANICAL_DESIGN_GEOMETRIC_PRESENTATION_REPRESENTATION(' ',(#10,#11,#12,#13,#14,#15,#16,#17,#18,#19,#20,#21,#22,#23,#24,#25,#26,#27,#28,#29,#30,#31,#32,#33,#34,#35,#36,#37,#38,#39,#40,#41,#42,#43,#44,#45,#46,#47,#48,#49,#50,#51,#52,#53),#6);
#2=PRODUCT_DEFINITION_CONTEXT('',#54,'design');
#3=APPLICATION_PROTOCOL_DEFINITION('INTERNATIONAL STANDARD','automotive_design',1994,#54);
#4=PRODUCT_CATEGORY_RELATIONSHIP('NONE','NONE',#55,#56);
#5=SHAPE_DEFINITION_REPRESENTATION(#57,#58);
#6= (GEOMETRIC_REPRESENTATION_CONTEXT(3)GLOBAL_UNCERTAINTY_ASSIGNED_CONTEXT((#61))GLOBAL_UNIT_ASSIGNED_CONTEXT((#63,#64,#65))REPRESENTATION_CONTEXT('NONE','WORKSPACE'));
#10=STYLED_ITEM('',(#67),#68);
#11=STYLED_ITEM('',(#69),#70);
#12=STYLED_ITEM('',(#71),#72);
#13=STYLED_ITEM('',(#73),#74);
#14=STYLED_ITEM('',(#75),#76);
#15=STYLED_ITEM('',(#77),#78);
#16=STYLED_ITEM('',(#79),#80);
#17=STYLED_ITEM('',(#81),#82);
#18=STYLED_ITEM('',(#83),#84);
#19=STYLED_ITEM('',(#85),#86);
#20=STYLED_ITEM('',(#87),#88);
#21=STYLED_ITEM('',(#89),#90);
#22=STYLED_ITEM('',(#91),#92);
#23=STYLED_ITEM('',(#93),#94);
#24=STYLED_ITEM('',(#95),#96);
#25=STYLED_ITEM('',(#97),#98);
#26=STYLED_ITEM('',(#99),#100);
#27=STYLED_ITEM('',(#101),#102);
#28=STYLED_ITEM('',(#103),#104);
#29=STYLED_ITEM('',(#105),#106);
#30=STYLED_ITEM('',(#107),#108);
#31=STYLED_ITEM('',(#109),#110);
#32=STYLED_ITEM('',(#111),#112);
#33=STYLED_ITEM('',(#113),#114);
#34=STYLED_ITEM('',(#115),#116);
#35=STYLED_ITEM('',(#117),#118);
#36=STYLED_ITEM('',(#119),#120);
#37=STYLED_ITEM('',(#121),#122);
#38=STYLED_ITEM('',(#123),#124);
#39=STYLED_ITEM('',(#125),#126);
#40=STYLED_ITEM('',(#127),#128);
#41=STYLED_ITEM('',(#129),#130);
#42=STYLED_ITEM('',(#131),#132);
#43=STYLED_ITEM('',(#133),#134);
#44=STYLED_ITEM('',(#135),#136);
#45=STYLED_ITEM('',(#137),#138);
#46=STYLED_ITEM('',(#139),#140);
#47=STYLED_ITEM('',(#141),#142);
#48=STYLED_ITEM('',(#143),#144);
#49=STYLED_ITEM('',(#145),#146);
#50=STYLED_ITEM('',(#147),#148);
#51=STYLED_ITEM('',(#149),#150);
#52=STYLED_ITEM('',(#151),#152);
#53=STYLED_ITEM('',(#153),#154);
#54=APPLICATION_CONTEXT(' ');
#55=PRODUCT_CATEGORY('part','NONE');
#56=PRODUCT_RELATED_PRODUCT_CATEGORY('detail',' ',(#155));
#57=PRODUCT_DEFINITION_SHAPE('NONE','NONE',#156);
#58=ADVANCED_BREP_SHAPE_REPRESENTATION('1',(#154,#157),#6);
#61=UNCERTAINTY_MEASURE_WITH_UNIT(LENGTH_MEASURE(1.0E-006),#63,'','');
#63= (CONVERSION_BASED_UNIT('MILLIMETRE',#160)LENGTH_UNIT()NAMED_UNIT(#163));
#64= (NAMED_UNIT(#165)PLANE_ANGLE_UNIT()SI_UNIT($,.RADIAN.));
#65= (NAMED_UNIT(#165)SOLID_ANGLE_UNIT()SI_UNIT($,.STERADIAN.));
#67=PRESENTATION_STYLE_ASSIGNMENT((#171));
#68=ADVANCED_FACE('',(#172),#173,.T.);
#69=PRESENTATION_STYLE_ASSIGNMENT((#174));
#70=VERTEX_POINT('',#175);
#71=PRESENTATION_STYLE_ASSIGNMENT((#176));
#72=ADVANCED_FACE('',(#177),#178,.T.);
#73=PRESENTATION_STYLE_ASSIGNMENT((#179));
#74=VERTEX_POINT('',#180);
#75=PRESENTATION_STYLE_ASSIGNMENT((#181));
#76=EDGE_CURVE('',#140,#144,#182,.T.);
#77=PRESENTATION_STYLE_ASSIGNMENT((#183));
#78=EDGE_CURVE('',#70,#74,#184,.T.);
#79=PRESENTATION_STYLE_ASSIGNMENT((#185));
#80=EDGE_CURVE('',#146,#134,#186,.T.);
#81=PRESENTATION_STYLE_ASSIGNMENT((#187));
#82=VERTEX_POINT('',#188);
#83=PRESENTATION_STYLE_ASSIGNMENT((#189));
#84=EDGE_CURVE('',#114,#122,#190,.T.);
#85=PRESENTATION_STYLE_ASSIGNMENT((#191));
#86=EDGE_CURVE('',#94,#82,#192,.T.);
#87=PRESENTATION_STYLE_ASSIGNMENT((#193));
#88=ADVANCED_FACE('',(#194),#195,.T.);
#89=PRESENTATION_STYLE_ASSIGNMENT((#196));
#90=ADVANCED_FACE('',(#197),#198,.T.);
#91=PRESENTATION_STYLE_ASSIGNMENT((#199));
#92=EDGE_CURVE('',#140,#82,#200,.T.);
#93=PRESENTATION_STYLE_ASSIGNMENT((#201));
#94=VERTEX_POINT('',#202);
#95=PRESENTATION_STYLE_ASSIGNMENT((#203));
#96=EDGE_CURVE('',#94,#144,#204,.T.);
#97=PRESENTATION_STYLE_ASSIGNMENT((#205));
#98=VERTEX_POINT('',#206);
#99=PRESENTATION_STYLE_ASSIGNMENT((#207));
#100=EDGE_CURVE('',#74,#128,#208,.T.);
#101=PRESENTATION_STYLE_ASSIGNMENT((#209));
#102=ADVANCED_FACE('',(#210),#211,.T.);
#103=PRESENTATION_STYLE_ASSIGNMENT((#212));
#104=EDGE_CURVE('',#134,#128,#213,.T.);
#105=PRESENTATION_STYLE_ASSIGNMENT((#214));
#106=ADVANCED_FACE('',(#215),#216,.T.);
#107=PRESENTATION_STYLE_ASSIGNMENT((#217));
#108=EDGE_CURVE('',#144,#114,#218,.T.);
#109=PRESENTATION_STYLE_ASSIGNMENT((#219));
#110=ADVANCED_FACE('',(#220),#221,.T.);
#111=PRESENTATION_STYLE_ASSIGNMENT((#222));
#112=ADVANCED_FACE('',(#223,#224),#225,.T.);
#113=PRESENTATION_STYLE_ASSIGNMENT((#226));
#114=VERTEX_POINT('',#227);
#115=PRESENTATION_STYLE_ASSIGNMENT((#228));
#116=EDGE_CURVE('',#144,#94,#229,.T.);
#117=PRESENTATION_STYLE_ASSIGNMENT((#230));
#118=ADVANCED_FACE('',(#231),#232,.T.);
#119=PRESENTATION_STYLE_ASSIGNMENT((#233));
#120=ADVANCED_FACE('',(#234),#235,.T.);
#121=PRESENTATION_STYLE_ASSIGNMENT((#236));
#122=VERTEX_POINT('',#237);
#123=PRESENTATION_STYLE_ASSIGNMENT((#238));
#124=EDGE_CURVE('',#134,#146,#239,.T.);
#125=PRESENTATION_STYLE_ASSIGNMENT((#240));
#126=EDGE_CURVE('',#70,#98,#241,.T.);
#127=PRESENTATION_STYLE_ASSIGNMENT((#242));
#128=VERTEX_POINT('',#243);
#129=PRESENTATION_STYLE_ASSIGNMENT((#244));
#130=EDGE_CURVE('',#74,#146,#245,.T.);
#131=PRESENTATION_STYLE_ASSIGNMENT((#246));
#132=EDGE_CURVE('',#82,#140,#247,.T.);
#133=PRESENTATION_STYLE_ASSIGNMENT((#248));
#134=VERTEX_POINT('',#249);
#135=PRESENTATION_STYLE_ASSIGNMENT((#250));
#136=ADVANCED_FACE('',(#251),#252,.T.);
#137=PRESENTATION_STYLE_ASSIGNMENT((#253));
#138=EDGE_CURVE('',#128,#98,#254,.T.);
#139=PRESENTATION_STYLE_ASSIGNMENT((#255));
#140=VERTEX_POINT('',#256);
#141=PRESENTATION_STYLE_ASSIGNMENT((#257));
#142=EDGE_CURVE('',#128,#74,#258,.T.);
#143=PRESENTATION_STYLE_ASSIGNMENT((#259));
#144=VERTEX_POINT('',#260);
#145=PRESENTATION_STYLE_ASSIGNMENT((#261));
#146=VERTEX_POINT('',#262);
#147=PRESENTATION_STYLE_ASSIGNMENT((#263));
#148=EDGE_CURVE('',#98,#70,#264,.T.);
#149=PRESENTATION_STYLE_ASSIGNMENT((#265));
#150=EDGE_CURVE('',#122,#94,#266,.T.);
#151=PRESENTATION_STYLE_ASSIGNMENT((#267));
#152=EDGE_CURVE('',#122,#114,#268,.T.);
#153=PRESENTATION_STYLE_ASSIGNMENT((#269));
#154=MANIFOLD_SOLID_BREP('1',#270);
#155=PRODUCT('1','1','PART-1-DESC',(#271));
#156=PRODUCT_DEFINITION('NONE','NONE',#272,#2);
#157=AXIS2_PLACEMENT_3D('',#273,#274,#275);
#160=LENGTH_MEASURE_WITH_UNIT(LENGTH_MEASURE(1.0),#276);
#163=DIMENSIONAL_EXPONENTS(1.0,0.0,0.0,0.0,0.0,0.0,0.0);
#165=DIMENSIONAL_EXPONENTS(0.0,0.0,0.0,0.0,0.0,0.0,0.0);
#171=SURFACE_STYLE_USAGE(.BOTH.,#277);
#172=FACE_OUTER_BOUND('',#278,.T.);
#173=CYLINDRICAL_SURFACE('',#279,9.525);
#174=POINT_STYLE(' ',#280,POSITIVE_LENGTH_MEASURE(1.0E-006),#281);
#175=CARTESIAN_POINT('',(9.20262466811371E-016,-7.51476149,-101.6));
#176=SURFACE_STYLE_USAGE(.BOTH.,#282);
#177=FACE_OUTER_BOUND('',#283,.T.);
#178=PLANE('',#284);
#179=POINT_STYLE(' ',#285,POSITIVE_LENGTH_MEASURE(1.0E-006),#286);
#180=CARTESIAN_POINT('',(1.15866130166904E-015,-9.4615,-100.47604999721));
#181=CURVE_STYLE('',#287,POSITIVE_LENGTH_MEASURE(1.0E-006),#288);
#182=LINE('',#289,#290);
#183=CURVE_STYLE('',#291,POSITIVE_LENGTH_MEASURE(1.0E-006),#292);
#184=LINE('',#293,#294);
#185=CURVE_STYLE('',#295,POSITIVE_LENGTH_MEASURE(1.0E-006),#296);
#186=CIRCLE('',#297,9.4615);
#187=POINT_STYLE(' ',#298,POSITIVE_LENGTH_MEASURE(1.0E-006),#299);
#188=CARTESIAN_POINT('',(1.08223065917936E-015,-8.83737582939516,7.105427357601E-015));
#189=CURVE_STYLE('',#300,POSITIVE_LENGTH_MEASURE(1.0E-006),#301);
#190=CIRCLE('',#302,9.525);
#191=CURVE_STYLE('',#303,POSITIVE_LENGTH_MEASURE(1.0E-006),#304);
#192=LINE('',#305,#306);
#193=SURFACE_STYLE_USAGE(.BOTH.,#307);
#194=FACE_OUTER_BOUND('',#308,.T.);
#195=CYLINDRICAL_SURFACE('',#309,9.4615);
#196=SURFACE_STYLE_USAGE(.BOTH.,#310);
#197=FACE_OUTER_BOUND('',#311,.T.);
#198=CONICAL_SURFACE('',#312,9.18118791469758,0.523598775598298);
#199=CURVE_STYLE('',#313,POSITIVE_LENGTH_MEASURE(1.0E-006),#314);
#200=CIRCLE('',#315,8.83737582939516);
#201=POINT_STYLE(' ',#316,POSITIVE_LENGTH_MEASURE(1.0E-006),#317);
#202=CARTESIAN_POINT('',(1.16643755201581E-015,-9.525,-1.191));
#203=CURVE_STYLE('',#318,POSITIVE_LENGTH_MEASURE(1.0E-006),#319);
#204=CIRCLE('',#320,9.525);
#205=POINT_STYLE(' ',#321,POSITIVE_LENGTH_MEASURE(1.0E-006),#322);
#206=CARTESIAN_POINT('',(0.0,7.51476149,-101.6));
#207=CURVE_STYLE('',#323,POSITIVE_LENGTH_MEASURE(1.0E-006),#324);
#208=CIRCLE('',#325,9.4615);
#209=SURFACE_STYLE_USAGE(.BOTH.,#326);
#210=FACE_OUTER_BOUND('',#327,.T.);
#211=PLANE('',#328);
#212=CURVE_STYLE('',#329,POSITIVE_LENGTH_MEASURE(1.0E-006),#330);
#213=LINE('',#331,#332);
#214=SURFACE_STYLE_USAGE(.BOTH.,#333);
#215=FACE_OUTER_BOUND('',#334,.T.);
#216=CONICAL_SURFACE('',#335,8.488130745,1.0471975511966);
#217=CURVE_STYLE('',#336,POSITIVE_LENGTH_MEASURE(1.0E-006),#337);
#218=LINE('',#338,#339);
#219=SURFACE_STYLE_USAGE(.BOTH.,#340);
#220=FACE_OUTER_BOUND('',#341,.T.);
#221=CONICAL_SURFACE('',#342,9.18118791469758,0.523598775598298);
#222=SURFACE_STYLE_USAGE(.BOTH.,#343);
#223=FACE_BOUND('',#344,.T.);
#224=FACE_OUTER_BOUND('',#345,.T.);
#225=PLANE('',#346);
#226=POINT_STYLE(' ',#347,POSITIVE_LENGTH_MEASURE(1.0E-006),#348);
#227=CARTESIAN_POINT('',(-1.16643755201581E-015,9.525,-60.3));
#228=CURVE_STYLE('',#349,POSITIVE_LENGTH_MEASURE(1.0E-006),#350);
#229=CIRCLE('',#351,9.525);
#230=SURFACE_STYLE_USAGE(.BOTH.,#352);
#231=FACE_OUTER_BOUND('',#353,.T.);
#232=CONICAL_SURFACE('',#354,8.488130745,1.0471975511966);
#233=SURFACE_STYLE_USAGE(.BOTH.,#355);
#234=FACE_OUTER_BOUND('',#356,.T.);
#235=CYLINDRICAL_SURFACE('',#357,9.525);
#236=POINT_STYLE(' ',#358,POSITIVE_LENGTH_MEASURE(1.0E-006),#359);
#237=CARTESIAN_POINT('',(0.0,-9.525,-60.3));
#238=CURVE_STYLE('',#360,POSITIVE_LENGTH_MEASURE(1.0E-006),#361);
#239=CIRCLE('',#362,9.4615);
#240=CURVE_STYLE('',#363,POSITIVE_LENGTH_MEASURE(1.0E-006),#364);
#241=CIRCLE('',#365,7.51476149);
#242=POINT_STYLE(' ',#366,POSITIVE_LENGTH_MEASURE(1.0E-006),#367);
#243=CARTESIAN_POINT('',(0.0,9.4615,-100.47604999721));
#244=CURVE_STYLE('',#368,POSITIVE_LENGTH_MEASURE(1.0E-006),#369);
#245=LINE('',#370,#371);
#246=CURVE_STYLE('',#372,POSITIVE_LENGTH_MEASURE(1.0E-006),#373);
#247=CIRCLE('',#374,8.83737582939516);
#248=POINT_STYLE(' ',#375,POSITIVE_LENGTH_MEASURE(1.0E-006),#376);
#249=CARTESIAN_POINT('',(0.0,9.4615,-60.3));
#250=SURFACE_STYLE_USAGE(.BOTH.,#377);
#251=FACE_OUTER_BOUND('',#378,.T.);
#252=CYLINDRICAL_SURFACE('',#379,9.4615);
#253=CURVE_STYLE('',#380,POSITIVE_LENGTH_MEASURE(1.0E-006),#381);
#254=LINE('',#382,#383);
#255=POINT_STYLE(' ',#384,POSITIVE_LENGTH_MEASURE(1.0E-006),#385);
#256=CARTESIAN_POINT('',(0.0,8.83737582939516,7.105427357601E-015));
#257=CURVE_STYLE('',#386,POSITIVE_LENGTH_MEASURE(1.0E-006),#387);
#258=CIRCLE('',#388,9.4615);
#259=POINT_STYLE(' ',#389,POSITIVE_LENGTH_MEASURE(1.0E-006),#390);
#260=CARTESIAN_POINT('',(0.0,9.525,-1.191));
#261=POINT_STYLE(' ',#391,POSITIVE_LENGTH_MEASURE(1.0E-006),#392);
#262=CARTESIAN_POINT('',(1.15866130166904E-015,-9.4615,-60.3));
#263=CURVE_STYLE('',#393,POSITIVE_LENGTH_MEASURE(1.0E-006),#394);
#264=CIRCLE('',#395,7.51476149);
#265=CURVE_STYLE('',#396,POSITIVE_LENGTH_MEASURE(1.0E-006),#397);
#266=LINE('',#398,#399);
#267=CURVE_STYLE('',#400,POSITIVE_LENGTH_MEASURE(1.0E-006),#401);
#268=CIRCLE('',#402,9.525);
#269=SURFACE_STYLE_USAGE(.BOTH.,#403);
#270=CLOSED_SHELL('',(#120,#110,#106,#136,#88,#118,#112,#72,#90,#68,#102));
#271=PRODUCT_CONTEXT('',#54,'mechanical');
#272=PRODUCT_DEFINITION_FORMATION_WITH_SPECIFIED_SOURCE(' ','NONE',#155,.NOT_KNOWN.);
#273=CARTESIAN_POINT('',(0.0,0.0,0.0));
#274=DIRECTION('',(0.0,0.0,1.0));
#275=DIRECTION('',(1.0,0.0,0.0));
#276= (NAMED_UNIT(#163)LENGTH_UNIT()SI_UNIT(.MILLI.,.METRE.));
#277=SURFACE_SIDE_STYLE('',(#405));
#278=EDGE_LOOP('',(#406,#407,#408,#409));
#279=AXIS2_PLACEMENT_3D('',#410,#411,#412);
#280=PRE_DEFINED_MARKER('');
#281=COLOUR_RGB('',0.498039215803146,0.498039215803146,0.498039215803146);
#282=SURFACE_SIDE_STYLE('',(#413));
#283=EDGE_LOOP('',(#414,#415));
#284=AXIS2_PLACEMENT_3D('',#416,#417,#418);
#285=PRE_DEFINED_MARKER('');
#286=COLOUR_RGB('',0.800000011920929,0.800000011920929,0.800000011920929);
#287=DRAUGHTING_PRE_DEFINED_CURVE_FONT('continuous');
#288=COLOUR_RGB('',0.498039215803146,0.498039215803146,0.498039215803146);
#289=CARTESIAN_POINT('',(-1.12433410559759E-015,9.18118791469758,-0.595499999999994));
#290=VECTOR('',#419,1.0);
#291=DRAUGHTING_PRE_DEFINED_CURVE_FONT('continuous');
#292=COLOUR_RGB('',0.800000011920929,0.800000011920929,0.800000011920929);
#293=CARTESIAN_POINT('',(1.03946188424021E-015,-8.488130745,-101.038024998605));
#294=VECTOR('',#420,1.0);
#295=DRAUGHTING_PRE_DEFINED_CURVE_FONT('continuous');
#296=COLOUR_RGB('',0.498039215803146,0.498039215803146,0.498039215803146);
#297=AXIS2_PLACEMENT_3D('',#421,#422,#423);
#298=PRE_DEFINED_MARKER('');
#299=COLOUR_RGB('',0.498039215803146,0.498039215803146,0.498039215803146);
#300=DRAUGHTING_PRE_DEFINED_CURVE_FONT('continuous');
#301=COLOUR_RGB('',0.498039215803146,0.498039215803146,0.498039215803146);
#302=AXIS2_PLACEMENT_3D('',#424,#425,#426);
#303=DRAUGHTING_PRE_DEFINED_CURVE_FONT('continuous');
#304=COLOUR_RGB('',0.498039215803146,0.498039215803146,0.498039215803146);
#305=CARTESIAN_POINT('',(1.12433410559759E-015,-9.18118791469758,-0.595499999999994));
#306=VECTOR('',#427,1.0);
#307=SURFACE_SIDE_STYLE('',(#428));
#308=EDGE_LOOP('',(#429,#430,#431,#432));
#309=AXIS2_PLACEMENT_3D('',#433,#434,#435);
#310=SURFACE_SIDE_STYLE('',(#436));
#311=EDGE_LOOP('',(#437,#438,#439,#440));
#312=AXIS2_PLACEMENT_3D('',#441,#442,#443);
#313=DRAUGHTING_PRE_DEFINED_CURVE_FONT('continuous');
#314=COLOUR_RGB('',0.498039215803146,0.498039215803146,0.498039215803146);
#315=AXIS2_PLACEMENT_3D('',#444,#445,#446);
#316=PRE_DEFINED_MARKER('');
#317=COLOUR_RGB('',0.498039215803146,0.498039215803146,0.498039215803146);
#318=DRAUGHTING_PRE_DEFINED_CURVE_FONT('continuous');
#319=COLOUR_RGB('',0.498039215803146,0.498039215803146,0.498039215803146);
#320=AXIS2_PLACEMENT_3D('',#447,#448,#449);
#321=PRE_DEFINED_MARKER('');
#322=COLOUR_RGB('',0.498039215803146,0.498039215803146,0.498039215803146);
#323=DRAUGHTING_PRE_DEFINED_CURVE_FONT('continuous');
#324=COLOUR_RGB('',0.800000011920929,0.800000011920929,0.800000011920929);
#325=AXIS2_PLACEMENT_3D('',#450,#451,#452);
#326=SURFACE_SIDE_STYLE('',(#453));
#327=EDGE_LOOP('',(#454,#455));
#328=AXIS2_PLACEMENT_3D('',#456,#457,#458);
#329=DRAUGHTING_PRE_DEFINED_CURVE_FONT('continuous');
#330=COLOUR_RGB('',0.800000011920929,0.800000011920929,0.800000011920929);
#331=CARTESIAN_POINT('',(-1.15866130166904E-015,9.4615,-80.3880249986048));
#332=VECTOR('',#459,1.0);
#333=SURFACE_SIDE_STYLE('',(#460));
#334=EDGE_LOOP('',(#461,#462,#463,#464));
#335=AXIS2_PLACEMENT_3D('',#465,#466,#467);
#336=DRAUGHTING_PRE_DEFINED_CURVE_FONT('continuous');
#337=COLOUR_RGB('',0.498039215803146,0.498039215803146,0.498039215803146);
#338=CARTESIAN_POINT('',(-1.16643755201581E-015,9.525,-22.6455));
#339=VECTOR('',#468,1.0);
#340=SURFACE_SIDE_STYLE('',(#469));
#341=EDGE_LOOP('',(#470,#471,#472,#473));
#342=AXIS2_PLACEMENT_3D('',#474,#475,#476);
#343=SURFACE_SIDE_STYLE('',(#477));
#344=EDGE_LOOP('',(#478,#479));
#345=EDGE_LOOP('',(#480,#481));
#346=AXIS2_PLACEMENT_3D('',#482,#483,#484);
#347=PRE_DEFINED_MARKER('');
#348=COLOUR_RGB('',0.498039215803146,0.498039215803146,0.498039215803146);
#349=DRAUGHTING_PRE_DEFINED_CURVE_FONT('continuous');
#350=COLOUR_RGB('',0.498039215803146,0.498039215803146,0.498039215803146);
#351=AXIS2_PLACEMENT_3D('',#485,#486,#487);
#352=SURFACE_SIDE_STYLE('',(#488));
#353=EDGE_LOOP('',(#489,#490,#491,#492));
#354=AXIS2_PLACEMENT_3D('',#493,#494,#495);
#355=SURFACE_SIDE_STYLE('',(#496));
#356=EDGE_LOOP('',(#497,#498,#499,#500));
#357=AXIS2_PLACEMENT_3D('',#501,#502,#503);
#358=PRE_DEFINED_MARKER('');
#359=COLOUR_RGB('',0.498039215803146,0.498039215803146,0.498039215803146);
#360=DRAUGHTING_PRE_DEFINED_CURVE_FONT('continuous');
#361=COLOUR_RGB('',0.498039215803146,0.498039215803146,0.498039215803146);
#362=AXIS2_PLACEMENT_3D('',#504,#505,#506);
#363=DRAUGHTING_PRE_DEFINED_CURVE_FONT('continuous');
#364=COLOUR_RGB('',0.498039215803146,0.498039215803146,0.498039215803146);
#365=AXIS2_PLACEMENT_3D('',#507,#508,#509);
#366=PRE_DEFINED_MARKER('');
#367=COLOUR_RGB('',0.800000011920929,0.800000011920929,0.800000011920929);
#368=DRAUGHTING_PRE_DEFINED_CURVE_FONT('continuous');
#369=COLOUR_RGB('',0.800000011920929,0.800000011920929,0.800000011920929);
#370=CARTESIAN_POINT('',(1.15866130166904E-015,-9.4615,-80.3880249986048));
#371=VECTOR('',#510,1.0);
#372=DRAUGHTING_PRE_DEFINED_CURVE_FONT('continuous');
#373=COLOUR_RGB('',0.498039215803146,0.498039215803146,0.498039215803146);
#374=AXIS2_PLACEMENT_3D('',#511,#512,#513);
#375=PRE_DEFINED_MARKER('');
#376=COLOUR_RGB('',0.498039215803146,0.498039215803146,0.498039215803146);
#377=SURFACE_SIDE_STYLE('',(#514));
#378=EDGE_LOOP('',(#515,#516,#517,#518));
#379=AXIS2_PLACEMENT_3D('',#519,#520,#521);
#380=DRAUGHTING_PRE_DEFINED_CURVE_FONT('continuous');
#381=COLOUR_RGB('',0.800000011920929,0.800000011920929,0.800000011920929);
#382=CARTESIAN_POINT('',(-1.03946188424021E-015,8.488130745,-101.038024998605));
#383=VECTOR('',#522,1.0);
#384=PRE_DEFINED_MARKER('');
#385=COLOUR_RGB('',0.498039215803146,0.498039215803146,0.498039215803146);
#386=DRAUGHTING_PRE_DEFINED_CURVE_FONT('continuous');
#387=COLOUR_RGB('',0.800000011920929,0.800000011920929,0.800000011920929);
#388=AXIS2_PLACEMENT_3D('',#523,#524,#525);
#389=PRE_DEFINED_MARKER('');
#390=COLOUR_RGB('',0.498039215803146,0.498039215803146,0.498039215803146);
#391=PRE_DEFINED_MARKER('');
#392=COLOUR_RGB('',0.498039215803146,0.498039215803146,0.498039215803146);
#393=DRAUGHTING_PRE_DEFINED_CURVE_FONT('continuous');
#394=COLOUR_RGB('',0.498039215803146,0.498039215803146,0.498039215803146);
#395=AXIS2_PLACEMENT_3D('',#526,#527,#528);
#396=DRAUGHTING_PRE_DEFINED_CURVE_FONT('continuous');
#397=COLOUR_RGB('',0.498039215803146,0.498039215803146,0.498039215803146);
#398=CARTESIAN_POINT('',(1.16643755201581E-015,-9.525,-22.6455));
#399=VECTOR('',#529,1.0);
#400=DRAUGHTING_PRE_DEFINED_CURVE_FONT('continuous');
#401=COLOUR_RGB('',0.498039215803146,0.498039215803146,0.498039215803146);
#402=AXIS2_PLACEMENT_3D('',#530,#531,#532);
#403=SURFACE_SIDE_STYLE('',(#533));
#405=SURFACE_STYLE_FILL_AREA(#534);
#406=ORIENTED_EDGE('',*,*,#108,.T.);
#407=ORIENTED_EDGE('',*,*,#152,.F.);
#408=ORIENTED_EDGE('',*,*,#150,.T.);
#409=ORIENTED_EDGE('',*,*,#96,.T.);
#410=CARTESIAN_POINT('',(0.0,0.0,-22.6455));
#411=DIRECTION('',(-0.0,-0.0,1.0));
#412=DIRECTION('',(0.0,1.0,0.0));
#413=SURFACE_STYLE_FILL_AREA(#535);
#414=ORIENTED_EDGE('',*,*,#92,.F.);
#415=ORIENTED_EDGE('',*,*,#132,.F.);
#416=CARTESIAN_POINT('',(0.0,4.41868791469758,7.105427357601E-015));
#417=DIRECTION('',(-0.0,0.0,1.0));
#418=DIRECTION('',(0.0,-1.0,0.0));
#419=DIRECTION('',(-6.12303176911187E-017,0.499999999999999,-0.866025403784439));
#420=DIRECTION('',(1.06054021204601E-016,-0.866025403784439,0.499999999999999));
#421=CARTESIAN_POINT('',(0.0,0.0,-60.3));
#422=DIRECTION('',(0.0,-0.0,1.0));
#423=DIRECTION('',(0.0,1.0,0.0));
#424=CARTESIAN_POINT('',(0.0,0.0,-60.3));
#425=DIRECTION('',(0.0,0.0,-1.0));
#426=DIRECTION('',(0.0,-1.0,0.0));
#427=DIRECTION('',(-6.12303176911187E-017,0.499999999999999,0.866025403784439));
#428=SURFACE_STYLE_FILL_AREA(#536);
#429=ORIENTED_EDGE('',*,*,#104,.T.);
#430=ORIENTED_EDGE('',*,*,#100,.F.);
#431=ORIENTED_EDGE('',*,*,#130,.T.);
#432=ORIENTED_EDGE('',*,*,#124,.F.);
#433=CARTESIAN_POINT('',(0.0,0.0,-80.3880249986048));
#434=DIRECTION('',(-0.0,-0.0,1.0));
#435=DIRECTION('',(0.0,1.0,0.0));
#436=SURFACE_STYLE_FILL_AREA(#537);
#437=ORIENTED_EDGE('',*,*,#76,.T.);
#438=ORIENTED_EDGE('',*,*,#96,.F.);
#439=ORIENTED_EDGE('',*,*,#86,.T.);
#440=ORIENTED_EDGE('',*,*,#132,.T.);
#441=CARTESIAN_POINT('',(0.0,0.0,-0.595499999999994));
#442=DIRECTION('',(0.0,-0.0,-1.0));
#443=DIRECTION('',(0.0,1.0,0.0));
#444=CARTESIAN_POINT('',(0.0,0.0,7.105427357601E-015));
#445=DIRECTION('',(0.0,0.0,-1.0));
#446=DIRECTION('',(0.0,1.0,0.0));
#447=CARTESIAN_POINT('',(0.0,0.0,-1.191));
#448=DIRECTION('',(0.0,0.0,-1.0));
#449=DIRECTION('',(0.0,1.0,0.0));
#450=CARTESIAN_POINT('',(0.0,0.0,-100.47604999721));
#451=DIRECTION('',(0.0,0.0,-1.0));
#452=DIRECTION('',(0.0,1.0,0.0));
#453=SURFACE_STYLE_FILL_AREA(#538);
#454=ORIENTED_EDGE('',*,*,#148,.T.);
#455=ORIENTED_EDGE('',*,*,#126,.T.);
#456=CARTESIAN_POINT('',(0.0,3.757380745,-101.6));
#457=DIRECTION('',(0.0,0.0,-1.0));
#458=DIRECTION('',(0.0,1.0,0.0));
#459=DIRECTION('',(0.0,0.0,-1.0));
#460=SURFACE_STYLE_FILL_AREA(#539);
#461=ORIENTED_EDGE('',*,*,#138,.F.);
#462=ORIENTED_EDGE('',*,*,#142,.T.);
#463=ORIENTED_EDGE('',*,*,#78,.F.);
#464=ORIENTED_EDGE('',*,*,#148,.F.);
#465=CARTESIAN_POINT('',(0.0,0.0,-101.038024998605));
#466=DIRECTION('',(-0.0,-0.0,1.0));
#467=DIRECTION('',(0.0,1.0,0.0));
#468=DIRECTION('',(0.0,0.0,-1.0));
#469=SURFACE_STYLE_FILL_AREA(#540);
#470=ORIENTED_EDGE('',*,*,#76,.F.);
#471=ORIENTED_EDGE('',*,*,#92,.T.);
#472=ORIENTED_EDGE('',*,*,#86,.F.);
#473=ORIENTED_EDGE('',*,*,#116,.F.);
#474=CARTESIAN_POINT('',(0.0,0.0,-0.595499999999994));
#475=DIRECTION('',(0.0,-0.0,-1.0));
#476=DIRECTION('',(0.0,1.0,0.0));
#477=SURFACE_STYLE_FILL_AREA(#541);
#478=ORIENTED_EDGE('',*,*,#124,.T.);
#479=ORIENTED_EDGE('',*,*,#80,.T.);
#480=ORIENTED_EDGE('',*,*,#152,.T.);
#481=ORIENTED_EDGE('',*,*,#84,.T.);
#482=CARTESIAN_POINT('',(0.0,0.0,-60.3));
#483=DIRECTION('',(0.0,0.0,-1.0));
#484=DIRECTION('',(0.0,-1.0,0.0));
#485=CARTESIAN_POINT('',(0.0,0.0,-1.191));
#486=DIRECTION('',(0.0,0.0,-1.0));
#487=DIRECTION('',(0.0,1.0,0.0));
#488=SURFACE_STYLE_FILL_AREA(#542);
#489=ORIENTED_EDGE('',*,*,#138,.T.);
#490=ORIENTED_EDGE('',*,*,#126,.F.);
#491=ORIENTED_EDGE('',*,*,#78,.T.);
#492=ORIENTED_EDGE('',*,*,#100,.T.);
#493=CARTESIAN_POINT('',(0.0,0.0,-101.038024998605));
#494=DIRECTION('',(-0.0,-0.0,1.0));
#495=DIRECTION('',(0.0,1.0,0.0));
#496=SURFACE_STYLE_FILL_AREA(#543);
#497=ORIENTED_EDGE('',*,*,#108,.F.);
#498=ORIENTED_EDGE('',*,*,#116,.T.);
#499=ORIENTED_EDGE('',*,*,#150,.F.);
#500=ORIENTED_EDGE('',*,*,#84,.F.);
#501=CARTESIAN_POINT('',(0.0,0.0,-22.6455));
#502=DIRECTION('',(-0.0,-0.0,1.0));
#503=DIRECTION('',(0.0,1.0,0.0));
#504=CARTESIAN_POINT('',(0.0,0.0,-60.3));
#505=DIRECTION('',(0.0,-0.0,1.0));
#506=DIRECTION('',(0.0,1.0,0.0));
#507=CARTESIAN_POINT('',(0.0,0.0,-101.6));
#508=DIRECTION('',(0.0,0.0,-1.0));
#509=DIRECTION('',(0.0,1.0,0.0));
#510=DIRECTION('',(-0.0,-0.0,1.0));
#511=CARTESIAN_POINT('',(0.0,0.0,7.105427357601E-015));
#512=DIRECTION('',(0.0,0.0,-1.0));
#513=DIRECTION('',(0.0,1.0,0.0));
#514=SURFACE_STYLE_FILL_AREA(#544);
#515=ORIENTED_EDGE('',*,*,#104,.F.);
#516=ORIENTED_EDGE('',*,*,#80,.F.);
#517=ORIENTED_EDGE('',*,*,#130,.F.);
#518=ORIENTED_EDGE('',*,*,#142,.F.);
#519=CARTESIAN_POINT('',(0.0,0.0,-80.3880249986048));
#520=DIRECTION('',(-0.0,-0.0,1.0));
#521=DIRECTION('',(0.0,1.0,0.0));
#522=DIRECTION('',(1.06054021204601E-016,-0.866025403784439,-0.499999999999999));
#523=CARTESIAN_POINT('',(0.0,0.0,-100.47604999721));
#524=DIRECTION('',(0.0,0.0,-1.0));
#525=DIRECTION('',(0.0,1.0,0.0));
#526=CARTESIAN_POINT('',(0.0,0.0,-101.6));
#527=DIRECTION('',(0.0,0.0,-1.0));
#528=DIRECTION('',(0.0,1.0,0.0));
#529=DIRECTION('',(-0.0,-0.0,1.0));
#530=CARTESIAN_POINT('',(0.0,0.0,-60.3));
#531=DIRECTION('',(0.0,0.0,-1.0));
#532=DIRECTION('',(0.0,-1.0,0.0));
#533=SURFACE_STYLE_FILL_AREA(#545);
#534=FILL_AREA_STYLE('',(#546));
#535=FILL_AREA_STYLE('',(#547));
#536=FILL_AREA_STYLE('',(#548));
#537=FILL_AREA_STYLE('',(#549));
#538=FILL_AREA_STYLE('',(#550));
#539=FILL_AREA_STYLE('',(#551));
#540=FILL_AREA_STYLE('',(#552));
#541=FILL_AREA_STYLE('',(#553));
#542=FILL_AREA_STYLE('',(#554));
#543=FILL_AREA_STYLE('',(#555));
#544=FILL_AREA_STYLE('',(#556));
#545=FILL_AREA_STYLE('',(#557));
#546=FILL_AREA_STYLE_COLOUR('',#558);
#547=FILL_AREA_STYLE_COLOUR('',#559);
#548=FILL_AREA_STYLE_COLOUR('',#560);
#549=FILL_AREA_STYLE_COLOUR('',#561);
#550=FILL_AREA_STYLE_COLOUR('',#562);
#551=FILL_AREA_STYLE_COLOUR('',#563);
#552=FILL_AREA_STYLE_COLOUR('',#564);
#553=FILL_AREA_STYLE_COLOUR('',#565);
#554=FILL_AREA_STYLE_COLOUR('',#566);
#555=FILL_AREA_STYLE_COLOUR('',#567);
#556=FILL_AREA_STYLE_COLOUR('',#568);
#557=FILL_AREA_STYLE_COLOUR('',#569);
#558=COLOUR_RGB('',0.498039215803146,0.498039215803146,0.498039215803146);
#559=COLOUR_RGB('',0.498039215803146,0.498039215803146,0.498039215803146);
#560=COLOUR_RGB('',0.800000011920929,0.800000011920929,0.800000011920929);
#561=COLOUR_RGB('',0.498039215803146,0.498039215803146,0.498039215803146);
#562=COLOUR_RGB('',0.498039215803146,0.498039215803146,0.498039215803146);
#563=COLOUR_RGB('',0.800000011920929,0.800000011920929,0.800000011920929);
#564=COLOUR_RGB('',0.498039215803146,0.498039215803146,0.498039215803146);
#565=COLOUR_RGB('',0.498039215803146,0.498039215803146,0.498039215803146);
#566=COLOUR_RGB('',0.800000011920929,0.800000011920929,0.800000011920929);
#567=COLOUR_RGB('',0.498039215803146,0.498039215803146,0.498039215803146);
#568=COLOUR_RGB('',0.800000011920929,0.800000011920929,0.800000011920929);
#569=COLOUR_RGB('',0.498039215803146,0.498039215803146,0.498039215803146);
#570=AXIS2_PLACEMENT_3D('PCS',#571,#572,#573);
#571=CARTESIAN_POINT('',(0.0,0.0,0.0));
#572=DIRECTION('',(0.0,0.0,1.0));
#573=DIRECTION('',(1.0,0.0,0.0));
#574=AXIS2_PLACEMENT_3D('CIP',#575,#576,#577);
#575=CARTESIAN_POINT('',(0.0,0.0,-101.6));
#576=DIRECTION('',(0.0,0.0,1.0));
#577=DIRECTION('',(1.0,0.0,0.0));
#578=AXIS2_PLACEMENT_3D('CRP',#579,#580,#581);
#579=CARTESIAN_POINT('',(-9.4615,0.0,-101.6));
#580=DIRECTION('',(0.0,0.0,1.0));
#581=DIRECTION('',(1.0,0.0,0.0));
#582=AXIS2_PLACEMENT_3D('MCS',#583,#584,#585);
#583=CARTESIAN_POINT('',(0.0,0.0,-44.1));
#584=DIRECTION('',(0.0,0.0,1.0));
#585=DIRECTION('',(1.0,0.0,0.0));
#586=CONSTRUCTIVE_GEOMETRY_REPRESENTATION_RELATIONSHIP('coordinate systems',$,#58,#587);
#587=CONSTRUCTIVE_GEOMETRY_REPRESENTATION('coordinate systems',(#570,#574,#578,#582),#6);
ENDSEC;
END-ISO-10303-21;
