ISO-10303-21;
HEADER;
FILE_DESCRIPTION(('no description'),'unknown implementation level');
FILE_NAME('solidQGCOlWDgBSMCehSTGYzyXVrgN_w_1.STP','  ',('CIMSOURCE GmbH'),('CADClick - KiM GmbH - www.kimweb.de'),'unknown preprocess','ACIS','unknown authorization');
FILE_SCHEMA(('automotive_design'));
ENDSEC;
DATA;
#1=MECHANICAL_DESIGN_GEOMETRIC_PRESENTATION_REPRESENTATION(' ',(#10,#11,#12,#13,#14,#15,#16,#17,#18,#19,#20,#21,#22,#23,#24,#25,#26,#27,#28,#29,#30,#31,#32,#33,#34,#35,#36,#37,#38,#39,#40,#41,#42,#43,#44,#45,#46,#47,#48,#49,#50,#51,#52,#53),#6);
#2=PRODUCT_DEFINITION_CONTEXT('',#54,'design');
#3=APPLICATION_PROTOCOL_DEFINITION('INTERNATIONAL STANDARD','automotive_design',1994,#54);
#4=PRODUCT_CATEGORY_RELATIONSHIP('NONE','NONE',#55,#56);
#5=SHAPE_DEFINITION_REPRESENTATION(#57,#58);
#6= (GEOMETRIC_REPRESENTATION_CONTEXT(3)GLOBAL_UNCERTAINTY_ASSIGNED_CONTEXT((#61))GLOBAL_UNIT_ASSIGNED_CONTEXT((#63,#64,#65))REPRESENTATION_CONTEXT('NONE','WORKSPACE'));
#10=STYLED_ITEM('',(#67),#68);
#11=STYLED_ITEM('',(#69),#70);
#12=STYLED_ITEM('',(#71),#72);
#13=STYLED_ITEM('',(#73),#74);
#14=STYLED_ITEM('',(#75),#76);
#15=STYLED_ITEM('',(#77),#78);
#16=STYLED_ITEM('',(#79),#80);
#17=STYLED_ITEM('',(#81),#82);
#18=STYLED_ITEM('',(#83),#84);
#19=STYLED_ITEM('',(#85),#86);
#20=STYLED_ITEM('',(#87),#88);
#21=STYLED_ITEM('',(#89),#90);
#22=STYLED_ITEM('',(#91),#92);
#23=STYLED_ITEM('',(#93),#94);
#24=STYLED_ITEM('',(#95),#96);
#25=STYLED_ITEM('',(#97),#98);
#26=STYLED_ITEM('',(#99),#100);
#27=STYLED_ITEM('',(#101),#102);
#28=STYLED_ITEM('',(#103),#104);
#29=STYLED_ITEM('',(#105),#106);
#30=STYLED_ITEM('',(#107),#108);
#31=STYLED_ITEM('',(#109),#110);
#32=STYLED_ITEM('',(#111),#112);
#33=STYLED_ITEM('',(#113),#114);
#34=STYLED_ITEM('',(#115),#116);
#35=STYLED_ITEM('',(#117),#118);
#36=STYLED_ITEM('',(#119),#120);
#37=STYLED_ITEM('',(#121),#122);
#38=STYLED_ITEM('',(#123),#124);
#39=STYLED_ITEM('',(#125),#126);
#40=STYLED_ITEM('',(#127),#128);
#41=STYLED_ITEM('',(#129),#130);
#42=STYLED_ITEM('',(#131),#132);
#43=STYLED_ITEM('',(#133),#134);
#44=STYLED_ITEM('',(#135),#136);
#45=STYLED_ITEM('',(#137),#138);
#46=STYLED_ITEM('',(#139),#140);
#47=STYLED_ITEM('',(#141),#142);
#48=STYLED_ITEM('',(#143),#144);
#49=STYLED_ITEM('',(#145),#146);
#50=STYLED_ITEM('',(#147),#148);
#51=STYLED_ITEM('',(#149),#150);
#52=STYLED_ITEM('',(#151),#152);
#53=STYLED_ITEM('',(#153),#154);
#54=APPLICATION_CONTEXT(' ');
#55=PRODUCT_CATEGORY('part','NONE');
#56=PRODUCT_RELATED_PRODUCT_CATEGORY('detail',' ',(#155));
#57=PRODUCT_DEFINITION_SHAPE('NONE','NONE',#156);
#58=ADVANCED_BREP_SHAPE_REPRESENTATION('1',(#144,#157),#6);
#61=UNCERTAINTY_MEASURE_WITH_UNIT(LENGTH_MEASURE(1.0E-006),#63,'','');
#63= (CONVERSION_BASED_UNIT('MILLIMETRE',#160)LENGTH_UNIT()NAMED_UNIT(#163));
#64= (NAMED_UNIT(#165)PLANE_ANGLE_UNIT()SI_UNIT($,.RADIAN.));
#65= (NAMED_UNIT(#165)SOLID_ANGLE_UNIT()SI_UNIT($,.STERADIAN.));
#67=PRESENTATION_STYLE_ASSIGNMENT((#171));
#68=VERTEX_POINT('',#172);
#69=PRESENTATION_STYLE_ASSIGNMENT((#173));
#70=VERTEX_POINT('',#174);
#71=PRESENTATION_STYLE_ASSIGNMENT((#175));
#72=EDGE_CURVE('',#108,#152,#176,.T.);
#73=PRESENTATION_STYLE_ASSIGNMENT((#177));
#74=EDGE_CURVE('',#68,#124,#178,.T.);
#75=PRESENTATION_STYLE_ASSIGNMENT((#179));
#76=ADVANCED_FACE('',(#180),#181,.T.);
#77=PRESENTATION_STYLE_ASSIGNMENT((#182));
#78=ADVANCED_FACE('',(#183),#184,.T.);
#79=PRESENTATION_STYLE_ASSIGNMENT((#185));
#80=EDGE_CURVE('',#110,#146,#186,.T.);
#81=PRESENTATION_STYLE_ASSIGNMENT((#187));
#82=EDGE_CURVE('',#146,#110,#188,.T.);
#83=PRESENTATION_STYLE_ASSIGNMENT((#189));
#84=VERTEX_POINT('',#190);
#85=PRESENTATION_STYLE_ASSIGNMENT((#191));
#86=EDGE_CURVE('',#98,#84,#192,.T.);
#87=PRESENTATION_STYLE_ASSIGNMENT((#193));
#88=EDGE_CURVE('',#106,#98,#194,.T.);
#89=PRESENTATION_STYLE_ASSIGNMENT((#195));
#90=VERTEX_POINT('',#196);
#91=PRESENTATION_STYLE_ASSIGNMENT((#197));
#92=ADVANCED_FACE('',(#198),#199,.T.);
#93=PRESENTATION_STYLE_ASSIGNMENT((#200));
#94=EDGE_CURVE('',#84,#134,#201,.T.);
#95=PRESENTATION_STYLE_ASSIGNMENT((#202));
#96=ADVANCED_FACE('',(#203),#204,.T.);
#97=PRESENTATION_STYLE_ASSIGNMENT((#205));
#98=VERTEX_POINT('',#206);
#99=PRESENTATION_STYLE_ASSIGNMENT((#207));
#100=ADVANCED_FACE('',(#208),#209,.T.);
#101=PRESENTATION_STYLE_ASSIGNMENT((#210));
#102=EDGE_CURVE('',#106,#134,#211,.T.);
#103=PRESENTATION_STYLE_ASSIGNMENT((#212));
#104=EDGE_CURVE('',#152,#106,#213,.T.);
#105=PRESENTATION_STYLE_ASSIGNMENT((#214));
#106=VERTEX_POINT('',#215);
#107=PRESENTATION_STYLE_ASSIGNMENT((#216));
#108=VERTEX_POINT('',#217);
#109=PRESENTATION_STYLE_ASSIGNMENT((#218));
#110=VERTEX_POINT('',#219);
#111=PRESENTATION_STYLE_ASSIGNMENT((#220));
#112=EDGE_CURVE('',#68,#110,#221,.T.);
#113=PRESENTATION_STYLE_ASSIGNMENT((#222));
#114=EDGE_CURVE('',#146,#124,#223,.T.);
#115=PRESENTATION_STYLE_ASSIGNMENT((#224));
#116=ADVANCED_FACE('',(#225),#226,.T.);
#117=PRESENTATION_STYLE_ASSIGNMENT((#227));
#118=EDGE_CURVE('',#70,#90,#228,.T.);
#119=PRESENTATION_STYLE_ASSIGNMENT((#229));
#120=ADVANCED_FACE('',(#230),#231,.T.);
#121=PRESENTATION_STYLE_ASSIGNMENT((#232));
#122=EDGE_CURVE('',#84,#98,#233,.T.);
#123=PRESENTATION_STYLE_ASSIGNMENT((#234));
#124=VERTEX_POINT('',#235);
#125=PRESENTATION_STYLE_ASSIGNMENT((#236));
#126=ADVANCED_FACE('',(#237),#238,.T.);
#127=PRESENTATION_STYLE_ASSIGNMENT((#239));
#128=EDGE_CURVE('',#134,#106,#240,.T.);
#129=PRESENTATION_STYLE_ASSIGNMENT((#241));
#130=ADVANCED_FACE('',(#242),#243,.T.);
#131=PRESENTATION_STYLE_ASSIGNMENT((#244));
#132=EDGE_CURVE('',#124,#68,#245,.T.);
#133=PRESENTATION_STYLE_ASSIGNMENT((#246));
#134=VERTEX_POINT('',#247);
#135=PRESENTATION_STYLE_ASSIGNMENT((#248));
#136=ADVANCED_FACE('',(#249),#250,.T.);
#137=PRESENTATION_STYLE_ASSIGNMENT((#251));
#138=EDGE_CURVE('',#90,#70,#252,.T.);
#139=PRESENTATION_STYLE_ASSIGNMENT((#253));
#140=EDGE_CURVE('',#90,#68,#254,.T.);
#141=PRESENTATION_STYLE_ASSIGNMENT((#255));
#142=EDGE_CURVE('',#152,#108,#256,.T.);
#143=PRESENTATION_STYLE_ASSIGNMENT((#257));
#144=MANIFOLD_SOLID_BREP('1',#258);
#145=PRESENTATION_STYLE_ASSIGNMENT((#259));
#146=VERTEX_POINT('',#260);
#147=PRESENTATION_STYLE_ASSIGNMENT((#261));
#148=EDGE_CURVE('',#134,#108,#262,.T.);
#149=PRESENTATION_STYLE_ASSIGNMENT((#263));
#150=ADVANCED_FACE('',(#264,#265),#266,.T.);
#151=PRESENTATION_STYLE_ASSIGNMENT((#267));
#152=VERTEX_POINT('',#268);
#153=PRESENTATION_STYLE_ASSIGNMENT((#269));
#154=EDGE_CURVE('',#124,#70,#270,.T.);
#155=PRODUCT('1','1','PART-1-DESC',(#271));
#156=PRODUCT_DEFINITION('NONE','NONE',#272,#2);
#157=AXIS2_PLACEMENT_3D('',#273,#274,#275);
#160=LENGTH_MEASURE_WITH_UNIT(LENGTH_MEASURE(1.0),#276);
#163=DIMENSIONAL_EXPONENTS(1.0,0.0,0.0,0.0,0.0,0.0,0.0);
#165=DIMENSIONAL_EXPONENTS(0.0,0.0,0.0,0.0,0.0,0.0,0.0);
#171=POINT_STYLE(' ',#277,POSITIVE_LENGTH_MEASURE(1.0E-006),#278);
#172=CARTESIAN_POINT('',(0.0,9.4615,-100.850700000064));
#173=POINT_STYLE(' ',#279,POSITIVE_LENGTH_MEASURE(1.0E-006),#280);
#174=CARTESIAN_POINT('',(1.15866130166904E-015,-9.4615,-61.4));
#175=CURVE_STYLE('',#281,POSITIVE_LENGTH_MEASURE(1.0E-006),#282);
#176=CIRCLE('',#283,8.83737582939516);
#177=CURVE_STYLE('',#284,POSITIVE_LENGTH_MEASURE(1.0E-006),#285);
#178=CIRCLE('',#286,9.4615);
#179=SURFACE_STYLE_USAGE(.BOTH.,#287);
#180=FACE_OUTER_BOUND('',#288,.T.);
#181=CYLINDRICAL_SURFACE('',#289,9.525);
#182=SURFACE_STYLE_USAGE(.BOTH.,#290);
#183=FACE_OUTER_BOUND('',#291,.T.);
#184=PLANE('',#292);
#185=CURVE_STYLE('',#293,POSITIVE_LENGTH_MEASURE(1.0E-006),#294);
#186=CIRCLE('',#295,8.16367433);
#187=CURVE_STYLE('',#296,POSITIVE_LENGTH_MEASURE(1.0E-006),#297);
#188=CIRCLE('',#298,8.16367433);
#189=POINT_STYLE(' ',#299,POSITIVE_LENGTH_MEASURE(1.0E-006),#300);
#190=CARTESIAN_POINT('',(0.0,-9.525,-61.4));
#191=CURVE_STYLE('',#301,POSITIVE_LENGTH_MEASURE(1.0E-006),#302);
#192=CIRCLE('',#303,9.525);
#193=CURVE_STYLE('',#304,POSITIVE_LENGTH_MEASURE(1.0E-006),#305);
#194=LINE('',#306,#307);
#195=POINT_STYLE(' ',#308,POSITIVE_LENGTH_MEASURE(1.0E-006),#309);
#196=CARTESIAN_POINT('',(0.0,9.4615,-61.4));
#197=SURFACE_STYLE_USAGE(.BOTH.,#310);
#198=FACE_OUTER_BOUND('',#311,.T.);
#199=CONICAL_SURFACE('',#312,9.18118791469758,0.523598775598298);
#200=CURVE_STYLE('',#313,POSITIVE_LENGTH_MEASURE(1.0E-006),#314);
#201=LINE('',#315,#316);
#202=SURFACE_STYLE_USAGE(.BOTH.,#317);
#203=FACE_OUTER_BOUND('',#318,.T.);
#204=CONICAL_SURFACE('',#319,8.812587165,1.0471975511966);
#205=POINT_STYLE(' ',#320,POSITIVE_LENGTH_MEASURE(1.0E-006),#321);
#206=CARTESIAN_POINT('',(-1.16643755201581E-015,9.525,-61.4));
#207=SURFACE_STYLE_USAGE(.BOTH.,#322);
#208=FACE_OUTER_BOUND('',#323,.T.);
#209=CYLINDRICAL_SURFACE('',#324,9.4615);
#210=CURVE_STYLE('',#325,POSITIVE_LENGTH_MEASURE(1.0E-006),#326);
#211=CIRCLE('',#327,9.525);
#212=CURVE_STYLE('',#328,POSITIVE_LENGTH_MEASURE(1.0E-006),#329);
#213=LINE('',#330,#331);
#214=POINT_STYLE(' ',#332,POSITIVE_LENGTH_MEASURE(1.0E-006),#333);
#215=CARTESIAN_POINT('',(0.0,9.525,-1.191));
#216=POINT_STYLE(' ',#334,POSITIVE_LENGTH_MEASURE(1.0E-006),#335);
#217=CARTESIAN_POINT('',(1.08223065917936E-015,-8.83737582939516,7.105427357601E-015));
#218=POINT_STYLE(' ',#336,POSITIVE_LENGTH_MEASURE(1.0E-006),#337);
#219=CARTESIAN_POINT('',(0.0,8.16367433,-101.6));
#220=CURVE_STYLE('',#338,POSITIVE_LENGTH_MEASURE(1.0E-006),#339);
#221=LINE('',#340,#341);
#222=CURVE_STYLE('',#342,POSITIVE_LENGTH_MEASURE(1.0E-006),#343);
#223=LINE('',#344,#345);
#224=SURFACE_STYLE_USAGE(.BOTH.,#346);
#225=FACE_OUTER_BOUND('',#347,.T.);
#226=CONICAL_SURFACE('',#348,9.18118791469758,0.523598775598298);
#227=CURVE_STYLE('',#349,POSITIVE_LENGTH_MEASURE(1.0E-006),#350);
#228=CIRCLE('',#351,9.4615);
#229=SURFACE_STYLE_USAGE(.BOTH.,#352);
#230=FACE_OUTER_BOUND('',#353,.T.);
#231=CONICAL_SURFACE('',#354,8.812587165,1.0471975511966);
#232=CURVE_STYLE('',#355,POSITIVE_LENGTH_MEASURE(1.0E-006),#356);
#233=CIRCLE('',#357,9.525);
#234=POINT_STYLE(' ',#358,POSITIVE_LENGTH_MEASURE(1.0E-006),#359);
#235=CARTESIAN_POINT('',(1.15866130166904E-015,-9.4615,-100.850700000064));
#236=SURFACE_STYLE_USAGE(.BOTH.,#360);
#237=FACE_OUTER_BOUND('',#361,.T.);
#238=CYLINDRICAL_SURFACE('',#362,9.525);
#239=CURVE_STYLE('',#363,POSITIVE_LENGTH_MEASURE(1.0E-006),#364);
#240=CIRCLE('',#365,9.525);
#241=SURFACE_STYLE_USAGE(.BOTH.,#366);
#242=FACE_OUTER_BOUND('',#367,.T.);
#243=CYLINDRICAL_SURFACE('',#368,9.4615);
#244=CURVE_STYLE('',#369,POSITIVE_LENGTH_MEASURE(1.0E-006),#370);
#245=CIRCLE('',#371,9.4615);
#246=POINT_STYLE(' ',#372,POSITIVE_LENGTH_MEASURE(1.0E-006),#373);
#247=CARTESIAN_POINT('',(1.16643755201581E-015,-9.525,-1.191));
#248=SURFACE_STYLE_USAGE(.BOTH.,#374);
#249=FACE_OUTER_BOUND('',#375,.T.);
#250=PLANE('',#376);
#251=CURVE_STYLE('',#377,POSITIVE_LENGTH_MEASURE(1.0E-006),#378);
#252=CIRCLE('',#379,9.4615);
#253=CURVE_STYLE('',#380,POSITIVE_LENGTH_MEASURE(1.0E-006),#381);
#254=LINE('',#382,#383);
#255=CURVE_STYLE('',#384,POSITIVE_LENGTH_MEASURE(1.0E-006),#385);
#256=CIRCLE('',#386,8.83737582939516);
#257=SURFACE_STYLE_USAGE(.BOTH.,#387);
#258=CLOSED_SHELL('',(#76,#92,#96,#100,#130,#120,#150,#78,#116,#126,#136));
#259=POINT_STYLE(' ',#388,POSITIVE_LENGTH_MEASURE(1.0E-006),#389);
#260=CARTESIAN_POINT('',(9.99728745505464E-016,-8.16367433,-101.6));
#261=CURVE_STYLE('',#390,POSITIVE_LENGTH_MEASURE(1.0E-006),#391);
#262=LINE('',#392,#393);
#263=SURFACE_STYLE_USAGE(.BOTH.,#394);
#264=FACE_BOUND('',#395,.T.);
#265=FACE_OUTER_BOUND('',#396,.T.);
#266=PLANE('',#397);
#267=POINT_STYLE(' ',#398,POSITIVE_LENGTH_MEASURE(1.0E-006),#399);
#268=CARTESIAN_POINT('',(0.0,8.83737582939516,7.105427357601E-015));
#269=CURVE_STYLE('',#400,POSITIVE_LENGTH_MEASURE(1.0E-006),#401);
#270=LINE('',#402,#403);
#271=PRODUCT_CONTEXT('',#54,'mechanical');
#272=PRODUCT_DEFINITION_FORMATION_WITH_SPECIFIED_SOURCE(' ','NONE',#155,.NOT_KNOWN.);
#273=CARTESIAN_POINT('',(0.0,0.0,0.0));
#274=DIRECTION('',(0.0,0.0,1.0));
#275=DIRECTION('',(1.0,0.0,0.0));
#276= (NAMED_UNIT(#163)LENGTH_UNIT()SI_UNIT(.MILLI.,.METRE.));
#277=PRE_DEFINED_MARKER('');
#278=COLOUR_RGB('',0.800000011920929,0.800000011920929,0.800000011920929);
#279=PRE_DEFINED_MARKER('');
#280=COLOUR_RGB('',0.498039215803146,0.498039215803146,0.498039215803146);
#281=DRAUGHTING_PRE_DEFINED_CURVE_FONT('continuous');
#282=COLOUR_RGB('',0.498039215803146,0.498039215803146,0.498039215803146);
#283=AXIS2_PLACEMENT_3D('',#405,#406,#407);
#284=DRAUGHTING_PRE_DEFINED_CURVE_FONT('continuous');
#285=COLOUR_RGB('',0.800000011920929,0.800000011920929,0.800000011920929);
#286=AXIS2_PLACEMENT_3D('',#408,#409,#410);
#287=SURFACE_SIDE_STYLE('',(#411));
#288=EDGE_LOOP('',(#412,#413,#414,#415));
#289=AXIS2_PLACEMENT_3D('',#416,#417,#418);
#290=SURFACE_SIDE_STYLE('',(#419));
#291=EDGE_LOOP('',(#420,#421));
#292=AXIS2_PLACEMENT_3D('',#422,#423,#424);
#293=DRAUGHTING_PRE_DEFINED_CURVE_FONT('continuous');
#294=COLOUR_RGB('',0.498039215803146,0.498039215803146,0.498039215803146);
#295=AXIS2_PLACEMENT_3D('',#425,#426,#427);
#296=DRAUGHTING_PRE_DEFINED_CURVE_FONT('continuous');
#297=COLOUR_RGB('',0.498039215803146,0.498039215803146,0.498039215803146);
#298=AXIS2_PLACEMENT_3D('',#428,#429,#430);
#299=PRE_DEFINED_MARKER('');
#300=COLOUR_RGB('',0.498039215803146,0.498039215803146,0.498039215803146);
#301=DRAUGHTING_PRE_DEFINED_CURVE_FONT('continuous');
#302=COLOUR_RGB('',0.498039215803146,0.498039215803146,0.498039215803146);
#303=AXIS2_PLACEMENT_3D('',#431,#432,#433);
#304=DRAUGHTING_PRE_DEFINED_CURVE_FONT('continuous');
#305=COLOUR_RGB('',0.498039215803146,0.498039215803146,0.498039215803146);
#306=CARTESIAN_POINT('',(-1.16643755201581E-015,9.525,-23.1455));
#307=VECTOR('',#434,1.0);
#308=PRE_DEFINED_MARKER('');
#309=COLOUR_RGB('',0.498039215803146,0.498039215803146,0.498039215803146);
#310=SURFACE_SIDE_STYLE('',(#435));
#311=EDGE_LOOP('',(#436,#437,#438,#439));
#312=AXIS2_PLACEMENT_3D('',#440,#441,#442);
#313=DRAUGHTING_PRE_DEFINED_CURVE_FONT('continuous');
#314=COLOUR_RGB('',0.498039215803146,0.498039215803146,0.498039215803146);
#315=CARTESIAN_POINT('',(1.16643755201581E-015,-9.525,-23.1455));
#316=VECTOR('',#443,1.0);
#317=SURFACE_SIDE_STYLE('',(#444));
#318=EDGE_LOOP('',(#445,#446,#447,#448));
#319=AXIS2_PLACEMENT_3D('',#449,#450,#451);
#320=PRE_DEFINED_MARKER('');
#321=COLOUR_RGB('',0.498039215803146,0.498039215803146,0.498039215803146);
#322=SURFACE_SIDE_STYLE('',(#452));
#323=EDGE_LOOP('',(#453,#454,#455,#456));
#324=AXIS2_PLACEMENT_3D('',#457,#458,#459);
#325=DRAUGHTING_PRE_DEFINED_CURVE_FONT('continuous');
#326=COLOUR_RGB('',0.498039215803146,0.498039215803146,0.498039215803146);
#327=AXIS2_PLACEMENT_3D('',#460,#461,#462);
#328=DRAUGHTING_PRE_DEFINED_CURVE_FONT('continuous');
#329=COLOUR_RGB('',0.498039215803146,0.498039215803146,0.498039215803146);
#330=CARTESIAN_POINT('',(-1.12433410559759E-015,9.18118791469758,-0.595499999999994));
#331=VECTOR('',#463,1.0);
#332=PRE_DEFINED_MARKER('');
#333=COLOUR_RGB('',0.498039215803146,0.498039215803146,0.498039215803146);
#334=PRE_DEFINED_MARKER('');
#335=COLOUR_RGB('',0.498039215803146,0.498039215803146,0.498039215803146);
#336=PRE_DEFINED_MARKER('');
#337=COLOUR_RGB('',0.498039215803146,0.498039215803146,0.498039215803146);
#338=DRAUGHTING_PRE_DEFINED_CURVE_FONT('continuous');
#339=COLOUR_RGB('',0.800000011920929,0.800000011920929,0.800000011920929);
#340=CARTESIAN_POINT('',(-1.07919502358725E-015,8.812587165,-101.225350000032));
#341=VECTOR('',#464,1.0);
#342=DRAUGHTING_PRE_DEFINED_CURVE_FONT('continuous');
#343=COLOUR_RGB('',0.800000011920929,0.800000011920929,0.800000011920929);
#344=CARTESIAN_POINT('',(1.07919502358725E-015,-8.812587165,-101.225350000032));
#345=VECTOR('',#465,1.0);
#346=SURFACE_SIDE_STYLE('',(#466));
#347=EDGE_LOOP('',(#467,#468,#469,#470));
#348=AXIS2_PLACEMENT_3D('',#471,#472,#473);
#349=DRAUGHTING_PRE_DEFINED_CURVE_FONT('continuous');
#350=COLOUR_RGB('',0.498039215803146,0.498039215803146,0.498039215803146);
#351=AXIS2_PLACEMENT_3D('',#474,#475,#476);
#352=SURFACE_SIDE_STYLE('',(#477));
#353=EDGE_LOOP('',(#478,#479,#480,#481));
#354=AXIS2_PLACEMENT_3D('',#482,#483,#484);
#355=DRAUGHTING_PRE_DEFINED_CURVE_FONT('continuous');
#356=COLOUR_RGB('',0.498039215803146,0.498039215803146,0.498039215803146);
#357=AXIS2_PLACEMENT_3D('',#485,#486,#487);
#358=PRE_DEFINED_MARKER('');
#359=COLOUR_RGB('',0.800000011920929,0.800000011920929,0.800000011920929);
#360=SURFACE_SIDE_STYLE('',(#488));
#361=EDGE_LOOP('',(#489,#490,#491,#492));
#362=AXIS2_PLACEMENT_3D('',#493,#494,#495);
#363=DRAUGHTING_PRE_DEFINED_CURVE_FONT('continuous');
#364=COLOUR_RGB('',0.498039215803146,0.498039215803146,0.498039215803146);
#365=AXIS2_PLACEMENT_3D('',#496,#497,#498);
#366=SURFACE_SIDE_STYLE('',(#499));
#367=EDGE_LOOP('',(#500,#501,#502,#503));
#368=AXIS2_PLACEMENT_3D('',#504,#505,#506);
#369=DRAUGHTING_PRE_DEFINED_CURVE_FONT('continuous');
#370=COLOUR_RGB('',0.800000011920929,0.800000011920929,0.800000011920929);
#371=AXIS2_PLACEMENT_3D('',#507,#508,#509);
#372=PRE_DEFINED_MARKER('');
#373=COLOUR_RGB('',0.498039215803146,0.498039215803146,0.498039215803146);
#374=SURFACE_SIDE_STYLE('',(#510));
#375=EDGE_LOOP('',(#511,#512));
#376=AXIS2_PLACEMENT_3D('',#513,#514,#515);
#377=DRAUGHTING_PRE_DEFINED_CURVE_FONT('continuous');
#378=COLOUR_RGB('',0.498039215803146,0.498039215803146,0.498039215803146);
#379=AXIS2_PLACEMENT_3D('',#516,#517,#518);
#380=DRAUGHTING_PRE_DEFINED_CURVE_FONT('continuous');
#381=COLOUR_RGB('',0.800000011920929,0.800000011920929,0.800000011920929);
#382=CARTESIAN_POINT('',(-1.15866130166904E-015,9.4615,-81.1253500000321));
#383=VECTOR('',#519,1.0);
#384=DRAUGHTING_PRE_DEFINED_CURVE_FONT('continuous');
#385=COLOUR_RGB('',0.498039215803146,0.498039215803146,0.498039215803146);
#386=AXIS2_PLACEMENT_3D('',#520,#521,#522);
#387=SURFACE_SIDE_STYLE('',(#523));
#388=PRE_DEFINED_MARKER('');
#389=COLOUR_RGB('',0.498039215803146,0.498039215803146,0.498039215803146);
#390=DRAUGHTING_PRE_DEFINED_CURVE_FONT('continuous');
#391=COLOUR_RGB('',0.498039215803146,0.498039215803146,0.498039215803146);
#392=CARTESIAN_POINT('',(1.12433410559759E-015,-9.18118791469758,-0.595499999999994));
#393=VECTOR('',#524,1.0);
#394=SURFACE_SIDE_STYLE('',(#525));
#395=EDGE_LOOP('',(#526,#527));
#396=EDGE_LOOP('',(#528,#529));
#397=AXIS2_PLACEMENT_3D('',#530,#531,#532);
#398=PRE_DEFINED_MARKER('');
#399=COLOUR_RGB('',0.498039215803146,0.498039215803146,0.498039215803146);
#400=DRAUGHTING_PRE_DEFINED_CURVE_FONT('continuous');
#401=COLOUR_RGB('',0.800000011920929,0.800000011920929,0.800000011920929);
#402=CARTESIAN_POINT('',(1.15866130166904E-015,-9.4615,-81.1253500000321));
#403=VECTOR('',#533,1.0);
#405=CARTESIAN_POINT('',(0.0,0.0,7.105427357601E-015));
#406=DIRECTION('',(0.0,0.0,-1.0));
#407=DIRECTION('',(0.0,1.0,0.0));
#408=CARTESIAN_POINT('',(0.0,0.0,-100.850700000064));
#409=DIRECTION('',(0.0,0.0,-1.0));
#410=DIRECTION('',(0.0,1.0,0.0));
#411=SURFACE_STYLE_FILL_AREA(#534);
#412=ORIENTED_EDGE('',*,*,#88,.F.);
#413=ORIENTED_EDGE('',*,*,#102,.T.);
#414=ORIENTED_EDGE('',*,*,#94,.F.);
#415=ORIENTED_EDGE('',*,*,#86,.F.);
#416=CARTESIAN_POINT('',(0.0,0.0,-23.1455));
#417=DIRECTION('',(-0.0,-0.0,1.0));
#418=DIRECTION('',(0.0,1.0,0.0));
#419=SURFACE_STYLE_FILL_AREA(#535);
#420=ORIENTED_EDGE('',*,*,#142,.F.);
#421=ORIENTED_EDGE('',*,*,#72,.F.);
#422=CARTESIAN_POINT('',(0.0,4.41868791469758,7.105427357601E-015));
#423=DIRECTION('',(-0.0,0.0,1.0));
#424=DIRECTION('',(0.0,-1.0,0.0));
#425=CARTESIAN_POINT('',(0.0,0.0,-101.6));
#426=DIRECTION('',(0.0,0.0,-1.0));
#427=DIRECTION('',(0.0,1.0,0.0));
#428=CARTESIAN_POINT('',(0.0,0.0,-101.6));
#429=DIRECTION('',(0.0,0.0,-1.0));
#430=DIRECTION('',(0.0,1.0,0.0));
#431=CARTESIAN_POINT('',(0.0,0.0,-61.4));
#432=DIRECTION('',(0.0,0.0,-1.0));
#433=DIRECTION('',(0.0,-1.0,0.0));
#434=DIRECTION('',(0.0,0.0,-1.0));
#435=SURFACE_STYLE_FILL_AREA(#536);
#436=ORIENTED_EDGE('',*,*,#104,.F.);
#437=ORIENTED_EDGE('',*,*,#142,.T.);
#438=ORIENTED_EDGE('',*,*,#148,.F.);
#439=ORIENTED_EDGE('',*,*,#102,.F.);
#440=CARTESIAN_POINT('',(0.0,0.0,-0.595499999999994));
#441=DIRECTION('',(0.0,-0.0,-1.0));
#442=DIRECTION('',(0.0,1.0,0.0));
#443=DIRECTION('',(-0.0,-0.0,1.0));
#444=SURFACE_STYLE_FILL_AREA(#537);
#445=ORIENTED_EDGE('',*,*,#112,.F.);
#446=ORIENTED_EDGE('',*,*,#74,.T.);
#447=ORIENTED_EDGE('',*,*,#114,.F.);
#448=ORIENTED_EDGE('',*,*,#80,.F.);
#449=CARTESIAN_POINT('',(0.0,0.0,-101.225350000032));
#450=DIRECTION('',(-0.0,-0.0,1.0));
#451=DIRECTION('',(0.0,1.0,0.0));
#452=SURFACE_STYLE_FILL_AREA(#538);
#453=ORIENTED_EDGE('',*,*,#140,.F.);
#454=ORIENTED_EDGE('',*,*,#118,.F.);
#455=ORIENTED_EDGE('',*,*,#154,.F.);
#456=ORIENTED_EDGE('',*,*,#74,.F.);
#457=CARTESIAN_POINT('',(0.0,0.0,-81.1253500000321));
#458=DIRECTION('',(-0.0,-0.0,1.0));
#459=DIRECTION('',(0.0,1.0,0.0));
#460=CARTESIAN_POINT('',(0.0,0.0,-1.191));
#461=DIRECTION('',(0.0,0.0,-1.0));
#462=DIRECTION('',(0.0,1.0,0.0));
#463=DIRECTION('',(-6.12303176911187E-017,0.499999999999999,-0.866025403784439));
#464=DIRECTION('',(1.06054021204601E-016,-0.866025403784438,-0.500000000000001));
#465=DIRECTION('',(1.06054021204601E-016,-0.866025403784438,0.500000000000001));
#466=SURFACE_STYLE_FILL_AREA(#539);
#467=ORIENTED_EDGE('',*,*,#104,.T.);
#468=ORIENTED_EDGE('',*,*,#128,.F.);
#469=ORIENTED_EDGE('',*,*,#148,.T.);
#470=ORIENTED_EDGE('',*,*,#72,.T.);
#471=CARTESIAN_POINT('',(0.0,0.0,-0.595499999999994));
#472=DIRECTION('',(0.0,-0.0,-1.0));
#473=DIRECTION('',(0.0,1.0,0.0));
#474=CARTESIAN_POINT('',(0.0,0.0,-61.4));
#475=DIRECTION('',(0.0,-0.0,1.0));
#476=DIRECTION('',(0.0,1.0,0.0));
#477=SURFACE_STYLE_FILL_AREA(#540);
#478=ORIENTED_EDGE('',*,*,#112,.T.);
#479=ORIENTED_EDGE('',*,*,#82,.F.);
#480=ORIENTED_EDGE('',*,*,#114,.T.);
#481=ORIENTED_EDGE('',*,*,#132,.T.);
#482=CARTESIAN_POINT('',(0.0,0.0,-101.225350000032));
#483=DIRECTION('',(-0.0,-0.0,1.0));
#484=DIRECTION('',(0.0,1.0,0.0));
#485=CARTESIAN_POINT('',(0.0,0.0,-61.4));
#486=DIRECTION('',(0.0,0.0,-1.0));
#487=DIRECTION('',(0.0,-1.0,0.0));
#488=SURFACE_STYLE_FILL_AREA(#541);
#489=ORIENTED_EDGE('',*,*,#88,.T.);
#490=ORIENTED_EDGE('',*,*,#122,.F.);
#491=ORIENTED_EDGE('',*,*,#94,.T.);
#492=ORIENTED_EDGE('',*,*,#128,.T.);
#493=CARTESIAN_POINT('',(0.0,0.0,-23.1455));
#494=DIRECTION('',(-0.0,-0.0,1.0));
#495=DIRECTION('',(0.0,1.0,0.0));
#496=CARTESIAN_POINT('',(0.0,0.0,-1.191));
#497=DIRECTION('',(0.0,0.0,-1.0));
#498=DIRECTION('',(0.0,1.0,0.0));
#499=SURFACE_STYLE_FILL_AREA(#542);
#500=ORIENTED_EDGE('',*,*,#140,.T.);
#501=ORIENTED_EDGE('',*,*,#132,.F.);
#502=ORIENTED_EDGE('',*,*,#154,.T.);
#503=ORIENTED_EDGE('',*,*,#138,.F.);
#504=CARTESIAN_POINT('',(0.0,0.0,-81.1253500000321));
#505=DIRECTION('',(-0.0,-0.0,1.0));
#506=DIRECTION('',(0.0,1.0,0.0));
#507=CARTESIAN_POINT('',(0.0,0.0,-100.850700000064));
#508=DIRECTION('',(0.0,0.0,-1.0));
#509=DIRECTION('',(0.0,1.0,0.0));
#510=SURFACE_STYLE_FILL_AREA(#543);
#511=ORIENTED_EDGE('',*,*,#80,.T.);
#512=ORIENTED_EDGE('',*,*,#82,.T.);
#513=CARTESIAN_POINT('',(0.0,4.081837165,-101.6));
#514=DIRECTION('',(0.0,0.0,-1.0));
#515=DIRECTION('',(0.0,1.0,0.0));
#516=CARTESIAN_POINT('',(0.0,0.0,-61.4));
#517=DIRECTION('',(0.0,-0.0,1.0));
#518=DIRECTION('',(0.0,1.0,0.0));
#519=DIRECTION('',(0.0,0.0,-1.0));
#520=CARTESIAN_POINT('',(0.0,0.0,7.105427357601E-015));
#521=DIRECTION('',(0.0,0.0,-1.0));
#522=DIRECTION('',(0.0,1.0,0.0));
#523=SURFACE_STYLE_FILL_AREA(#544);
#524=DIRECTION('',(-6.12303176911187E-017,0.499999999999999,0.866025403784439));
#525=SURFACE_STYLE_FILL_AREA(#545);
#526=ORIENTED_EDGE('',*,*,#138,.T.);
#527=ORIENTED_EDGE('',*,*,#118,.T.);
#528=ORIENTED_EDGE('',*,*,#122,.T.);
#529=ORIENTED_EDGE('',*,*,#86,.T.);
#530=CARTESIAN_POINT('',(0.0,0.0,-61.4));
#531=DIRECTION('',(0.0,0.0,-1.0));
#532=DIRECTION('',(0.0,-1.0,0.0));
#533=DIRECTION('',(-0.0,-0.0,1.0));
#534=FILL_AREA_STYLE('',(#546));
#535=FILL_AREA_STYLE('',(#547));
#536=FILL_AREA_STYLE('',(#548));
#537=FILL_AREA_STYLE('',(#549));
#538=FILL_AREA_STYLE('',(#550));
#539=FILL_AREA_STYLE('',(#551));
#540=FILL_AREA_STYLE('',(#552));
#541=FILL_AREA_STYLE('',(#553));
#542=FILL_AREA_STYLE('',(#554));
#543=FILL_AREA_STYLE('',(#555));
#544=FILL_AREA_STYLE('',(#556));
#545=FILL_AREA_STYLE('',(#557));
#546=FILL_AREA_STYLE_COLOUR('',#558);
#547=FILL_AREA_STYLE_COLOUR('',#559);
#548=FILL_AREA_STYLE_COLOUR('',#560);
#549=FILL_AREA_STYLE_COLOUR('',#561);
#550=FILL_AREA_STYLE_COLOUR('',#562);
#551=FILL_AREA_STYLE_COLOUR('',#563);
#552=FILL_AREA_STYLE_COLOUR('',#564);
#553=FILL_AREA_STYLE_COLOUR('',#565);
#554=FILL_AREA_STYLE_COLOUR('',#566);
#555=FILL_AREA_STYLE_COLOUR('',#567);
#556=FILL_AREA_STYLE_COLOUR('',#568);
#557=FILL_AREA_STYLE_COLOUR('',#569);
#558=COLOUR_RGB('',0.498039215803146,0.498039215803146,0.498039215803146);
#559=COLOUR_RGB('',0.498039215803146,0.498039215803146,0.498039215803146);
#560=COLOUR_RGB('',0.498039215803146,0.498039215803146,0.498039215803146);
#561=COLOUR_RGB('',0.800000011920929,0.800000011920929,0.800000011920929);
#562=COLOUR_RGB('',0.800000011920929,0.800000011920929,0.800000011920929);
#563=COLOUR_RGB('',0.498039215803146,0.498039215803146,0.498039215803146);
#564=COLOUR_RGB('',0.800000011920929,0.800000011920929,0.800000011920929);
#565=COLOUR_RGB('',0.498039215803146,0.498039215803146,0.498039215803146);
#566=COLOUR_RGB('',0.800000011920929,0.800000011920929,0.800000011920929);
#567=COLOUR_RGB('',0.498039215803146,0.498039215803146,0.498039215803146);
#568=COLOUR_RGB('',0.498039215803146,0.498039215803146,0.498039215803146);
#569=COLOUR_RGB('',0.498039215803146,0.498039215803146,0.498039215803146);
#570=AXIS2_PLACEMENT_3D('PCS',#571,#572,#573);
#571=CARTESIAN_POINT('',(0.0,0.0,0.0));
#572=DIRECTION('',(0.0,0.0,1.0));
#573=DIRECTION('',(1.0,0.0,0.0));
#574=AXIS2_PLACEMENT_3D('CIP',#575,#576,#577);
#575=CARTESIAN_POINT('',(0.0,0.0,-101.6));
#576=DIRECTION('',(0.0,0.0,1.0));
#577=DIRECTION('',(1.0,0.0,0.0));
#578=AXIS2_PLACEMENT_3D('CRP',#579,#580,#581);
#579=CARTESIAN_POINT('',(-9.4615,0.0,-101.6));
#580=DIRECTION('',(0.0,0.0,1.0));
#581=DIRECTION('',(1.0,0.0,0.0));
#582=AXIS2_PLACEMENT_3D('MCS',#583,#584,#585);
#583=CARTESIAN_POINT('',(0.0,0.0,-45.1));
#584=DIRECTION('',(0.0,0.0,1.0));
#585=DIRECTION('',(1.0,0.0,0.0));
#586=CONSTRUCTIVE_GEOMETRY_REPRESENTATION_RELATIONSHIP('coordinate systems',$,#58,#587);
#587=CONSTRUCTIVE_GEOMETRY_REPRESENTATION('coordinate systems',(#570,#574,#578,#582),#6);
ENDSEC;
END-ISO-10303-21;
