ISO-10303-21;
HEADER;
FILE_DESCRIPTION(('no description'),'unknown implementation level');
FILE_NAME('solidMKV8xl_xVECWlk12328vLSXbdOI_1.STP','  ',('CIMSOURCE GmbH'),('CADClick - KiM GmbH - www.kimweb.de'),'unknown preprocess','ACIS','unknown authorization');
FILE_SCHEMA(('automotive_design'));
ENDSEC;
DATA;
#1=MECHANICAL_DESIGN_GEOMETRIC_PRESENTATION_REPRESENTATION(' ',(#10,#11,#12,#13,#14,#15,#16,#17,#18,#19,#20,#21,#22,#23,#24,#25,#26,#27,#28,#29,#30,#31,#32,#33,#34,#35,#36,#37,#38,#39,#40),#6);
#2=PRODUCT_DEFINITION_CONTEXT('',#41,'design');
#3=APPLICATION_PROTOCOL_DEFINITION('INTERNATIONAL STANDARD','automotive_design',1994,#41);
#4=PRODUCT_CATEGORY_RELATIONSHIP('NONE','NONE',#42,#43);
#5=SHAPE_DEFINITION_REPRESENTATION(#44,#45);
#6= (GEOMETRIC_REPRESENTATION_CONTEXT(3)GLOBAL_UNCERTAINTY_ASSIGNED_CONTEXT((#48))GLOBAL_UNIT_ASSIGNED_CONTEXT((#50,#51,#52))REPRESENTATION_CONTEXT('NONE','WORKSPACE'));
#10=STYLED_ITEM('',(#54),#55);
#11=STYLED_ITEM('',(#56),#57);
#12=STYLED_ITEM('',(#58),#59);
#13=STYLED_ITEM('',(#60),#61);
#14=STYLED_ITEM('',(#62),#63);
#15=STYLED_ITEM('',(#64),#65);
#16=STYLED_ITEM('',(#66),#67);
#17=STYLED_ITEM('',(#68),#69);
#18=STYLED_ITEM('',(#70),#71);
#19=STYLED_ITEM('',(#72),#73);
#20=STYLED_ITEM('',(#74),#75);
#21=STYLED_ITEM('',(#76),#77);
#22=STYLED_ITEM('',(#78),#79);
#23=STYLED_ITEM('',(#80),#81);
#24=STYLED_ITEM('',(#82),#83);
#25=STYLED_ITEM('',(#84),#85);
#26=STYLED_ITEM('',(#86),#87);
#27=STYLED_ITEM('',(#88),#89);
#28=STYLED_ITEM('',(#90),#91);
#29=STYLED_ITEM('',(#92),#93);
#30=STYLED_ITEM('',(#94),#95);
#31=STYLED_ITEM('',(#96),#97);
#32=STYLED_ITEM('',(#98),#99);
#33=STYLED_ITEM('',(#100),#101);
#34=STYLED_ITEM('',(#102),#103);
#35=STYLED_ITEM('',(#104),#105);
#36=STYLED_ITEM('',(#106),#107);
#37=STYLED_ITEM('',(#108),#109);
#38=STYLED_ITEM('',(#110),#111);
#39=STYLED_ITEM('',(#112),#113);
#40=STYLED_ITEM('',(#114),#115);
#41=APPLICATION_CONTEXT(' ');
#42=PRODUCT_CATEGORY('part','NONE');
#43=PRODUCT_RELATED_PRODUCT_CATEGORY('detail',' ',(#116));
#44=PRODUCT_DEFINITION_SHAPE('NONE','NONE',#117);
#45=ADVANCED_BREP_SHAPE_REPRESENTATION('1',(#81,#118),#6);
#48=UNCERTAINTY_MEASURE_WITH_UNIT(LENGTH_MEASURE(1.0E-006),#50,'','');
#50= (CONVERSION_BASED_UNIT('MILLIMETRE',#121)LENGTH_UNIT()NAMED_UNIT(#124));
#51= (NAMED_UNIT(#126)PLANE_ANGLE_UNIT()SI_UNIT($,.RADIAN.));
#52= (NAMED_UNIT(#126)SOLID_ANGLE_UNIT()SI_UNIT($,.STERADIAN.));
#54=PRESENTATION_STYLE_ASSIGNMENT((#132));
#55=EDGE_CURVE('',#77,#99,#133,.T.);
#56=PRESENTATION_STYLE_ASSIGNMENT((#134));
#57=EDGE_CURVE('',#99,#75,#135,.T.);
#58=PRESENTATION_STYLE_ASSIGNMENT((#136));
#59=EDGE_CURVE('',#67,#61,#137,.T.);
#60=PRESENTATION_STYLE_ASSIGNMENT((#138));
#61=VERTEX_POINT('',#139);
#62=PRESENTATION_STYLE_ASSIGNMENT((#140));
#63=ADVANCED_FACE('',(#141),#142,.T.);
#64=PRESENTATION_STYLE_ASSIGNMENT((#143));
#65=EDGE_CURVE('',#99,#77,#144,.T.);
#66=PRESENTATION_STYLE_ASSIGNMENT((#145));
#67=VERTEX_POINT('',#146);
#68=PRESENTATION_STYLE_ASSIGNMENT((#147));
#69=EDGE_CURVE('',#67,#111,#148,.T.);
#70=PRESENTATION_STYLE_ASSIGNMENT((#149));
#71=EDGE_CURVE('',#101,#111,#150,.T.);
#72=PRESENTATION_STYLE_ASSIGNMENT((#151));
#73=ADVANCED_FACE('',(#152),#153,.T.);
#74=PRESENTATION_STYLE_ASSIGNMENT((#154));
#75=VERTEX_POINT('',#155);
#76=PRESENTATION_STYLE_ASSIGNMENT((#156));
#77=VERTEX_POINT('',#157);
#78=PRESENTATION_STYLE_ASSIGNMENT((#158));
#79=EDGE_CURVE('',#61,#99,#159,.T.);
#80=PRESENTATION_STYLE_ASSIGNMENT((#160));
#81=MANIFOLD_SOLID_BREP('1',#161);
#82=PRESENTATION_STYLE_ASSIGNMENT((#162));
#83=EDGE_CURVE('',#97,#77,#163,.T.);
#84=PRESENTATION_STYLE_ASSIGNMENT((#164));
#85=ADVANCED_FACE('',(#165),#166,.T.);
#86=PRESENTATION_STYLE_ASSIGNMENT((#167));
#87=ADVANCED_FACE('',(#168),#169,.T.);
#88=PRESENTATION_STYLE_ASSIGNMENT((#170));
#89=ADVANCED_FACE('',(#171),#172,.T.);
#90=PRESENTATION_STYLE_ASSIGNMENT((#173));
#91=EDGE_CURVE('',#75,#97,#174,.T.);
#92=PRESENTATION_STYLE_ASSIGNMENT((#175));
#93=EDGE_CURVE('',#77,#101,#176,.T.);
#94=PRESENTATION_STYLE_ASSIGNMENT((#177));
#95=ADVANCED_FACE('',(#178),#179,.T.);
#96=PRESENTATION_STYLE_ASSIGNMENT((#180));
#97=VERTEX_POINT('',#181);
#98=PRESENTATION_STYLE_ASSIGNMENT((#182));
#99=VERTEX_POINT('',#183);
#100=PRESENTATION_STYLE_ASSIGNMENT((#184));
#101=VERTEX_POINT('',#185);
#102=PRESENTATION_STYLE_ASSIGNMENT((#186));
#103=ADVANCED_FACE('',(#187),#188,.T.);
#104=PRESENTATION_STYLE_ASSIGNMENT((#189));
#105=EDGE_CURVE('',#97,#75,#190,.T.);
#106=PRESENTATION_STYLE_ASSIGNMENT((#191));
#107=EDGE_CURVE('',#111,#67,#192,.T.);
#108=PRESENTATION_STYLE_ASSIGNMENT((#193));
#109=ADVANCED_FACE('',(#194),#195,.T.);
#110=PRESENTATION_STYLE_ASSIGNMENT((#196));
#111=VERTEX_POINT('',#197);
#112=PRESENTATION_STYLE_ASSIGNMENT((#198));
#113=EDGE_CURVE('',#61,#101,#199,.T.);
#114=PRESENTATION_STYLE_ASSIGNMENT((#200));
#115=EDGE_CURVE('',#101,#61,#201,.T.);
#116=PRODUCT('1','1','PART-1-DESC',(#202));
#117=PRODUCT_DEFINITION('NONE','NONE',#203,#2);
#118=AXIS2_PLACEMENT_3D('',#204,#205,#206);
#121=LENGTH_MEASURE_WITH_UNIT(LENGTH_MEASURE(1.0),#207);
#124=DIMENSIONAL_EXPONENTS(1.0,0.0,0.0,0.0,0.0,0.0,0.0);
#126=DIMENSIONAL_EXPONENTS(0.0,0.0,0.0,0.0,0.0,0.0,0.0);
#132=CURVE_STYLE('',#208,POSITIVE_LENGTH_MEASURE(1.0E-006),#209);
#133=CIRCLE('',#210,3.0);
#134=CURVE_STYLE('',#211,POSITIVE_LENGTH_MEASURE(1.0E-006),#212);
#135=LINE('',#213,#214);
#136=CURVE_STYLE('',#215,POSITIVE_LENGTH_MEASURE(1.0E-006),#216);
#137=LINE('',#217,#218);
#138=POINT_STYLE(' ',#219,POSITIVE_LENGTH_MEASURE(1.0E-006),#220);
#139=CARTESIAN_POINT('',(0.0,3.0,-0.399999999999999));
#140=SURFACE_STYLE_USAGE(.BOTH.,#221);
#141=FACE_OUTER_BOUND('',#222,.T.);
#142=CYLINDRICAL_SURFACE('',#223,3.0);
#143=CURVE_STYLE('',#224,POSITIVE_LENGTH_MEASURE(1.0E-006),#225);
#144=CIRCLE('',#226,3.0);
#145=POINT_STYLE(' ',#227,POSITIVE_LENGTH_MEASURE(1.0E-006),#228);
#146=CARTESIAN_POINT('',(0.0,2.6,0.0));
#147=CURVE_STYLE('',#229,POSITIVE_LENGTH_MEASURE(1.0E-006),#230);
#148=CIRCLE('',#231,2.6);
#149=CURVE_STYLE('',#232,POSITIVE_LENGTH_MEASURE(1.0E-006),#233);
#150=LINE('',#234,#235);
#151=SURFACE_STYLE_USAGE(.BOTH.,#236);
#152=FACE_OUTER_BOUND('',#237,.T.);
#153=CONICAL_SURFACE('',#238,2.8,0.78539816339745);
#154=POINT_STYLE(' ',#239,POSITIVE_LENGTH_MEASURE(1.0E-006),#240);
#155=CARTESIAN_POINT('',(0.0,2.38685401,-65.0));
#156=POINT_STYLE(' ',#241,POSITIVE_LENGTH_MEASURE(1.0E-006),#242);
#157=CARTESIAN_POINT('',(3.67381906146713E-016,-3.0,-64.6459999976209));
#158=CURVE_STYLE('',#243,POSITIVE_LENGTH_MEASURE(1.0E-006),#244);
#159=LINE('',#245,#246);
#160=SURFACE_STYLE_USAGE(.BOTH.,#247);
#161=CLOSED_SHELL('',(#63,#73,#95,#109,#103,#87,#85,#89));
#162=CURVE_STYLE('',#248,POSITIVE_LENGTH_MEASURE(1.0E-006),#249);
#163=LINE('',#250,#251);
#164=SURFACE_STYLE_USAGE(.BOTH.,#252);
#165=FACE_OUTER_BOUND('',#253,.T.);
#166=CYLINDRICAL_SURFACE('',#254,3.0);
#167=SURFACE_STYLE_USAGE(.BOTH.,#255);
#168=FACE_OUTER_BOUND('',#256,.T.);
#169=CONICAL_SURFACE('',#257,2.8,0.78539816339745);
#170=SURFACE_STYLE_USAGE(.BOTH.,#258);
#171=FACE_OUTER_BOUND('',#259,.T.);
#172=PLANE('',#260);
#173=CURVE_STYLE('',#261,POSITIVE_LENGTH_MEASURE(1.0E-006),#262);
#174=CIRCLE('',#263,2.38685401);
#175=CURVE_STYLE('',#264,POSITIVE_LENGTH_MEASURE(1.0E-006),#265);
#176=LINE('',#266,#267);
#177=SURFACE_STYLE_USAGE(.BOTH.,#268);
#178=FACE_OUTER_BOUND('',#269,.T.);
#179=CONICAL_SURFACE('',#270,2.693427005,1.0471975511966);
#180=POINT_STYLE(' ',#271,POSITIVE_LENGTH_MEASURE(1.0E-006),#272);
#181=CARTESIAN_POINT('',(2.92295658629242E-016,-2.38685401,-65.0));
#182=POINT_STYLE(' ',#273,POSITIVE_LENGTH_MEASURE(1.0E-006),#274);
#183=CARTESIAN_POINT('',(0.0,3.0,-64.645999997621));
#184=POINT_STYLE(' ',#275,POSITIVE_LENGTH_MEASURE(1.0E-006),#276);
#185=CARTESIAN_POINT('',(3.67381906146713E-016,-3.0,-0.399999999999999));
#186=SURFACE_STYLE_USAGE(.BOTH.,#277);
#187=FACE_OUTER_BOUND('',#278,.T.);
#188=PLANE('',#279);
#189=CURVE_STYLE('',#280,POSITIVE_LENGTH_MEASURE(1.0E-006),#281);
#190=CIRCLE('',#282,2.38685401);
#191=CURVE_STYLE('',#283,POSITIVE_LENGTH_MEASURE(1.0E-006),#284);
#192=CIRCLE('',#285,2.6);
#193=SURFACE_STYLE_USAGE(.BOTH.,#286);
#194=FACE_OUTER_BOUND('',#287,.T.);
#195=CONICAL_SURFACE('',#288,2.693427005,1.0471975511966);
#196=POINT_STYLE(' ',#289,POSITIVE_LENGTH_MEASURE(1.0E-006),#290);
#197=CARTESIAN_POINT('',(3.18397651993818E-016,-2.6,0.0));
#198=CURVE_STYLE('',#291,POSITIVE_LENGTH_MEASURE(1.0E-006),#292);
#199=CIRCLE('',#293,3.0);
#200=CURVE_STYLE('',#294,POSITIVE_LENGTH_MEASURE(1.0E-006),#295);
#201=CIRCLE('',#296,3.0);
#202=PRODUCT_CONTEXT('',#41,'mechanical');
#203=PRODUCT_DEFINITION_FORMATION_WITH_SPECIFIED_SOURCE(' ','NONE',#116,.NOT_KNOWN.);
#204=CARTESIAN_POINT('',(0.0,0.0,0.0));
#205=DIRECTION('',(0.0,0.0,1.0));
#206=DIRECTION('',(1.0,0.0,0.0));
#207= (NAMED_UNIT(#124)LENGTH_UNIT()SI_UNIT(.MILLI.,.METRE.));
#208=DRAUGHTING_PRE_DEFINED_CURVE_FONT('continuous');
#209=COLOUR_RGB('',0.800000011920929,0.800000011920929,0.800000011920929);
#210=AXIS2_PLACEMENT_3D('',#298,#299,#300);
#211=DRAUGHTING_PRE_DEFINED_CURVE_FONT('continuous');
#212=COLOUR_RGB('',0.800000011920929,0.800000011920929,0.800000011920929);
#213=CARTESIAN_POINT('',(-3.29838782387978E-016,2.693427005,-64.8229999988105));
#214=VECTOR('',#301,1.0);
#215=DRAUGHTING_PRE_DEFINED_CURVE_FONT('continuous');
#216=COLOUR_RGB('',0.498039215803146,0.498039215803146,0.498039215803146);
#217=CARTESIAN_POINT('',(-3.42889779070266E-016,2.8,-0.200000000000003));
#218=VECTOR('',#302,1.0);
#219=PRE_DEFINED_MARKER('');
#220=COLOUR_RGB('',0.498039215803146,0.498039215803146,0.498039215803146);
#221=SURFACE_SIDE_STYLE('',(#303));
#222=EDGE_LOOP('',(#304,#305,#306,#307));
#223=AXIS2_PLACEMENT_3D('',#308,#309,#310);
#224=DRAUGHTING_PRE_DEFINED_CURVE_FONT('continuous');
#225=COLOUR_RGB('',0.800000011920929,0.800000011920929,0.800000011920929);
#226=AXIS2_PLACEMENT_3D('',#311,#312,#313);
#227=PRE_DEFINED_MARKER('');
#228=COLOUR_RGB('',0.498039215803146,0.498039215803146,0.498039215803146);
#229=DRAUGHTING_PRE_DEFINED_CURVE_FONT('continuous');
#230=COLOUR_RGB('',0.498039215803146,0.498039215803146,0.498039215803146);
#231=AXIS2_PLACEMENT_3D('',#314,#315,#316);
#232=DRAUGHTING_PRE_DEFINED_CURVE_FONT('continuous');
#233=COLOUR_RGB('',0.498039215803146,0.498039215803146,0.498039215803146);
#234=CARTESIAN_POINT('',(3.42889779070266E-016,-2.8,-0.200000000000003));
#235=VECTOR('',#317,1.0);
#236=SURFACE_SIDE_STYLE('',(#318));
#237=EDGE_LOOP('',(#319,#320,#321,#322));
#238=AXIS2_PLACEMENT_3D('',#323,#324,#325);
#239=PRE_DEFINED_MARKER('');
#240=COLOUR_RGB('',0.498039215803146,0.498039215803146,0.498039215803146);
#241=PRE_DEFINED_MARKER('');
#242=COLOUR_RGB('',0.800000011920929,0.800000011920929,0.800000011920929);
#243=DRAUGHTING_PRE_DEFINED_CURVE_FONT('continuous');
#244=COLOUR_RGB('',0.498039215803146,0.498039215803146,0.498039215803146);
#245=CARTESIAN_POINT('',(-3.67381906146713E-016,3.0,-21.7));
#246=VECTOR('',#326,1.0);
#247=SURFACE_SIDE_STYLE('',(#327));
#248=DRAUGHTING_PRE_DEFINED_CURVE_FONT('continuous');
#249=COLOUR_RGB('',0.800000011920929,0.800000011920929,0.800000011920929);
#250=CARTESIAN_POINT('',(3.29838782387978E-016,-2.693427005,-64.8229999988105));
#251=VECTOR('',#328,1.0);
#252=SURFACE_SIDE_STYLE('',(#329));
#253=EDGE_LOOP('',(#330,#331,#332,#333));
#254=AXIS2_PLACEMENT_3D('',#334,#335,#336);
#255=SURFACE_SIDE_STYLE('',(#337));
#256=EDGE_LOOP('',(#338,#339,#340,#341));
#257=AXIS2_PLACEMENT_3D('',#342,#343,#344);
#258=SURFACE_SIDE_STYLE('',(#345));
#259=EDGE_LOOP('',(#346,#347));
#260=AXIS2_PLACEMENT_3D('',#348,#349,#350);
#261=DRAUGHTING_PRE_DEFINED_CURVE_FONT('continuous');
#262=COLOUR_RGB('',0.498039215803146,0.498039215803146,0.498039215803146);
#263=AXIS2_PLACEMENT_3D('',#351,#352,#353);
#264=DRAUGHTING_PRE_DEFINED_CURVE_FONT('continuous');
#265=COLOUR_RGB('',0.498039215803146,0.498039215803146,0.498039215803146);
#266=CARTESIAN_POINT('',(3.67381906146713E-016,-3.0,-21.7));
#267=VECTOR('',#354,1.0);
#268=SURFACE_SIDE_STYLE('',(#355));
#269=EDGE_LOOP('',(#356,#357,#358,#359));
#270=AXIS2_PLACEMENT_3D('',#360,#361,#362);
#271=PRE_DEFINED_MARKER('');
#272=COLOUR_RGB('',0.498039215803146,0.498039215803146,0.498039215803146);
#273=PRE_DEFINED_MARKER('');
#274=COLOUR_RGB('',0.800000011920929,0.800000011920929,0.800000011920929);
#275=PRE_DEFINED_MARKER('');
#276=COLOUR_RGB('',0.498039215803146,0.498039215803146,0.498039215803146);
#277=SURFACE_SIDE_STYLE('',(#363));
#278=EDGE_LOOP('',(#364,#365));
#279=AXIS2_PLACEMENT_3D('',#366,#367,#368);
#280=DRAUGHTING_PRE_DEFINED_CURVE_FONT('continuous');
#281=COLOUR_RGB('',0.498039215803146,0.498039215803146,0.498039215803146);
#282=AXIS2_PLACEMENT_3D('',#369,#370,#371);
#283=DRAUGHTING_PRE_DEFINED_CURVE_FONT('continuous');
#284=COLOUR_RGB('',0.498039215803146,0.498039215803146,0.498039215803146);
#285=AXIS2_PLACEMENT_3D('',#372,#373,#374);
#286=SURFACE_SIDE_STYLE('',(#375));
#287=EDGE_LOOP('',(#376,#377,#378,#379));
#288=AXIS2_PLACEMENT_3D('',#380,#381,#382);
#289=PRE_DEFINED_MARKER('');
#290=COLOUR_RGB('',0.498039215803146,0.498039215803146,0.498039215803146);
#291=DRAUGHTING_PRE_DEFINED_CURVE_FONT('continuous');
#292=COLOUR_RGB('',0.498039215803146,0.498039215803146,0.498039215803146);
#293=AXIS2_PLACEMENT_3D('',#383,#384,#385);
#294=DRAUGHTING_PRE_DEFINED_CURVE_FONT('continuous');
#295=COLOUR_RGB('',0.498039215803146,0.498039215803146,0.498039215803146);
#296=AXIS2_PLACEMENT_3D('',#386,#387,#388);
#298=CARTESIAN_POINT('',(0.0,0.0,-64.645999997621));
#299=DIRECTION('',(0.0,0.0,-1.0));
#300=DIRECTION('',(0.0,1.0,0.0));
#301=DIRECTION('',(1.06054021204601E-016,-0.866025403784438,-0.500000000000001));
#302=DIRECTION('',(-8.65927457071937E-017,0.707106781186549,-0.707106781186546));
#303=SURFACE_STYLE_FILL_AREA(#389);
#304=ORIENTED_EDGE('',*,*,#79,.F.);
#305=ORIENTED_EDGE('',*,*,#113,.T.);
#306=ORIENTED_EDGE('',*,*,#93,.F.);
#307=ORIENTED_EDGE('',*,*,#65,.F.);
#308=CARTESIAN_POINT('',(0.0,0.0,-21.7));
#309=DIRECTION('',(-0.0,-0.0,1.0));
#310=DIRECTION('',(0.0,1.0,0.0));
#311=CARTESIAN_POINT('',(0.0,0.0,-64.645999997621));
#312=DIRECTION('',(0.0,0.0,-1.0));
#313=DIRECTION('',(0.0,1.0,0.0));
#314=CARTESIAN_POINT('',(0.0,0.0,0.0));
#315=DIRECTION('',(0.0,0.0,-1.0));
#316=DIRECTION('',(0.0,1.0,0.0));
#317=DIRECTION('',(-8.65927457071937E-017,0.707106781186549,0.707106781186546));
#318=SURFACE_STYLE_FILL_AREA(#390);
#319=ORIENTED_EDGE('',*,*,#59,.F.);
#320=ORIENTED_EDGE('',*,*,#69,.T.);
#321=ORIENTED_EDGE('',*,*,#71,.F.);
#322=ORIENTED_EDGE('',*,*,#113,.F.);
#323=CARTESIAN_POINT('',(0.0,0.0,-0.200000000000003));
#324=DIRECTION('',(0.0,-0.0,-1.0));
#325=DIRECTION('',(0.0,1.0,0.0));
#326=DIRECTION('',(0.0,0.0,-1.0));
#327=SURFACE_STYLE_FILL_AREA(#391);
#328=DIRECTION('',(1.06054021204601E-016,-0.866025403784438,0.500000000000001));
#329=SURFACE_STYLE_FILL_AREA(#392);
#330=ORIENTED_EDGE('',*,*,#79,.T.);
#331=ORIENTED_EDGE('',*,*,#55,.F.);
#332=ORIENTED_EDGE('',*,*,#93,.T.);
#333=ORIENTED_EDGE('',*,*,#115,.T.);
#334=CARTESIAN_POINT('',(0.0,0.0,-21.7));
#335=DIRECTION('',(-0.0,-0.0,1.0));
#336=DIRECTION('',(0.0,1.0,0.0));
#337=SURFACE_STYLE_FILL_AREA(#393);
#338=ORIENTED_EDGE('',*,*,#59,.T.);
#339=ORIENTED_EDGE('',*,*,#115,.F.);
#340=ORIENTED_EDGE('',*,*,#71,.T.);
#341=ORIENTED_EDGE('',*,*,#107,.T.);
#342=CARTESIAN_POINT('',(0.0,0.0,-0.200000000000003));
#343=DIRECTION('',(0.0,-0.0,-1.0));
#344=DIRECTION('',(0.0,1.0,0.0));
#345=SURFACE_STYLE_FILL_AREA(#394);
#346=ORIENTED_EDGE('',*,*,#91,.T.);
#347=ORIENTED_EDGE('',*,*,#105,.T.);
#348=CARTESIAN_POINT('',(0.0,1.193427005,-65.0));
#349=DIRECTION('',(0.0,0.0,-1.0));
#350=DIRECTION('',(0.0,1.0,0.0));
#351=CARTESIAN_POINT('',(0.0,0.0,-65.0));
#352=DIRECTION('',(0.0,0.0,-1.0));
#353=DIRECTION('',(0.0,1.0,0.0));
#354=DIRECTION('',(-0.0,-0.0,1.0));
#355=SURFACE_STYLE_FILL_AREA(#395);
#356=ORIENTED_EDGE('',*,*,#57,.F.);
#357=ORIENTED_EDGE('',*,*,#65,.T.);
#358=ORIENTED_EDGE('',*,*,#83,.F.);
#359=ORIENTED_EDGE('',*,*,#91,.F.);
#360=CARTESIAN_POINT('',(0.0,0.0,-64.8229999988105));
#361=DIRECTION('',(-0.0,-0.0,1.0));
#362=DIRECTION('',(0.0,1.0,0.0));
#363=SURFACE_STYLE_FILL_AREA(#396);
#364=ORIENTED_EDGE('',*,*,#69,.F.);
#365=ORIENTED_EDGE('',*,*,#107,.F.);
#366=CARTESIAN_POINT('',(0.0,1.3,0.0));
#367=DIRECTION('',(-0.0,0.0,1.0));
#368=DIRECTION('',(0.0,-1.0,0.0));
#369=CARTESIAN_POINT('',(0.0,0.0,-65.0));
#370=DIRECTION('',(0.0,0.0,-1.0));
#371=DIRECTION('',(0.0,1.0,0.0));
#372=CARTESIAN_POINT('',(0.0,0.0,0.0));
#373=DIRECTION('',(0.0,0.0,-1.0));
#374=DIRECTION('',(0.0,1.0,0.0));
#375=SURFACE_STYLE_FILL_AREA(#397);
#376=ORIENTED_EDGE('',*,*,#57,.T.);
#377=ORIENTED_EDGE('',*,*,#105,.F.);
#378=ORIENTED_EDGE('',*,*,#83,.T.);
#379=ORIENTED_EDGE('',*,*,#55,.T.);
#380=CARTESIAN_POINT('',(0.0,0.0,-64.8229999988105));
#381=DIRECTION('',(-0.0,-0.0,1.0));
#382=DIRECTION('',(0.0,1.0,0.0));
#383=CARTESIAN_POINT('',(0.0,0.0,-0.399999999999999));
#384=DIRECTION('',(0.0,0.0,-1.0));
#385=DIRECTION('',(0.0,1.0,0.0));
#386=CARTESIAN_POINT('',(0.0,0.0,-0.399999999999999));
#387=DIRECTION('',(0.0,0.0,-1.0));
#388=DIRECTION('',(0.0,1.0,0.0));
#389=FILL_AREA_STYLE('',(#398));
#390=FILL_AREA_STYLE('',(#399));
#391=FILL_AREA_STYLE('',(#400));
#392=FILL_AREA_STYLE('',(#401));
#393=FILL_AREA_STYLE('',(#402));
#394=FILL_AREA_STYLE('',(#403));
#395=FILL_AREA_STYLE('',(#404));
#396=FILL_AREA_STYLE('',(#405));
#397=FILL_AREA_STYLE('',(#406));
#398=FILL_AREA_STYLE_COLOUR('',#407);
#399=FILL_AREA_STYLE_COLOUR('',#408);
#400=FILL_AREA_STYLE_COLOUR('',#409);
#401=FILL_AREA_STYLE_COLOUR('',#410);
#402=FILL_AREA_STYLE_COLOUR('',#411);
#403=FILL_AREA_STYLE_COLOUR('',#412);
#404=FILL_AREA_STYLE_COLOUR('',#413);
#405=FILL_AREA_STYLE_COLOUR('',#414);
#406=FILL_AREA_STYLE_COLOUR('',#415);
#407=COLOUR_RGB('',0.498039215803146,0.498039215803146,0.498039215803146);
#408=COLOUR_RGB('',0.498039215803146,0.498039215803146,0.498039215803146);
#409=COLOUR_RGB('',0.498039215803146,0.498039215803146,0.498039215803146);
#410=COLOUR_RGB('',0.498039215803146,0.498039215803146,0.498039215803146);
#411=COLOUR_RGB('',0.498039215803146,0.498039215803146,0.498039215803146);
#412=COLOUR_RGB('',0.498039215803146,0.498039215803146,0.498039215803146);
#413=COLOUR_RGB('',0.800000011920929,0.800000011920929,0.800000011920929);
#414=COLOUR_RGB('',0.498039215803146,0.498039215803146,0.498039215803146);
#415=COLOUR_RGB('',0.800000011920929,0.800000011920929,0.800000011920929);
#416=AXIS2_PLACEMENT_3D('PCS',#417,#418,#419);
#417=CARTESIAN_POINT('',(0.0,0.0,0.0));
#418=DIRECTION('',(0.0,0.0,1.0));
#419=DIRECTION('',(1.0,0.0,0.0));
#420=AXIS2_PLACEMENT_3D('CIP',#421,#422,#423);
#421=CARTESIAN_POINT('',(0.0,0.0,-65.0));
#422=DIRECTION('',(0.0,0.0,1.0));
#423=DIRECTION('',(1.0,0.0,0.0));
#424=AXIS2_PLACEMENT_3D('CRP',#425,#426,#427);
#425=CARTESIAN_POINT('',(-3.0,0.0,-65.0));
#426=DIRECTION('',(0.0,0.0,1.0));
#427=DIRECTION('',(1.0,0.0,0.0));
#428=AXIS2_PLACEMENT_3D('MCS',#429,#430,#431);
#429=CARTESIAN_POINT('',(0.0,0.0,-43.0));
#430=DIRECTION('',(0.0,0.0,1.0));
#431=DIRECTION('',(1.0,0.0,0.0));
#432=CONSTRUCTIVE_GEOMETRY_REPRESENTATION_RELATIONSHIP('coordinate systems',$,#45,#433);
#433=CONSTRUCTIVE_GEOMETRY_REPRESENTATION('coordinate systems',(#416,#420,#424,#428),#6);
ENDSEC;
END-ISO-10303-21;
