ISO-10303-21;
HEADER;
FILE_DESCRIPTION(('no description'),'unknown implementation level');
FILE_NAME('solidrkFP95xMlCelNwwIqIt5mQiDKlo_1.STP','  ',('CIMSOURCE GmbH'),('CADClick - KiM GmbH - www.kimweb.de'),'unknown preprocess','ACIS','unknown authorization');
FILE_SCHEMA(('automotive_design'));
ENDSEC;
DATA;
#1=MECHANICAL_DESIGN_GEOMETRIC_PRESENTATION_REPRESENTATION(' ',(#10,#11,#12,#13,#14,#15,#16,#17,#18,#19,#20,#21,#22,#23,#24,#25,#26,#27,#28,#29,#30,#31,#32,#33,#34,#35,#36,#37,#38,#39,#40),#6);
#2=PRODUCT_DEFINITION_CONTEXT('',#41,'design');
#3=APPLICATION_PROTOCOL_DEFINITION('INTERNATIONAL STANDARD','automotive_design',1994,#41);
#4=PRODUCT_CATEGORY_RELATIONSHIP('NONE','NONE',#42,#43);
#5=SHAPE_DEFINITION_REPRESENTATION(#44,#45);
#6= (GEOMETRIC_REPRESENTATION_CONTEXT(3)GLOBAL_UNCERTAINTY_ASSIGNED_CONTEXT((#48))GLOBAL_UNIT_ASSIGNED_CONTEXT((#50,#51,#52))REPRESENTATION_CONTEXT('NONE','WORKSPACE'));
#10=STYLED_ITEM('',(#54),#55);
#11=STYLED_ITEM('',(#56),#57);
#12=STYLED_ITEM('',(#58),#59);
#13=STYLED_ITEM('',(#60),#61);
#14=STYLED_ITEM('',(#62),#63);
#15=STYLED_ITEM('',(#64),#65);
#16=STYLED_ITEM('',(#66),#67);
#17=STYLED_ITEM('',(#68),#69);
#18=STYLED_ITEM('',(#70),#71);
#19=STYLED_ITEM('',(#72),#73);
#20=STYLED_ITEM('',(#74),#75);
#21=STYLED_ITEM('',(#76),#77);
#22=STYLED_ITEM('',(#78),#79);
#23=STYLED_ITEM('',(#80),#81);
#24=STYLED_ITEM('',(#82),#83);
#25=STYLED_ITEM('',(#84),#85);
#26=STYLED_ITEM('',(#86),#87);
#27=STYLED_ITEM('',(#88),#89);
#28=STYLED_ITEM('',(#90),#91);
#29=STYLED_ITEM('',(#92),#93);
#30=STYLED_ITEM('',(#94),#95);
#31=STYLED_ITEM('',(#96),#97);
#32=STYLED_ITEM('',(#98),#99);
#33=STYLED_ITEM('',(#100),#101);
#34=STYLED_ITEM('',(#102),#103);
#35=STYLED_ITEM('',(#104),#105);
#36=STYLED_ITEM('',(#106),#107);
#37=STYLED_ITEM('',(#108),#109);
#38=STYLED_ITEM('',(#110),#111);
#39=STYLED_ITEM('',(#112),#113);
#40=STYLED_ITEM('',(#114),#115);
#41=APPLICATION_CONTEXT(' ');
#42=PRODUCT_CATEGORY('part','NONE');
#43=PRODUCT_RELATED_PRODUCT_CATEGORY('detail',' ',(#116));
#44=PRODUCT_DEFINITION_SHAPE('NONE','NONE',#117);
#45=ADVANCED_BREP_SHAPE_REPRESENTATION('1',(#79,#118),#6);
#48=UNCERTAINTY_MEASURE_WITH_UNIT(LENGTH_MEASURE(1.0E-006),#50,'','');
#50= (CONVERSION_BASED_UNIT('MILLIMETRE',#121)LENGTH_UNIT()NAMED_UNIT(#124));
#51= (NAMED_UNIT(#126)PLANE_ANGLE_UNIT()SI_UNIT($,.RADIAN.));
#52= (NAMED_UNIT(#126)SOLID_ANGLE_UNIT()SI_UNIT($,.STERADIAN.));
#54=PRESENTATION_STYLE_ASSIGNMENT((#132));
#55=ADVANCED_FACE('',(#133),#134,.T.);
#56=PRESENTATION_STYLE_ASSIGNMENT((#135));
#57=VERTEX_POINT('',#136);
#58=PRESENTATION_STYLE_ASSIGNMENT((#137));
#59=EDGE_CURVE('',#103,#99,#138,.T.);
#60=PRESENTATION_STYLE_ASSIGNMENT((#139));
#61=VERTEX_POINT('',#140);
#62=PRESENTATION_STYLE_ASSIGNMENT((#141));
#63=ADVANCED_FACE('',(#142),#143,.T.);
#64=PRESENTATION_STYLE_ASSIGNMENT((#144));
#65=ADVANCED_FACE('',(#145),#146,.T.);
#66=PRESENTATION_STYLE_ASSIGNMENT((#147));
#67=EDGE_CURVE('',#57,#95,#148,.T.);
#68=PRESENTATION_STYLE_ASSIGNMENT((#149));
#69=EDGE_CURVE('',#95,#61,#150,.T.);
#70=PRESENTATION_STYLE_ASSIGNMENT((#151));
#71=EDGE_CURVE('',#61,#89,#152,.T.);
#72=PRESENTATION_STYLE_ASSIGNMENT((#153));
#73=EDGE_CURVE('',#89,#97,#154,.T.);
#74=PRESENTATION_STYLE_ASSIGNMENT((#155));
#75=EDGE_CURVE('',#95,#99,#156,.T.);
#76=PRESENTATION_STYLE_ASSIGNMENT((#157));
#77=EDGE_CURVE('',#99,#103,#158,.T.);
#78=PRESENTATION_STYLE_ASSIGNMENT((#159));
#79=MANIFOLD_SOLID_BREP('1',#160);
#80=PRESENTATION_STYLE_ASSIGNMENT((#161));
#81=ADVANCED_FACE('',(#162),#163,.T.);
#82=PRESENTATION_STYLE_ASSIGNMENT((#164));
#83=ADVANCED_FACE('',(#165),#166,.T.);
#84=PRESENTATION_STYLE_ASSIGNMENT((#167));
#85=ADVANCED_FACE('',(#168),#169,.T.);
#86=PRESENTATION_STYLE_ASSIGNMENT((#170));
#87=ADVANCED_FACE('',(#171),#172,.T.);
#88=PRESENTATION_STYLE_ASSIGNMENT((#173));
#89=VERTEX_POINT('',#174);
#90=PRESENTATION_STYLE_ASSIGNMENT((#175));
#91=ADVANCED_FACE('',(#176),#177,.T.);
#92=PRESENTATION_STYLE_ASSIGNMENT((#178));
#93=EDGE_CURVE('',#115,#97,#179,.T.);
#94=PRESENTATION_STYLE_ASSIGNMENT((#180));
#95=VERTEX_POINT('',#181);
#96=PRESENTATION_STYLE_ASSIGNMENT((#182));
#97=VERTEX_POINT('',#183);
#98=PRESENTATION_STYLE_ASSIGNMENT((#184));
#99=VERTEX_POINT('',#185);
#100=PRESENTATION_STYLE_ASSIGNMENT((#186));
#101=EDGE_CURVE('',#103,#61,#187,.T.);
#102=PRESENTATION_STYLE_ASSIGNMENT((#188));
#103=VERTEX_POINT('',#189);
#104=PRESENTATION_STYLE_ASSIGNMENT((#190));
#105=EDGE_CURVE('',#57,#89,#191,.T.);
#106=PRESENTATION_STYLE_ASSIGNMENT((#192));
#107=EDGE_CURVE('',#61,#95,#193,.T.);
#108=PRESENTATION_STYLE_ASSIGNMENT((#194));
#109=EDGE_CURVE('',#89,#57,#195,.T.);
#110=PRESENTATION_STYLE_ASSIGNMENT((#196));
#111=EDGE_CURVE('',#97,#115,#197,.T.);
#112=PRESENTATION_STYLE_ASSIGNMENT((#198));
#113=EDGE_CURVE('',#115,#57,#199,.T.);
#114=PRESENTATION_STYLE_ASSIGNMENT((#200));
#115=VERTEX_POINT('',#201);
#116=PRODUCT('1','1','PART-1-DESC',(#202));
#117=PRODUCT_DEFINITION('NONE','NONE',#203,#2);
#118=AXIS2_PLACEMENT_3D('',#204,#205,#206);
#121=LENGTH_MEASURE_WITH_UNIT(LENGTH_MEASURE(1.0),#207);
#124=DIMENSIONAL_EXPONENTS(1.0,0.0,0.0,0.0,0.0,0.0,0.0);
#126=DIMENSIONAL_EXPONENTS(0.0,0.0,0.0,0.0,0.0,0.0,0.0);
#132=SURFACE_STYLE_USAGE(.BOTH.,#208);
#133=FACE_OUTER_BOUND('',#209,.T.);
#134=CONICAL_SURFACE('',#210,4.75,0.785398163397448);
#135=POINT_STYLE(' ',#211,POSITIVE_LENGTH_MEASURE(1.0E-006),#212);
#136=CARTESIAN_POINT('',(0.0,5.0,-0.5));
#137=CURVE_STYLE('',#213,POSITIVE_LENGTH_MEASURE(1.0E-006),#214);
#138=CIRCLE('',#215,4.08028102);
#139=POINT_STYLE(' ',#216,POSITIVE_LENGTH_MEASURE(1.0E-006),#217);
#140=CARTESIAN_POINT('',(6.12303176911189E-016,-5.0,-84.4689999993182));
#141=SURFACE_STYLE_USAGE(.BOTH.,#218);
#142=FACE_OUTER_BOUND('',#219,.T.);
#143=CYLINDRICAL_SURFACE('',#220,5.0);
#144=SURFACE_STYLE_USAGE(.BOTH.,#221);
#145=FACE_OUTER_BOUND('',#222,.T.);
#146=CONICAL_SURFACE('',#223,4.75,0.785398163397448);
#147=CURVE_STYLE('',#224,POSITIVE_LENGTH_MEASURE(1.0E-006),#225);
#148=LINE('',#226,#227);
#149=CURVE_STYLE('',#228,POSITIVE_LENGTH_MEASURE(1.0E-006),#229);
#150=CIRCLE('',#230,5.0);
#151=CURVE_STYLE('',#231,POSITIVE_LENGTH_MEASURE(1.0E-006),#232);
#152=LINE('',#233,#234);
#153=CURVE_STYLE('',#235,POSITIVE_LENGTH_MEASURE(1.0E-006),#236);
#154=LINE('',#237,#238);
#155=CURVE_STYLE('',#239,POSITIVE_LENGTH_MEASURE(1.0E-006),#240);
#156=LINE('',#241,#242);
#157=CURVE_STYLE('',#243,POSITIVE_LENGTH_MEASURE(1.0E-006),#244);
#158=CIRCLE('',#245,4.08028102);
#159=SURFACE_STYLE_USAGE(.BOTH.,#246);
#160=CLOSED_SHELL('',(#81,#65,#91,#83,#85,#55,#63,#87));
#161=SURFACE_STYLE_USAGE(.BOTH.,#247);
#162=FACE_OUTER_BOUND('',#248,.T.);
#163=CYLINDRICAL_SURFACE('',#249,5.0);
#164=SURFACE_STYLE_USAGE(.BOTH.,#250);
#165=FACE_OUTER_BOUND('',#251,.T.);
#166=CONICAL_SURFACE('',#252,4.54014051,1.0471975511966);
#167=SURFACE_STYLE_USAGE(.BOTH.,#253);
#168=FACE_OUTER_BOUND('',#254,.T.);
#169=PLANE('',#255);
#170=SURFACE_STYLE_USAGE(.BOTH.,#256);
#171=FACE_OUTER_BOUND('',#257,.T.);
#172=PLANE('',#258);
#173=POINT_STYLE(' ',#259,POSITIVE_LENGTH_MEASURE(1.0E-006),#260);
#174=CARTESIAN_POINT('',(6.12303176911189E-016,-5.0,-0.5));
#175=SURFACE_STYLE_USAGE(.BOTH.,#261);
#176=FACE_OUTER_BOUND('',#262,.T.);
#177=CONICAL_SURFACE('',#263,4.54014051,1.0471975511966);
#178=CURVE_STYLE('',#264,POSITIVE_LENGTH_MEASURE(1.0E-006),#265);
#179=CIRCLE('',#266,4.5);
#180=POINT_STYLE(' ',#267,POSITIVE_LENGTH_MEASURE(1.0E-006),#268);
#181=CARTESIAN_POINT('',(0.0,5.0,-84.4689999993182));
#182=POINT_STYLE(' ',#269,POSITIVE_LENGTH_MEASURE(1.0E-006),#270);
#183=CARTESIAN_POINT('',(5.5107285922007E-016,-4.5,0.0));
#184=POINT_STYLE(' ',#271,POSITIVE_LENGTH_MEASURE(1.0E-006),#272);
#185=CARTESIAN_POINT('',(0.0,4.08028102,-85.0));
#186=CURVE_STYLE('',#273,POSITIVE_LENGTH_MEASURE(1.0E-006),#274);
#187=LINE('',#275,#276);
#188=POINT_STYLE(' ',#277,POSITIVE_LENGTH_MEASURE(1.0E-006),#278);
#189=CARTESIAN_POINT('',(4.99673806247285E-016,-4.08028102,-85.0));
#190=CURVE_STYLE('',#279,POSITIVE_LENGTH_MEASURE(1.0E-006),#280);
#191=CIRCLE('',#281,5.0);
#192=CURVE_STYLE('',#282,POSITIVE_LENGTH_MEASURE(1.0E-006),#283);
#193=CIRCLE('',#284,5.0);
#194=CURVE_STYLE('',#285,POSITIVE_LENGTH_MEASURE(1.0E-006),#286);
#195=CIRCLE('',#287,5.0);
#196=CURVE_STYLE('',#288,POSITIVE_LENGTH_MEASURE(1.0E-006),#289);
#197=CIRCLE('',#290,4.5);
#198=CURVE_STYLE('',#291,POSITIVE_LENGTH_MEASURE(1.0E-006),#292);
#199=LINE('',#293,#294);
#200=POINT_STYLE(' ',#295,POSITIVE_LENGTH_MEASURE(1.0E-006),#296);
#201=CARTESIAN_POINT('',(0.0,4.5,0.0));
#202=PRODUCT_CONTEXT('',#41,'mechanical');
#203=PRODUCT_DEFINITION_FORMATION_WITH_SPECIFIED_SOURCE(' ','NONE',#116,.NOT_KNOWN.);
#204=CARTESIAN_POINT('',(0.0,0.0,0.0));
#205=DIRECTION('',(0.0,0.0,1.0));
#206=DIRECTION('',(1.0,0.0,0.0));
#207= (NAMED_UNIT(#124)LENGTH_UNIT()SI_UNIT(.MILLI.,.METRE.));
#208=SURFACE_SIDE_STYLE('',(#298));
#209=EDGE_LOOP('',(#299,#300,#301,#302));
#210=AXIS2_PLACEMENT_3D('',#303,#304,#305);
#211=PRE_DEFINED_MARKER('');
#212=COLOUR_RGB('',0.498039215803146,0.498039215803146,0.498039215803146);
#213=DRAUGHTING_PRE_DEFINED_CURVE_FONT('continuous');
#214=COLOUR_RGB('',0.498039215803146,0.498039215803146,0.498039215803146);
#215=AXIS2_PLACEMENT_3D('',#306,#307,#308);
#216=PRE_DEFINED_MARKER('');
#217=COLOUR_RGB('',0.800000011920929,0.800000011920929,0.800000011920929);
#218=SURFACE_SIDE_STYLE('',(#309));
#219=EDGE_LOOP('',(#310,#311,#312,#313));
#220=AXIS2_PLACEMENT_3D('',#314,#315,#316);
#221=SURFACE_SIDE_STYLE('',(#317));
#222=EDGE_LOOP('',(#318,#319,#320,#321));
#223=AXIS2_PLACEMENT_3D('',#322,#323,#324);
#224=DRAUGHTING_PRE_DEFINED_CURVE_FONT('continuous');
#225=COLOUR_RGB('',0.498039215803146,0.498039215803146,0.498039215803146);
#226=CARTESIAN_POINT('',(-6.12303176911189E-016,5.0,-22.75));
#227=VECTOR('',#325,1.0);
#228=DRAUGHTING_PRE_DEFINED_CURVE_FONT('continuous');
#229=COLOUR_RGB('',0.800000011920929,0.800000011920929,0.800000011920929);
#230=AXIS2_PLACEMENT_3D('',#326,#327,#328);
#231=DRAUGHTING_PRE_DEFINED_CURVE_FONT('continuous');
#232=COLOUR_RGB('',0.498039215803146,0.498039215803146,0.498039215803146);
#233=CARTESIAN_POINT('',(6.12303176911189E-016,-5.0,-22.75));
#234=VECTOR('',#329,1.0);
#235=DRAUGHTING_PRE_DEFINED_CURVE_FONT('continuous');
#236=COLOUR_RGB('',0.498039215803146,0.498039215803146,0.498039215803146);
#237=CARTESIAN_POINT('',(5.81688018065629E-016,-4.75,-0.25));
#238=VECTOR('',#330,1.0);
#239=DRAUGHTING_PRE_DEFINED_CURVE_FONT('continuous');
#240=COLOUR_RGB('',0.800000011920929,0.800000011920929,0.800000011920929);
#241=CARTESIAN_POINT('',(-5.55988491579237E-016,4.54014051,-84.7344999996591));
#242=VECTOR('',#331,1.0);
#243=DRAUGHTING_PRE_DEFINED_CURVE_FONT('continuous');
#244=COLOUR_RGB('',0.498039215803146,0.498039215803146,0.498039215803146);
#245=AXIS2_PLACEMENT_3D('',#332,#333,#334);
#246=SURFACE_SIDE_STYLE('',(#335));
#247=SURFACE_SIDE_STYLE('',(#336));
#248=EDGE_LOOP('',(#337,#338,#339,#340));
#249=AXIS2_PLACEMENT_3D('',#341,#342,#343);
#250=SURFACE_SIDE_STYLE('',(#344));
#251=EDGE_LOOP('',(#345,#346,#347,#348));
#252=AXIS2_PLACEMENT_3D('',#349,#350,#351);
#253=SURFACE_SIDE_STYLE('',(#352));
#254=EDGE_LOOP('',(#353,#354));
#255=AXIS2_PLACEMENT_3D('',#355,#356,#357);
#256=SURFACE_SIDE_STYLE('',(#358));
#257=EDGE_LOOP('',(#359,#360));
#258=AXIS2_PLACEMENT_3D('',#361,#362,#363);
#259=PRE_DEFINED_MARKER('');
#260=COLOUR_RGB('',0.498039215803146,0.498039215803146,0.498039215803146);
#261=SURFACE_SIDE_STYLE('',(#364));
#262=EDGE_LOOP('',(#365,#366,#367,#368));
#263=AXIS2_PLACEMENT_3D('',#369,#370,#371);
#264=DRAUGHTING_PRE_DEFINED_CURVE_FONT('continuous');
#265=COLOUR_RGB('',0.498039215803146,0.498039215803146,0.498039215803146);
#266=AXIS2_PLACEMENT_3D('',#372,#373,#374);
#267=PRE_DEFINED_MARKER('');
#268=COLOUR_RGB('',0.800000011920929,0.800000011920929,0.800000011920929);
#269=PRE_DEFINED_MARKER('');
#270=COLOUR_RGB('',0.498039215803146,0.498039215803146,0.498039215803146);
#271=PRE_DEFINED_MARKER('');
#272=COLOUR_RGB('',0.498039215803146,0.498039215803146,0.498039215803146);
#273=DRAUGHTING_PRE_DEFINED_CURVE_FONT('continuous');
#274=COLOUR_RGB('',0.800000011920929,0.800000011920929,0.800000011920929);
#275=CARTESIAN_POINT('',(5.55988491579237E-016,-4.54014051,-84.7344999996591));
#276=VECTOR('',#375,1.0);
#277=PRE_DEFINED_MARKER('');
#278=COLOUR_RGB('',0.498039215803146,0.498039215803146,0.498039215803146);
#279=DRAUGHTING_PRE_DEFINED_CURVE_FONT('continuous');
#280=COLOUR_RGB('',0.498039215803146,0.498039215803146,0.498039215803146);
#281=AXIS2_PLACEMENT_3D('',#376,#377,#378);
#282=DRAUGHTING_PRE_DEFINED_CURVE_FONT('continuous');
#283=COLOUR_RGB('',0.800000011920929,0.800000011920929,0.800000011920929);
#284=AXIS2_PLACEMENT_3D('',#379,#380,#381);
#285=DRAUGHTING_PRE_DEFINED_CURVE_FONT('continuous');
#286=COLOUR_RGB('',0.498039215803146,0.498039215803146,0.498039215803146);
#287=AXIS2_PLACEMENT_3D('',#382,#383,#384);
#288=DRAUGHTING_PRE_DEFINED_CURVE_FONT('continuous');
#289=COLOUR_RGB('',0.498039215803146,0.498039215803146,0.498039215803146);
#290=AXIS2_PLACEMENT_3D('',#385,#386,#387);
#291=DRAUGHTING_PRE_DEFINED_CURVE_FONT('continuous');
#292=COLOUR_RGB('',0.498039215803146,0.498039215803146,0.498039215803146);
#293=CARTESIAN_POINT('',(-5.81688018065629E-016,4.75,-0.25));
#294=VECTOR('',#388,1.0);
#295=PRE_DEFINED_MARKER('');
#296=COLOUR_RGB('',0.498039215803146,0.498039215803146,0.498039215803146);
#298=SURFACE_STYLE_FILL_AREA(#389);
#299=ORIENTED_EDGE('',*,*,#113,.T.);
#300=ORIENTED_EDGE('',*,*,#109,.F.);
#301=ORIENTED_EDGE('',*,*,#73,.T.);
#302=ORIENTED_EDGE('',*,*,#111,.T.);
#303=CARTESIAN_POINT('',(0.0,0.0,-0.25));
#304=DIRECTION('',(0.0,-0.0,-1.0));
#305=DIRECTION('',(0.0,1.0,0.0));
#306=CARTESIAN_POINT('',(0.0,0.0,-85.0));
#307=DIRECTION('',(0.0,0.0,-1.0));
#308=DIRECTION('',(0.0,1.0,0.0));
#309=SURFACE_STYLE_FILL_AREA(#390);
#310=ORIENTED_EDGE('',*,*,#67,.T.);
#311=ORIENTED_EDGE('',*,*,#107,.F.);
#312=ORIENTED_EDGE('',*,*,#71,.T.);
#313=ORIENTED_EDGE('',*,*,#109,.T.);
#314=CARTESIAN_POINT('',(0.0,0.0,-22.75));
#315=DIRECTION('',(-0.0,-0.0,1.0));
#316=DIRECTION('',(0.0,1.0,0.0));
#317=SURFACE_STYLE_FILL_AREA(#391);
#318=ORIENTED_EDGE('',*,*,#113,.F.);
#319=ORIENTED_EDGE('',*,*,#93,.T.);
#320=ORIENTED_EDGE('',*,*,#73,.F.);
#321=ORIENTED_EDGE('',*,*,#105,.F.);
#322=CARTESIAN_POINT('',(0.0,0.0,-0.25));
#323=DIRECTION('',(0.0,-0.0,-1.0));
#324=DIRECTION('',(0.0,1.0,0.0));
#325=DIRECTION('',(0.0,0.0,-1.0));
#326=CARTESIAN_POINT('',(0.0,0.0,-84.4689999993182));
#327=DIRECTION('',(0.0,0.0,-1.0));
#328=DIRECTION('',(0.0,1.0,0.0));
#329=DIRECTION('',(-0.0,-0.0,1.0));
#330=DIRECTION('',(-8.65927457071936E-017,0.707106781186548,0.707106781186548));
#331=DIRECTION('',(1.06054021204601E-016,-0.866025403784439,-0.5));
#332=CARTESIAN_POINT('',(0.0,0.0,-85.0));
#333=DIRECTION('',(0.0,0.0,-1.0));
#334=DIRECTION('',(0.0,1.0,0.0));
#335=SURFACE_STYLE_FILL_AREA(#392);
#336=SURFACE_STYLE_FILL_AREA(#393);
#337=ORIENTED_EDGE('',*,*,#67,.F.);
#338=ORIENTED_EDGE('',*,*,#105,.T.);
#339=ORIENTED_EDGE('',*,*,#71,.F.);
#340=ORIENTED_EDGE('',*,*,#69,.F.);
#341=CARTESIAN_POINT('',(0.0,0.0,-22.75));
#342=DIRECTION('',(-0.0,-0.0,1.0));
#343=DIRECTION('',(0.0,1.0,0.0));
#344=SURFACE_STYLE_FILL_AREA(#394);
#345=ORIENTED_EDGE('',*,*,#75,.T.);
#346=ORIENTED_EDGE('',*,*,#59,.F.);
#347=ORIENTED_EDGE('',*,*,#101,.T.);
#348=ORIENTED_EDGE('',*,*,#107,.T.);
#349=CARTESIAN_POINT('',(0.0,0.0,-84.7344999996591));
#350=DIRECTION('',(-0.0,-0.0,1.0));
#351=DIRECTION('',(0.0,1.0,0.0));
#352=SURFACE_STYLE_FILL_AREA(#395);
#353=ORIENTED_EDGE('',*,*,#93,.F.);
#354=ORIENTED_EDGE('',*,*,#111,.F.);
#355=CARTESIAN_POINT('',(0.0,2.25,0.0));
#356=DIRECTION('',(-0.0,0.0,1.0));
#357=DIRECTION('',(0.0,-1.0,0.0));
#358=SURFACE_STYLE_FILL_AREA(#396);
#359=ORIENTED_EDGE('',*,*,#77,.T.);
#360=ORIENTED_EDGE('',*,*,#59,.T.);
#361=CARTESIAN_POINT('',(0.0,2.04014051,-85.0));
#362=DIRECTION('',(0.0,0.0,-1.0));
#363=DIRECTION('',(0.0,1.0,0.0));
#364=SURFACE_STYLE_FILL_AREA(#397);
#365=ORIENTED_EDGE('',*,*,#75,.F.);
#366=ORIENTED_EDGE('',*,*,#69,.T.);
#367=ORIENTED_EDGE('',*,*,#101,.F.);
#368=ORIENTED_EDGE('',*,*,#77,.F.);
#369=CARTESIAN_POINT('',(0.0,0.0,-84.7344999996591));
#370=DIRECTION('',(-0.0,-0.0,1.0));
#371=DIRECTION('',(0.0,1.0,0.0));
#372=CARTESIAN_POINT('',(0.0,0.0,0.0));
#373=DIRECTION('',(0.0,0.0,-1.0));
#374=DIRECTION('',(0.0,1.0,0.0));
#375=DIRECTION('',(1.06054021204601E-016,-0.866025403784439,0.5));
#376=CARTESIAN_POINT('',(0.0,0.0,-0.5));
#377=DIRECTION('',(0.0,0.0,-1.0));
#378=DIRECTION('',(0.0,1.0,0.0));
#379=CARTESIAN_POINT('',(0.0,0.0,-84.4689999993182));
#380=DIRECTION('',(0.0,0.0,-1.0));
#381=DIRECTION('',(0.0,1.0,0.0));
#382=CARTESIAN_POINT('',(0.0,0.0,-0.5));
#383=DIRECTION('',(0.0,0.0,-1.0));
#384=DIRECTION('',(0.0,1.0,0.0));
#385=CARTESIAN_POINT('',(0.0,0.0,0.0));
#386=DIRECTION('',(0.0,0.0,-1.0));
#387=DIRECTION('',(0.0,1.0,0.0));
#388=DIRECTION('',(-8.65927457071936E-017,0.707106781186548,-0.707106781186548));
#389=FILL_AREA_STYLE('',(#398));
#390=FILL_AREA_STYLE('',(#399));
#391=FILL_AREA_STYLE('',(#400));
#392=FILL_AREA_STYLE('',(#401));
#393=FILL_AREA_STYLE('',(#402));
#394=FILL_AREA_STYLE('',(#403));
#395=FILL_AREA_STYLE('',(#404));
#396=FILL_AREA_STYLE('',(#405));
#397=FILL_AREA_STYLE('',(#406));
#398=FILL_AREA_STYLE_COLOUR('',#407);
#399=FILL_AREA_STYLE_COLOUR('',#408);
#400=FILL_AREA_STYLE_COLOUR('',#409);
#401=FILL_AREA_STYLE_COLOUR('',#410);
#402=FILL_AREA_STYLE_COLOUR('',#411);
#403=FILL_AREA_STYLE_COLOUR('',#412);
#404=FILL_AREA_STYLE_COLOUR('',#413);
#405=FILL_AREA_STYLE_COLOUR('',#414);
#406=FILL_AREA_STYLE_COLOUR('',#415);
#407=COLOUR_RGB('',0.498039215803146,0.498039215803146,0.498039215803146);
#408=COLOUR_RGB('',0.498039215803146,0.498039215803146,0.498039215803146);
#409=COLOUR_RGB('',0.498039215803146,0.498039215803146,0.498039215803146);
#410=COLOUR_RGB('',0.498039215803146,0.498039215803146,0.498039215803146);
#411=COLOUR_RGB('',0.498039215803146,0.498039215803146,0.498039215803146);
#412=COLOUR_RGB('',0.800000011920929,0.800000011920929,0.800000011920929);
#413=COLOUR_RGB('',0.498039215803146,0.498039215803146,0.498039215803146);
#414=COLOUR_RGB('',0.498039215803146,0.498039215803146,0.498039215803146);
#415=COLOUR_RGB('',0.800000011920929,0.800000011920929,0.800000011920929);
#416=AXIS2_PLACEMENT_3D('PCS',#417,#418,#419);
#417=CARTESIAN_POINT('',(0.0,0.0,0.0));
#418=DIRECTION('',(0.0,0.0,1.0));
#419=DIRECTION('',(1.0,0.0,0.0));
#420=AXIS2_PLACEMENT_3D('CIP',#421,#422,#423);
#421=CARTESIAN_POINT('',(0.0,0.0,-85.0));
#422=DIRECTION('',(0.0,0.0,1.0));
#423=DIRECTION('',(1.0,0.0,0.0));
#424=AXIS2_PLACEMENT_3D('CRP',#425,#426,#427);
#425=CARTESIAN_POINT('',(-5.0,0.0,-85.0));
#426=DIRECTION('',(0.0,0.0,1.0));
#427=DIRECTION('',(1.0,0.0,0.0));
#428=AXIS2_PLACEMENT_3D('MCS',#429,#430,#431);
#429=CARTESIAN_POINT('',(0.0,0.0,-45.0));
#430=DIRECTION('',(0.0,0.0,1.0));
#431=DIRECTION('',(1.0,0.0,0.0));
#432=CONSTRUCTIVE_GEOMETRY_REPRESENTATION_RELATIONSHIP('coordinate systems',$,#45,#433);
#433=CONSTRUCTIVE_GEOMETRY_REPRESENTATION('coordinate systems',(#416,#420,#424,#428),#6);
ENDSEC;
END-ISO-10303-21;
