ISO-10303-21;
HEADER;
FILE_DESCRIPTION(('no description'),'unknown implementation level');
FILE_NAME('solidm8pAzWCxTjtRZqvp5EET9VwfWy4_1.STP','  ',('CIMSOURCE GmbH'),('CADClick - KiM GmbH - www.kimweb.de'),'unknown preprocess','ACIS','unknown authorization');
FILE_SCHEMA(('automotive_design'));
ENDSEC;
DATA;
#1=MECHANICAL_DESIGN_GEOMETRIC_PRESENTATION_REPRESENTATION(' ',(#10,#11,#12,#13,#14,#15,#16,#17,#18,#19,#20,#21,#22,#23,#24,#25,#26,#27,#28,#29,#30,#31,#32,#33,#34,#35,#36,#37,#38,#39,#40),#6);
#2=PRODUCT_DEFINITION_CONTEXT('',#41,'design');
#3=APPLICATION_PROTOCOL_DEFINITION('INTERNATIONAL STANDARD','automotive_design',1994,#41);
#4=PRODUCT_CATEGORY_RELATIONSHIP('NONE','NONE',#42,#43);
#5=SHAPE_DEFINITION_REPRESENTATION(#44,#45);
#6= (GEOMETRIC_REPRESENTATION_CONTEXT(3)GLOBAL_UNCERTAINTY_ASSIGNED_CONTEXT((#48))GLOBAL_UNIT_ASSIGNED_CONTEXT((#50,#51,#52))REPRESENTATION_CONTEXT('NONE','WORKSPACE'));
#10=STYLED_ITEM('',(#54),#55);
#11=STYLED_ITEM('',(#56),#57);
#12=STYLED_ITEM('',(#58),#59);
#13=STYLED_ITEM('',(#60),#61);
#14=STYLED_ITEM('',(#62),#63);
#15=STYLED_ITEM('',(#64),#65);
#16=STYLED_ITEM('',(#66),#67);
#17=STYLED_ITEM('',(#68),#69);
#18=STYLED_ITEM('',(#70),#71);
#19=STYLED_ITEM('',(#72),#73);
#20=STYLED_ITEM('',(#74),#75);
#21=STYLED_ITEM('',(#76),#77);
#22=STYLED_ITEM('',(#78),#79);
#23=STYLED_ITEM('',(#80),#81);
#24=STYLED_ITEM('',(#82),#83);
#25=STYLED_ITEM('',(#84),#85);
#26=STYLED_ITEM('',(#86),#87);
#27=STYLED_ITEM('',(#88),#89);
#28=STYLED_ITEM('',(#90),#91);
#29=STYLED_ITEM('',(#92),#93);
#30=STYLED_ITEM('',(#94),#95);
#31=STYLED_ITEM('',(#96),#97);
#32=STYLED_ITEM('',(#98),#99);
#33=STYLED_ITEM('',(#100),#101);
#34=STYLED_ITEM('',(#102),#103);
#35=STYLED_ITEM('',(#104),#105);
#36=STYLED_ITEM('',(#106),#107);
#37=STYLED_ITEM('',(#108),#109);
#38=STYLED_ITEM('',(#110),#111);
#39=STYLED_ITEM('',(#112),#113);
#40=STYLED_ITEM('',(#114),#115);
#41=APPLICATION_CONTEXT(' ');
#42=PRODUCT_CATEGORY('part','NONE');
#43=PRODUCT_RELATED_PRODUCT_CATEGORY('detail',' ',(#116));
#44=PRODUCT_DEFINITION_SHAPE('NONE','NONE',#117);
#45=ADVANCED_BREP_SHAPE_REPRESENTATION('1',(#99,#118),#6);
#48=UNCERTAINTY_MEASURE_WITH_UNIT(LENGTH_MEASURE(1.0E-006),#50,'','');
#50= (CONVERSION_BASED_UNIT('MILLIMETRE',#121)LENGTH_UNIT()NAMED_UNIT(#124));
#51= (NAMED_UNIT(#126)PLANE_ANGLE_UNIT()SI_UNIT($,.RADIAN.));
#52= (NAMED_UNIT(#126)SOLID_ANGLE_UNIT()SI_UNIT($,.STERADIAN.));
#54=PRESENTATION_STYLE_ASSIGNMENT((#132));
#55=ADVANCED_FACE('',(#133),#134,.T.);
#56=PRESENTATION_STYLE_ASSIGNMENT((#135));
#57=ADVANCED_FACE('',(#136),#137,.T.);
#58=PRESENTATION_STYLE_ASSIGNMENT((#138));
#59=EDGE_CURVE('',#69,#111,#139,.T.);
#60=PRESENTATION_STYLE_ASSIGNMENT((#140));
#61=EDGE_CURVE('',#71,#107,#141,.T.);
#62=PRESENTATION_STYLE_ASSIGNMENT((#142));
#63=ADVANCED_FACE('',(#143),#144,.T.);
#64=PRESENTATION_STYLE_ASSIGNMENT((#145));
#65=EDGE_CURVE('',#97,#111,#146,.T.);
#66=PRESENTATION_STYLE_ASSIGNMENT((#147));
#67=EDGE_CURVE('',#71,#79,#148,.T.);
#68=PRESENTATION_STYLE_ASSIGNMENT((#149));
#69=VERTEX_POINT('',#150);
#70=PRESENTATION_STYLE_ASSIGNMENT((#151));
#71=VERTEX_POINT('',#152);
#72=PRESENTATION_STYLE_ASSIGNMENT((#153));
#73=ADVANCED_FACE('',(#154),#155,.T.);
#74=PRESENTATION_STYLE_ASSIGNMENT((#156));
#75=VERTEX_POINT('',#157);
#76=PRESENTATION_STYLE_ASSIGNMENT((#158));
#77=ADVANCED_FACE('',(#159),#160,.T.);
#78=PRESENTATION_STYLE_ASSIGNMENT((#161));
#79=VERTEX_POINT('',#162);
#80=PRESENTATION_STYLE_ASSIGNMENT((#163));
#81=EDGE_CURVE('',#97,#89,#164,.T.);
#82=PRESENTATION_STYLE_ASSIGNMENT((#165));
#83=EDGE_CURVE('',#79,#75,#166,.T.);
#84=PRESENTATION_STYLE_ASSIGNMENT((#167));
#85=EDGE_CURVE('',#89,#71,#168,.T.);
#86=PRESENTATION_STYLE_ASSIGNMENT((#169));
#87=ADVANCED_FACE('',(#170),#171,.T.);
#88=PRESENTATION_STYLE_ASSIGNMENT((#172));
#89=VERTEX_POINT('',#173);
#90=PRESENTATION_STYLE_ASSIGNMENT((#174));
#91=EDGE_CURVE('',#89,#69,#175,.T.);
#92=PRESENTATION_STYLE_ASSIGNMENT((#176));
#93=ADVANCED_FACE('',(#177),#178,.T.);
#94=PRESENTATION_STYLE_ASSIGNMENT((#179));
#95=EDGE_CURVE('',#69,#89,#180,.T.);
#96=PRESENTATION_STYLE_ASSIGNMENT((#181));
#97=VERTEX_POINT('',#182);
#98=PRESENTATION_STYLE_ASSIGNMENT((#183));
#99=MANIFOLD_SOLID_BREP('1',#184);
#100=PRESENTATION_STYLE_ASSIGNMENT((#185));
#101=ADVANCED_FACE('',(#186),#187,.T.);
#102=PRESENTATION_STYLE_ASSIGNMENT((#188));
#103=EDGE_CURVE('',#75,#107,#189,.T.);
#104=PRESENTATION_STYLE_ASSIGNMENT((#190));
#105=EDGE_CURVE('',#75,#79,#191,.T.);
#106=PRESENTATION_STYLE_ASSIGNMENT((#192));
#107=VERTEX_POINT('',#193);
#108=PRESENTATION_STYLE_ASSIGNMENT((#194));
#109=EDGE_CURVE('',#107,#69,#195,.T.);
#110=PRESENTATION_STYLE_ASSIGNMENT((#196));
#111=VERTEX_POINT('',#197);
#112=PRESENTATION_STYLE_ASSIGNMENT((#198));
#113=EDGE_CURVE('',#111,#97,#199,.T.);
#114=PRESENTATION_STYLE_ASSIGNMENT((#200));
#115=EDGE_CURVE('',#107,#71,#201,.T.);
#116=PRODUCT('1','1','PART-1-DESC',(#202));
#117=PRODUCT_DEFINITION('NONE','NONE',#203,#2);
#118=AXIS2_PLACEMENT_3D('',#204,#205,#206);
#121=LENGTH_MEASURE_WITH_UNIT(LENGTH_MEASURE(1.0),#207);
#124=DIMENSIONAL_EXPONENTS(1.0,0.0,0.0,0.0,0.0,0.0,0.0);
#126=DIMENSIONAL_EXPONENTS(0.0,0.0,0.0,0.0,0.0,0.0,0.0);
#132=SURFACE_STYLE_USAGE(.BOTH.,#208);
#133=FACE_OUTER_BOUND('',#209,.T.);
#134=CONICAL_SURFACE('',#210,4.386854015,1.0471975511966);
#135=SURFACE_STYLE_USAGE(.BOTH.,#211);
#136=FACE_OUTER_BOUND('',#212,.T.);
#137=CONICAL_SURFACE('',#213,4.386854015,1.0471975511966);
#138=CURVE_STYLE('',#214,POSITIVE_LENGTH_MEASURE(1.0E-006),#215);
#139=LINE('',#216,#217);
#140=CURVE_STYLE('',#218,POSITIVE_LENGTH_MEASURE(1.0E-006),#219);
#141=CIRCLE('',#220,5.0);
#142=SURFACE_STYLE_USAGE(.BOTH.,#221);
#143=FACE_OUTER_BOUND('',#222,.T.);
#144=PLANE('',#223);
#145=CURVE_STYLE('',#224,POSITIVE_LENGTH_MEASURE(1.0E-006),#225);
#146=CIRCLE('',#226,3.77370803);
#147=CURVE_STYLE('',#227,POSITIVE_LENGTH_MEASURE(1.0E-006),#228);
#148=LINE('',#229,#230);
#149=POINT_STYLE(' ',#231,POSITIVE_LENGTH_MEASURE(1.0E-006),#232);
#150=CARTESIAN_POINT('',(0.0,5.0,-84.2920000010154));
#151=POINT_STYLE(' ',#233,POSITIVE_LENGTH_MEASURE(1.0E-006),#234);
#152=CARTESIAN_POINT('',(6.12303176911189E-016,-5.0,-0.5));
#153=SURFACE_STYLE_USAGE(.BOTH.,#235);
#154=FACE_OUTER_BOUND('',#236,.T.);
#155=CYLINDRICAL_SURFACE('',#237,5.0);
#156=POINT_STYLE(' ',#238,POSITIVE_LENGTH_MEASURE(1.0E-006),#239);
#157=CARTESIAN_POINT('',(0.0,4.5,0.0));
#158=SURFACE_STYLE_USAGE(.BOTH.,#240);
#159=FACE_OUTER_BOUND('',#241,.T.);
#160=PLANE('',#242);
#161=POINT_STYLE(' ',#243,POSITIVE_LENGTH_MEASURE(1.0E-006),#244);
#162=CARTESIAN_POINT('',(5.5107285922007E-016,-4.5,0.0));
#163=CURVE_STYLE('',#245,POSITIVE_LENGTH_MEASURE(1.0E-006),#246);
#164=LINE('',#247,#248);
#165=CURVE_STYLE('',#249,POSITIVE_LENGTH_MEASURE(1.0E-006),#250);
#166=CIRCLE('',#251,4.5);
#167=CURVE_STYLE('',#252,POSITIVE_LENGTH_MEASURE(1.0E-006),#253);
#168=LINE('',#254,#255);
#169=SURFACE_STYLE_USAGE(.BOTH.,#256);
#170=FACE_OUTER_BOUND('',#257,.T.);
#171=CONICAL_SURFACE('',#258,4.75,0.785398163397448);
#172=POINT_STYLE(' ',#259,POSITIVE_LENGTH_MEASURE(1.0E-006),#260);
#173=CARTESIAN_POINT('',(6.12303176911189E-016,-5.0,-84.2920000010154));
#174=CURVE_STYLE('',#261,POSITIVE_LENGTH_MEASURE(1.0E-006),#262);
#175=CIRCLE('',#263,5.0);
#176=SURFACE_STYLE_USAGE(.BOTH.,#264);
#177=FACE_OUTER_BOUND('',#265,.T.);
#178=CONICAL_SURFACE('',#266,4.75,0.785398163397448);
#179=CURVE_STYLE('',#267,POSITIVE_LENGTH_MEASURE(1.0E-006),#268);
#180=CIRCLE('',#269,5.0);
#181=POINT_STYLE(' ',#270,POSITIVE_LENGTH_MEASURE(1.0E-006),#271);
#182=CARTESIAN_POINT('',(4.62130683100853E-016,-3.77370803,-85.0));
#183=SURFACE_STYLE_USAGE(.BOTH.,#272);
#184=CLOSED_SHELL('',(#101,#87,#55,#57,#63,#93,#73,#77));
#185=SURFACE_STYLE_USAGE(.BOTH.,#273);
#186=FACE_OUTER_BOUND('',#274,.T.);
#187=CYLINDRICAL_SURFACE('',#275,5.0);
#188=CURVE_STYLE('',#276,POSITIVE_LENGTH_MEASURE(1.0E-006),#277);
#189=LINE('',#278,#279);
#190=CURVE_STYLE('',#280,POSITIVE_LENGTH_MEASURE(1.0E-006),#281);
#191=CIRCLE('',#282,4.5);
#192=POINT_STYLE(' ',#283,POSITIVE_LENGTH_MEASURE(1.0E-006),#284);
#193=CARTESIAN_POINT('',(0.0,5.0,-0.5));
#194=CURVE_STYLE('',#285,POSITIVE_LENGTH_MEASURE(1.0E-006),#286);
#195=LINE('',#287,#288);
#196=POINT_STYLE(' ',#289,POSITIVE_LENGTH_MEASURE(1.0E-006),#290);
#197=CARTESIAN_POINT('',(0.0,3.77370803,-85.0));
#198=CURVE_STYLE('',#291,POSITIVE_LENGTH_MEASURE(1.0E-006),#292);
#199=CIRCLE('',#293,3.77370803);
#200=CURVE_STYLE('',#294,POSITIVE_LENGTH_MEASURE(1.0E-006),#295);
#201=CIRCLE('',#296,5.0);
#202=PRODUCT_CONTEXT('',#41,'mechanical');
#203=PRODUCT_DEFINITION_FORMATION_WITH_SPECIFIED_SOURCE(' ','NONE',#116,.NOT_KNOWN.);
#204=CARTESIAN_POINT('',(0.0,0.0,0.0));
#205=DIRECTION('',(0.0,0.0,1.0));
#206=DIRECTION('',(1.0,0.0,0.0));
#207= (NAMED_UNIT(#124)LENGTH_UNIT()SI_UNIT(.MILLI.,.METRE.));
#208=SURFACE_SIDE_STYLE('',(#298));
#209=EDGE_LOOP('',(#299,#300,#301,#302));
#210=AXIS2_PLACEMENT_3D('',#303,#304,#305);
#211=SURFACE_SIDE_STYLE('',(#306));
#212=EDGE_LOOP('',(#307,#308,#309,#310));
#213=AXIS2_PLACEMENT_3D('',#311,#312,#313);
#214=DRAUGHTING_PRE_DEFINED_CURVE_FONT('continuous');
#215=COLOUR_RGB('',0.800000011920929,0.800000011920929,0.800000011920929);
#216=CARTESIAN_POINT('',(-5.37216930006021E-016,4.386854015,-84.6460000005077));
#217=VECTOR('',#314,1.0);
#218=DRAUGHTING_PRE_DEFINED_CURVE_FONT('continuous');
#219=COLOUR_RGB('',0.498039215803146,0.498039215803146,0.498039215803146);
#220=AXIS2_PLACEMENT_3D('',#315,#316,#317);
#221=SURFACE_SIDE_STYLE('',(#318));
#222=EDGE_LOOP('',(#319,#320));
#223=AXIS2_PLACEMENT_3D('',#321,#322,#323);
#224=DRAUGHTING_PRE_DEFINED_CURVE_FONT('continuous');
#225=COLOUR_RGB('',0.498039215803146,0.498039215803146,0.498039215803146);
#226=AXIS2_PLACEMENT_3D('',#324,#325,#326);
#227=DRAUGHTING_PRE_DEFINED_CURVE_FONT('continuous');
#228=COLOUR_RGB('',0.498039215803146,0.498039215803146,0.498039215803146);
#229=CARTESIAN_POINT('',(5.81688018065629E-016,-4.75,-0.25));
#230=VECTOR('',#327,1.0);
#231=PRE_DEFINED_MARKER('');
#232=COLOUR_RGB('',0.800000011920929,0.800000011920929,0.800000011920929);
#233=PRE_DEFINED_MARKER('');
#234=COLOUR_RGB('',0.498039215803146,0.498039215803146,0.498039215803146);
#235=SURFACE_SIDE_STYLE('',(#328));
#236=EDGE_LOOP('',(#329,#330,#331,#332));
#237=AXIS2_PLACEMENT_3D('',#333,#334,#335);
#238=PRE_DEFINED_MARKER('');
#239=COLOUR_RGB('',0.498039215803146,0.498039215803146,0.498039215803146);
#240=SURFACE_SIDE_STYLE('',(#336));
#241=EDGE_LOOP('',(#337,#338));
#242=AXIS2_PLACEMENT_3D('',#339,#340,#341);
#243=PRE_DEFINED_MARKER('');
#244=COLOUR_RGB('',0.498039215803146,0.498039215803146,0.498039215803146);
#245=DRAUGHTING_PRE_DEFINED_CURVE_FONT('continuous');
#246=COLOUR_RGB('',0.800000011920929,0.800000011920929,0.800000011920929);
#247=CARTESIAN_POINT('',(5.37216930006021E-016,-4.386854015,-84.6460000005077));
#248=VECTOR('',#342,1.0);
#249=DRAUGHTING_PRE_DEFINED_CURVE_FONT('continuous');
#250=COLOUR_RGB('',0.498039215803146,0.498039215803146,0.498039215803146);
#251=AXIS2_PLACEMENT_3D('',#343,#344,#345);
#252=DRAUGHTING_PRE_DEFINED_CURVE_FONT('continuous');
#253=COLOUR_RGB('',0.498039215803146,0.498039215803146,0.498039215803146);
#254=CARTESIAN_POINT('',(6.12303176911189E-016,-5.0,-22.75));
#255=VECTOR('',#346,1.0);
#256=SURFACE_SIDE_STYLE('',(#347));
#257=EDGE_LOOP('',(#348,#349,#350,#351));
#258=AXIS2_PLACEMENT_3D('',#352,#353,#354);
#259=PRE_DEFINED_MARKER('');
#260=COLOUR_RGB('',0.800000011920929,0.800000011920929,0.800000011920929);
#261=DRAUGHTING_PRE_DEFINED_CURVE_FONT('continuous');
#262=COLOUR_RGB('',0.800000011920929,0.800000011920929,0.800000011920929);
#263=AXIS2_PLACEMENT_3D('',#355,#356,#357);
#264=SURFACE_SIDE_STYLE('',(#358));
#265=EDGE_LOOP('',(#359,#360,#361,#362));
#266=AXIS2_PLACEMENT_3D('',#363,#364,#365);
#267=DRAUGHTING_PRE_DEFINED_CURVE_FONT('continuous');
#268=COLOUR_RGB('',0.800000011920929,0.800000011920929,0.800000011920929);
#269=AXIS2_PLACEMENT_3D('',#366,#367,#368);
#270=PRE_DEFINED_MARKER('');
#271=COLOUR_RGB('',0.498039215803146,0.498039215803146,0.498039215803146);
#272=SURFACE_SIDE_STYLE('',(#369));
#273=SURFACE_SIDE_STYLE('',(#370));
#274=EDGE_LOOP('',(#371,#372,#373,#374));
#275=AXIS2_PLACEMENT_3D('',#375,#376,#377);
#276=DRAUGHTING_PRE_DEFINED_CURVE_FONT('continuous');
#277=COLOUR_RGB('',0.498039215803146,0.498039215803146,0.498039215803146);
#278=CARTESIAN_POINT('',(-5.81688018065629E-016,4.75,-0.25));
#279=VECTOR('',#378,1.0);
#280=DRAUGHTING_PRE_DEFINED_CURVE_FONT('continuous');
#281=COLOUR_RGB('',0.498039215803146,0.498039215803146,0.498039215803146);
#282=AXIS2_PLACEMENT_3D('',#379,#380,#381);
#283=PRE_DEFINED_MARKER('');
#284=COLOUR_RGB('',0.498039215803146,0.498039215803146,0.498039215803146);
#285=DRAUGHTING_PRE_DEFINED_CURVE_FONT('continuous');
#286=COLOUR_RGB('',0.498039215803146,0.498039215803146,0.498039215803146);
#287=CARTESIAN_POINT('',(-6.12303176911189E-016,5.0,-22.75));
#288=VECTOR('',#382,1.0);
#289=PRE_DEFINED_MARKER('');
#290=COLOUR_RGB('',0.498039215803146,0.498039215803146,0.498039215803146);
#291=DRAUGHTING_PRE_DEFINED_CURVE_FONT('continuous');
#292=COLOUR_RGB('',0.498039215803146,0.498039215803146,0.498039215803146);
#293=AXIS2_PLACEMENT_3D('',#383,#384,#385);
#294=DRAUGHTING_PRE_DEFINED_CURVE_FONT('continuous');
#295=COLOUR_RGB('',0.498039215803146,0.498039215803146,0.498039215803146);
#296=AXIS2_PLACEMENT_3D('',#386,#387,#388);
#298=SURFACE_STYLE_FILL_AREA(#389);
#299=ORIENTED_EDGE('',*,*,#59,.F.);
#300=ORIENTED_EDGE('',*,*,#95,.T.);
#301=ORIENTED_EDGE('',*,*,#81,.F.);
#302=ORIENTED_EDGE('',*,*,#113,.F.);
#303=CARTESIAN_POINT('',(0.0,0.0,-84.6460000005077));
#304=DIRECTION('',(-0.0,-0.0,1.0));
#305=DIRECTION('',(0.0,1.0,0.0));
#306=SURFACE_STYLE_FILL_AREA(#390);
#307=ORIENTED_EDGE('',*,*,#59,.T.);
#308=ORIENTED_EDGE('',*,*,#65,.F.);
#309=ORIENTED_EDGE('',*,*,#81,.T.);
#310=ORIENTED_EDGE('',*,*,#91,.T.);
#311=CARTESIAN_POINT('',(0.0,0.0,-84.6460000005077));
#312=DIRECTION('',(-0.0,-0.0,1.0));
#313=DIRECTION('',(0.0,1.0,0.0));
#314=DIRECTION('',(1.06054021204601E-016,-0.866025403784439,-0.5));
#315=CARTESIAN_POINT('',(0.0,0.0,-0.5));
#316=DIRECTION('',(0.0,0.0,-1.0));
#317=DIRECTION('',(0.0,1.0,0.0));
#318=SURFACE_STYLE_FILL_AREA(#391);
#319=ORIENTED_EDGE('',*,*,#105,.F.);
#320=ORIENTED_EDGE('',*,*,#83,.F.);
#321=CARTESIAN_POINT('',(0.0,2.25,0.0));
#322=DIRECTION('',(-0.0,0.0,1.0));
#323=DIRECTION('',(0.0,-1.0,0.0));
#324=CARTESIAN_POINT('',(0.0,0.0,-85.0));
#325=DIRECTION('',(0.0,0.0,-1.0));
#326=DIRECTION('',(0.0,1.0,0.0));
#327=DIRECTION('',(-8.65927457071936E-017,0.707106781186548,0.707106781186548));
#328=SURFACE_STYLE_FILL_AREA(#392);
#329=ORIENTED_EDGE('',*,*,#109,.T.);
#330=ORIENTED_EDGE('',*,*,#91,.F.);
#331=ORIENTED_EDGE('',*,*,#85,.T.);
#332=ORIENTED_EDGE('',*,*,#61,.T.);
#333=CARTESIAN_POINT('',(0.0,0.0,-22.75));
#334=DIRECTION('',(-0.0,-0.0,1.0));
#335=DIRECTION('',(0.0,1.0,0.0));
#336=SURFACE_STYLE_FILL_AREA(#393);
#337=ORIENTED_EDGE('',*,*,#113,.T.);
#338=ORIENTED_EDGE('',*,*,#65,.T.);
#339=CARTESIAN_POINT('',(0.0,1.886854015,-85.0));
#340=DIRECTION('',(0.0,0.0,-1.0));
#341=DIRECTION('',(0.0,1.0,0.0));
#342=DIRECTION('',(1.06054021204601E-016,-0.866025403784439,0.5));
#343=CARTESIAN_POINT('',(0.0,0.0,0.0));
#344=DIRECTION('',(0.0,0.0,-1.0));
#345=DIRECTION('',(0.0,1.0,0.0));
#346=DIRECTION('',(-0.0,-0.0,1.0));
#347=SURFACE_STYLE_FILL_AREA(#394);
#348=ORIENTED_EDGE('',*,*,#103,.F.);
#349=ORIENTED_EDGE('',*,*,#105,.T.);
#350=ORIENTED_EDGE('',*,*,#67,.F.);
#351=ORIENTED_EDGE('',*,*,#115,.F.);
#352=CARTESIAN_POINT('',(0.0,0.0,-0.25));
#353=DIRECTION('',(0.0,-0.0,-1.0));
#354=DIRECTION('',(0.0,1.0,0.0));
#355=CARTESIAN_POINT('',(0.0,0.0,-84.2920000010154));
#356=DIRECTION('',(0.0,0.0,-1.0));
#357=DIRECTION('',(0.0,1.0,0.0));
#358=SURFACE_STYLE_FILL_AREA(#395);
#359=ORIENTED_EDGE('',*,*,#103,.T.);
#360=ORIENTED_EDGE('',*,*,#61,.F.);
#361=ORIENTED_EDGE('',*,*,#67,.T.);
#362=ORIENTED_EDGE('',*,*,#83,.T.);
#363=CARTESIAN_POINT('',(0.0,0.0,-0.25));
#364=DIRECTION('',(0.0,-0.0,-1.0));
#365=DIRECTION('',(0.0,1.0,0.0));
#366=CARTESIAN_POINT('',(0.0,0.0,-84.2920000010154));
#367=DIRECTION('',(0.0,0.0,-1.0));
#368=DIRECTION('',(0.0,1.0,0.0));
#369=SURFACE_STYLE_FILL_AREA(#396);
#370=SURFACE_STYLE_FILL_AREA(#397);
#371=ORIENTED_EDGE('',*,*,#109,.F.);
#372=ORIENTED_EDGE('',*,*,#115,.T.);
#373=ORIENTED_EDGE('',*,*,#85,.F.);
#374=ORIENTED_EDGE('',*,*,#95,.F.);
#375=CARTESIAN_POINT('',(0.0,0.0,-22.75));
#376=DIRECTION('',(-0.0,-0.0,1.0));
#377=DIRECTION('',(0.0,1.0,0.0));
#378=DIRECTION('',(-8.65927457071936E-017,0.707106781186548,-0.707106781186548));
#379=CARTESIAN_POINT('',(0.0,0.0,0.0));
#380=DIRECTION('',(0.0,0.0,-1.0));
#381=DIRECTION('',(0.0,1.0,0.0));
#382=DIRECTION('',(0.0,0.0,-1.0));
#383=CARTESIAN_POINT('',(0.0,0.0,-85.0));
#384=DIRECTION('',(0.0,0.0,-1.0));
#385=DIRECTION('',(0.0,1.0,0.0));
#386=CARTESIAN_POINT('',(0.0,0.0,-0.5));
#387=DIRECTION('',(0.0,0.0,-1.0));
#388=DIRECTION('',(0.0,1.0,0.0));
#389=FILL_AREA_STYLE('',(#398));
#390=FILL_AREA_STYLE('',(#399));
#391=FILL_AREA_STYLE('',(#400));
#392=FILL_AREA_STYLE('',(#401));
#393=FILL_AREA_STYLE('',(#402));
#394=FILL_AREA_STYLE('',(#403));
#395=FILL_AREA_STYLE('',(#404));
#396=FILL_AREA_STYLE('',(#405));
#397=FILL_AREA_STYLE('',(#406));
#398=FILL_AREA_STYLE_COLOUR('',#407);
#399=FILL_AREA_STYLE_COLOUR('',#408);
#400=FILL_AREA_STYLE_COLOUR('',#409);
#401=FILL_AREA_STYLE_COLOUR('',#410);
#402=FILL_AREA_STYLE_COLOUR('',#411);
#403=FILL_AREA_STYLE_COLOUR('',#412);
#404=FILL_AREA_STYLE_COLOUR('',#413);
#405=FILL_AREA_STYLE_COLOUR('',#414);
#406=FILL_AREA_STYLE_COLOUR('',#415);
#407=COLOUR_RGB('',0.800000011920929,0.800000011920929,0.800000011920929);
#408=COLOUR_RGB('',0.800000011920929,0.800000011920929,0.800000011920929);
#409=COLOUR_RGB('',0.498039215803146,0.498039215803146,0.498039215803146);
#410=COLOUR_RGB('',0.498039215803146,0.498039215803146,0.498039215803146);
#411=COLOUR_RGB('',0.498039215803146,0.498039215803146,0.498039215803146);
#412=COLOUR_RGB('',0.498039215803146,0.498039215803146,0.498039215803146);
#413=COLOUR_RGB('',0.498039215803146,0.498039215803146,0.498039215803146);
#414=COLOUR_RGB('',0.498039215803146,0.498039215803146,0.498039215803146);
#415=COLOUR_RGB('',0.498039215803146,0.498039215803146,0.498039215803146);
#416=AXIS2_PLACEMENT_3D('PCS',#417,#418,#419);
#417=CARTESIAN_POINT('',(0.0,0.0,0.0));
#418=DIRECTION('',(0.0,0.0,1.0));
#419=DIRECTION('',(1.0,0.0,0.0));
#420=AXIS2_PLACEMENT_3D('CIP',#421,#422,#423);
#421=CARTESIAN_POINT('',(0.0,0.0,-85.0));
#422=DIRECTION('',(0.0,0.0,1.0));
#423=DIRECTION('',(1.0,0.0,0.0));
#424=AXIS2_PLACEMENT_3D('CRP',#425,#426,#427);
#425=CARTESIAN_POINT('',(-5.0,0.0,-85.0));
#426=DIRECTION('',(0.0,0.0,1.0));
#427=DIRECTION('',(1.0,0.0,0.0));
#428=AXIS2_PLACEMENT_3D('MCS',#429,#430,#431);
#429=CARTESIAN_POINT('',(0.0,0.0,-45.0));
#430=DIRECTION('',(0.0,0.0,1.0));
#431=DIRECTION('',(1.0,0.0,0.0));
#432=CONSTRUCTIVE_GEOMETRY_REPRESENTATION_RELATIONSHIP('coordinate systems',$,#45,#433);
#433=CONSTRUCTIVE_GEOMETRY_REPRESENTATION('coordinate systems',(#416,#420,#424,#428),#6);
ENDSEC;
END-ISO-10303-21;
