ISO-10303-21;
HEADER;
FILE_DESCRIPTION(('no description'),'unknown implementation level');
FILE_NAME('solidlloU9FTiRYdklqd8QlrjD2XSsFQ_1.STP','  ',('CIMSOURCE GmbH'),('CADClick - KiM GmbH - www.kimweb.de'),'unknown preprocess','ACIS','unknown authorization');
FILE_SCHEMA(('automotive_design'));
ENDSEC;
DATA;
#1=MECHANICAL_DESIGN_GEOMETRIC_PRESENTATION_REPRESENTATION(' ',(#10,#11,#12,#13,#14,#15,#16,#17,#18,#19,#20,#21,#22,#23,#24,#25,#26,#27,#28,#29,#30,#31,#32,#33,#34,#35,#36,#37,#38,#39,#40),#6);
#2=PRODUCT_DEFINITION_CONTEXT('',#41,'design');
#3=APPLICATION_PROTOCOL_DEFINITION('INTERNATIONAL STANDARD','automotive_design',1994,#41);
#4=PRODUCT_CATEGORY_RELATIONSHIP('NONE','NONE',#42,#43);
#5=SHAPE_DEFINITION_REPRESENTATION(#44,#45);
#6= (GEOMETRIC_REPRESENTATION_CONTEXT(3)GLOBAL_UNCERTAINTY_ASSIGNED_CONTEXT((#48))GLOBAL_UNIT_ASSIGNED_CONTEXT((#50,#51,#52))REPRESENTATION_CONTEXT('NONE','WORKSPACE'));
#10=STYLED_ITEM('',(#54),#55);
#11=STYLED_ITEM('',(#56),#57);
#12=STYLED_ITEM('',(#58),#59);
#13=STYLED_ITEM('',(#60),#61);
#14=STYLED_ITEM('',(#62),#63);
#15=STYLED_ITEM('',(#64),#65);
#16=STYLED_ITEM('',(#66),#67);
#17=STYLED_ITEM('',(#68),#69);
#18=STYLED_ITEM('',(#70),#71);
#19=STYLED_ITEM('',(#72),#73);
#20=STYLED_ITEM('',(#74),#75);
#21=STYLED_ITEM('',(#76),#77);
#22=STYLED_ITEM('',(#78),#79);
#23=STYLED_ITEM('',(#80),#81);
#24=STYLED_ITEM('',(#82),#83);
#25=STYLED_ITEM('',(#84),#85);
#26=STYLED_ITEM('',(#86),#87);
#27=STYLED_ITEM('',(#88),#89);
#28=STYLED_ITEM('',(#90),#91);
#29=STYLED_ITEM('',(#92),#93);
#30=STYLED_ITEM('',(#94),#95);
#31=STYLED_ITEM('',(#96),#97);
#32=STYLED_ITEM('',(#98),#99);
#33=STYLED_ITEM('',(#100),#101);
#34=STYLED_ITEM('',(#102),#103);
#35=STYLED_ITEM('',(#104),#105);
#36=STYLED_ITEM('',(#106),#107);
#37=STYLED_ITEM('',(#108),#109);
#38=STYLED_ITEM('',(#110),#111);
#39=STYLED_ITEM('',(#112),#113);
#40=STYLED_ITEM('',(#114),#115);
#41=APPLICATION_CONTEXT(' ');
#42=PRODUCT_CATEGORY('part','NONE');
#43=PRODUCT_RELATED_PRODUCT_CATEGORY('detail',' ',(#116));
#44=PRODUCT_DEFINITION_SHAPE('NONE','NONE',#117);
#45=ADVANCED_BREP_SHAPE_REPRESENTATION('1',(#93,#118),#6);
#48=UNCERTAINTY_MEASURE_WITH_UNIT(LENGTH_MEASURE(1.0E-006),#50,'','');
#50= (CONVERSION_BASED_UNIT('MILLIMETRE',#121)LENGTH_UNIT()NAMED_UNIT(#124));
#51= (NAMED_UNIT(#126)PLANE_ANGLE_UNIT()SI_UNIT($,.RADIAN.));
#52= (NAMED_UNIT(#126)SOLID_ANGLE_UNIT()SI_UNIT($,.STERADIAN.));
#54=PRESENTATION_STYLE_ASSIGNMENT((#132));
#55=ADVANCED_FACE('',(#133),#134,.T.);
#56=PRESENTATION_STYLE_ASSIGNMENT((#135));
#57=EDGE_CURVE('',#107,#95,#136,.T.);
#58=PRESENTATION_STYLE_ASSIGNMENT((#137));
#59=ADVANCED_FACE('',(#138),#139,.T.);
#60=PRESENTATION_STYLE_ASSIGNMENT((#140));
#61=ADVANCED_FACE('',(#141),#142,.T.);
#62=PRESENTATION_STYLE_ASSIGNMENT((#143));
#63=VERTEX_POINT('',#144);
#64=PRESENTATION_STYLE_ASSIGNMENT((#145));
#65=VERTEX_POINT('',#146);
#66=PRESENTATION_STYLE_ASSIGNMENT((#147));
#67=EDGE_CURVE('',#105,#69,#148,.T.);
#68=PRESENTATION_STYLE_ASSIGNMENT((#149));
#69=VERTEX_POINT('',#150);
#70=PRESENTATION_STYLE_ASSIGNMENT((#151));
#71=ADVANCED_FACE('',(#152),#153,.T.);
#72=PRESENTATION_STYLE_ASSIGNMENT((#154));
#73=ADVANCED_FACE('',(#155),#156,.T.);
#74=PRESENTATION_STYLE_ASSIGNMENT((#157));
#75=EDGE_CURVE('',#97,#69,#158,.T.);
#76=PRESENTATION_STYLE_ASSIGNMENT((#159));
#77=ADVANCED_FACE('',(#160),#161,.T.);
#78=PRESENTATION_STYLE_ASSIGNMENT((#162));
#79=EDGE_CURVE('',#69,#105,#163,.T.);
#80=PRESENTATION_STYLE_ASSIGNMENT((#164));
#81=EDGE_CURVE('',#109,#105,#165,.T.);
#82=PRESENTATION_STYLE_ASSIGNMENT((#166));
#83=ADVANCED_FACE('',(#167),#168,.T.);
#84=PRESENTATION_STYLE_ASSIGNMENT((#169));
#85=ADVANCED_FACE('',(#170),#171,.T.);
#86=PRESENTATION_STYLE_ASSIGNMENT((#172));
#87=EDGE_CURVE('',#107,#97,#173,.T.);
#88=PRESENTATION_STYLE_ASSIGNMENT((#174));
#89=EDGE_CURVE('',#69,#65,#175,.T.);
#90=PRESENTATION_STYLE_ASSIGNMENT((#176));
#91=EDGE_CURVE('',#63,#97,#177,.T.);
#92=PRESENTATION_STYLE_ASSIGNMENT((#178));
#93=MANIFOLD_SOLID_BREP('1',#179);
#94=PRESENTATION_STYLE_ASSIGNMENT((#180));
#95=VERTEX_POINT('',#181);
#96=PRESENTATION_STYLE_ASSIGNMENT((#182));
#97=VERTEX_POINT('',#183);
#98=PRESENTATION_STYLE_ASSIGNMENT((#184));
#99=EDGE_CURVE('',#105,#63,#185,.T.);
#100=PRESENTATION_STYLE_ASSIGNMENT((#186));
#101=EDGE_CURVE('',#95,#107,#187,.T.);
#102=PRESENTATION_STYLE_ASSIGNMENT((#188));
#103=EDGE_CURVE('',#109,#65,#189,.T.);
#104=PRESENTATION_STYLE_ASSIGNMENT((#190));
#105=VERTEX_POINT('',#191);
#106=PRESENTATION_STYLE_ASSIGNMENT((#192));
#107=VERTEX_POINT('',#193);
#108=PRESENTATION_STYLE_ASSIGNMENT((#194));
#109=VERTEX_POINT('',#195);
#110=PRESENTATION_STYLE_ASSIGNMENT((#196));
#111=EDGE_CURVE('',#65,#109,#197,.T.);
#112=PRESENTATION_STYLE_ASSIGNMENT((#198));
#113=EDGE_CURVE('',#63,#95,#199,.T.);
#114=PRESENTATION_STYLE_ASSIGNMENT((#200));
#115=EDGE_CURVE('',#97,#63,#201,.T.);
#116=PRODUCT('1','1','PART-1-DESC',(#202));
#117=PRODUCT_DEFINITION('NONE','NONE',#203,#2);
#118=AXIS2_PLACEMENT_3D('',#204,#205,#206);
#121=LENGTH_MEASURE_WITH_UNIT(LENGTH_MEASURE(1.0),#207);
#124=DIMENSIONAL_EXPONENTS(1.0,0.0,0.0,0.0,0.0,0.0,0.0);
#126=DIMENSIONAL_EXPONENTS(0.0,0.0,0.0,0.0,0.0,0.0,0.0);
#132=SURFACE_STYLE_USAGE(.BOTH.,#208);
#133=FACE_OUTER_BOUND('',#209,.T.);
#134=CYLINDRICAL_SURFACE('',#210,6.0);
#135=CURVE_STYLE('',#211,POSITIVE_LENGTH_MEASURE(1.0E-006),#212);
#136=CIRCLE('',#213,5.4);
#137=SURFACE_STYLE_USAGE(.BOTH.,#214);
#138=FACE_OUTER_BOUND('',#215,.T.);
#139=CONICAL_SURFACE('',#216,5.7,0.785398163397447);
#140=SURFACE_STYLE_USAGE(.BOTH.,#217);
#141=FACE_OUTER_BOUND('',#218,.T.);
#142=CONICAL_SURFACE('',#219,5.54014051,1.0471975511966);
#143=POINT_STYLE(' ',#220,POSITIVE_LENGTH_MEASURE(1.0E-006),#221);
#144=CARTESIAN_POINT('',(7.34763812293426E-016,-6.0,-0.600000000000001));
#145=POINT_STYLE(' ',#222,POSITIVE_LENGTH_MEASURE(1.0E-006),#223);
#146=CARTESIAN_POINT('',(0.0,5.08028102,-95.0));
#147=CURVE_STYLE('',#224,POSITIVE_LENGTH_MEASURE(1.0E-006),#225);
#148=CIRCLE('',#226,6.0);
#149=POINT_STYLE(' ',#227,POSITIVE_LENGTH_MEASURE(1.0E-006),#228);
#150=CARTESIAN_POINT('',(0.0,6.0,-94.4689999993182));
#151=SURFACE_STYLE_USAGE(.BOTH.,#229);
#152=FACE_OUTER_BOUND('',#230,.T.);
#153=PLANE('',#231);
#154=SURFACE_STYLE_USAGE(.BOTH.,#232);
#155=FACE_OUTER_BOUND('',#233,.T.);
#156=CONICAL_SURFACE('',#234,5.54014051,1.0471975511966);
#157=CURVE_STYLE('',#235,POSITIVE_LENGTH_MEASURE(1.0E-006),#236);
#158=LINE('',#237,#238);
#159=SURFACE_STYLE_USAGE(.BOTH.,#239);
#160=FACE_OUTER_BOUND('',#240,.T.);
#161=CONICAL_SURFACE('',#241,5.7,0.785398163397447);
#162=CURVE_STYLE('',#242,POSITIVE_LENGTH_MEASURE(1.0E-006),#243);
#163=CIRCLE('',#244,6.0);
#164=CURVE_STYLE('',#245,POSITIVE_LENGTH_MEASURE(1.0E-006),#246);
#165=LINE('',#247,#248);
#166=SURFACE_STYLE_USAGE(.BOTH.,#249);
#167=FACE_OUTER_BOUND('',#250,.T.);
#168=PLANE('',#251);
#169=SURFACE_STYLE_USAGE(.BOTH.,#252);
#170=FACE_OUTER_BOUND('',#253,.T.);
#171=CYLINDRICAL_SURFACE('',#254,6.0);
#172=CURVE_STYLE('',#255,POSITIVE_LENGTH_MEASURE(1.0E-006),#256);
#173=LINE('',#257,#258);
#174=CURVE_STYLE('',#259,POSITIVE_LENGTH_MEASURE(1.0E-006),#260);
#175=LINE('',#261,#262);
#176=CURVE_STYLE('',#263,POSITIVE_LENGTH_MEASURE(1.0E-006),#264);
#177=CIRCLE('',#265,6.0);
#178=SURFACE_STYLE_USAGE(.BOTH.,#266);
#179=CLOSED_SHELL('',(#55,#77,#73,#61,#83,#59,#85,#71));
#180=POINT_STYLE(' ',#267,POSITIVE_LENGTH_MEASURE(1.0E-006),#268);
#181=CARTESIAN_POINT('',(6.61287431064084E-016,-5.4,0.0));
#182=POINT_STYLE(' ',#269,POSITIVE_LENGTH_MEASURE(1.0E-006),#270);
#183=CARTESIAN_POINT('',(0.0,6.0,-0.600000000000001));
#184=CURVE_STYLE('',#271,POSITIVE_LENGTH_MEASURE(1.0E-006),#272);
#185=LINE('',#273,#274);
#186=CURVE_STYLE('',#275,POSITIVE_LENGTH_MEASURE(1.0E-006),#276);
#187=CIRCLE('',#277,5.4);
#188=CURVE_STYLE('',#278,POSITIVE_LENGTH_MEASURE(1.0E-006),#279);
#189=CIRCLE('',#280,5.08028102);
#190=POINT_STYLE(' ',#281,POSITIVE_LENGTH_MEASURE(1.0E-006),#282);
#191=CARTESIAN_POINT('',(7.34763812293426E-016,-6.0,-94.4689999993182));
#192=POINT_STYLE(' ',#283,POSITIVE_LENGTH_MEASURE(1.0E-006),#284);
#193=CARTESIAN_POINT('',(0.0,5.4,0.0));
#194=POINT_STYLE(' ',#285,POSITIVE_LENGTH_MEASURE(1.0E-006),#286);
#195=CARTESIAN_POINT('',(6.22134441629523E-016,-5.08028102,-95.0));
#196=CURVE_STYLE('',#287,POSITIVE_LENGTH_MEASURE(1.0E-006),#288);
#197=CIRCLE('',#289,5.08028102);
#198=CURVE_STYLE('',#290,POSITIVE_LENGTH_MEASURE(1.0E-006),#291);
#199=LINE('',#292,#293);
#200=CURVE_STYLE('',#294,POSITIVE_LENGTH_MEASURE(1.0E-006),#295);
#201=CIRCLE('',#296,6.0);
#202=PRODUCT_CONTEXT('',#41,'mechanical');
#203=PRODUCT_DEFINITION_FORMATION_WITH_SPECIFIED_SOURCE(' ','NONE',#116,.NOT_KNOWN.);
#204=CARTESIAN_POINT('',(0.0,0.0,0.0));
#205=DIRECTION('',(0.0,0.0,1.0));
#206=DIRECTION('',(1.0,0.0,0.0));
#207= (NAMED_UNIT(#124)LENGTH_UNIT()SI_UNIT(.MILLI.,.METRE.));
#208=SURFACE_SIDE_STYLE('',(#298));
#209=EDGE_LOOP('',(#299,#300,#301,#302));
#210=AXIS2_PLACEMENT_3D('',#303,#304,#305);
#211=DRAUGHTING_PRE_DEFINED_CURVE_FONT('continuous');
#212=COLOUR_RGB('',0.498039215803146,0.498039215803146,0.498039215803146);
#213=AXIS2_PLACEMENT_3D('',#306,#307,#308);
#214=SURFACE_SIDE_STYLE('',(#309));
#215=EDGE_LOOP('',(#310,#311,#312,#313));
#216=AXIS2_PLACEMENT_3D('',#314,#315,#316);
#217=SURFACE_SIDE_STYLE('',(#317));
#218=EDGE_LOOP('',(#318,#319,#320,#321));
#219=AXIS2_PLACEMENT_3D('',#322,#323,#324);
#220=PRE_DEFINED_MARKER('');
#221=COLOUR_RGB('',0.498039215803146,0.498039215803146,0.498039215803146);
#222=PRE_DEFINED_MARKER('');
#223=COLOUR_RGB('',0.498039215803146,0.498039215803146,0.498039215803146);
#224=DRAUGHTING_PRE_DEFINED_CURVE_FONT('continuous');
#225=COLOUR_RGB('',0.800000011920929,0.800000011920929,0.800000011920929);
#226=AXIS2_PLACEMENT_3D('',#325,#326,#327);
#227=PRE_DEFINED_MARKER('');
#228=COLOUR_RGB('',0.800000011920929,0.800000011920929,0.800000011920929);
#229=SURFACE_SIDE_STYLE('',(#328));
#230=EDGE_LOOP('',(#329,#330));
#231=AXIS2_PLACEMENT_3D('',#331,#332,#333);
#232=SURFACE_SIDE_STYLE('',(#334));
#233=EDGE_LOOP('',(#335,#336,#337,#338));
#234=AXIS2_PLACEMENT_3D('',#339,#340,#341);
#235=DRAUGHTING_PRE_DEFINED_CURVE_FONT('continuous');
#236=COLOUR_RGB('',0.498039215803146,0.498039215803146,0.498039215803146);
#237=CARTESIAN_POINT('',(-7.34763812293426E-016,6.0,-24.8));
#238=VECTOR('',#342,1.0);
#239=SURFACE_SIDE_STYLE('',(#343));
#240=EDGE_LOOP('',(#344,#345,#346,#347));
#241=AXIS2_PLACEMENT_3D('',#348,#349,#350);
#242=DRAUGHTING_PRE_DEFINED_CURVE_FONT('continuous');
#243=COLOUR_RGB('',0.800000011920929,0.800000011920929,0.800000011920929);
#244=AXIS2_PLACEMENT_3D('',#351,#352,#353);
#245=DRAUGHTING_PRE_DEFINED_CURVE_FONT('continuous');
#246=COLOUR_RGB('',0.800000011920929,0.800000011920929,0.800000011920929);
#247=CARTESIAN_POINT('',(6.78449126961475E-016,-5.54014051,-94.7344999996591));
#248=VECTOR('',#354,1.0);
#249=SURFACE_SIDE_STYLE('',(#355));
#250=EDGE_LOOP('',(#356,#357));
#251=AXIS2_PLACEMENT_3D('',#358,#359,#360);
#252=SURFACE_SIDE_STYLE('',(#361));
#253=EDGE_LOOP('',(#362,#363,#364,#365));
#254=AXIS2_PLACEMENT_3D('',#366,#367,#368);
#255=DRAUGHTING_PRE_DEFINED_CURVE_FONT('continuous');
#256=COLOUR_RGB('',0.498039215803146,0.498039215803146,0.498039215803146);
#257=CARTESIAN_POINT('',(-6.98025621678755E-016,5.7,-0.300000000000004));
#258=VECTOR('',#369,1.0);
#259=DRAUGHTING_PRE_DEFINED_CURVE_FONT('continuous');
#260=COLOUR_RGB('',0.800000011920929,0.800000011920929,0.800000011920929);
#261=CARTESIAN_POINT('',(-6.78449126961475E-016,5.54014051,-94.7344999996591));
#262=VECTOR('',#370,1.0);
#263=DRAUGHTING_PRE_DEFINED_CURVE_FONT('continuous');
#264=COLOUR_RGB('',0.498039215803146,0.498039215803146,0.498039215803146);
#265=AXIS2_PLACEMENT_3D('',#371,#372,#373);
#266=SURFACE_SIDE_STYLE('',(#374));
#267=PRE_DEFINED_MARKER('');
#268=COLOUR_RGB('',0.498039215803146,0.498039215803146,0.498039215803146);
#269=PRE_DEFINED_MARKER('');
#270=COLOUR_RGB('',0.498039215803146,0.498039215803146,0.498039215803146);
#271=DRAUGHTING_PRE_DEFINED_CURVE_FONT('continuous');
#272=COLOUR_RGB('',0.498039215803146,0.498039215803146,0.498039215803146);
#273=CARTESIAN_POINT('',(7.34763812293426E-016,-6.0,-24.8));
#274=VECTOR('',#375,1.0);
#275=DRAUGHTING_PRE_DEFINED_CURVE_FONT('continuous');
#276=COLOUR_RGB('',0.498039215803146,0.498039215803146,0.498039215803146);
#277=AXIS2_PLACEMENT_3D('',#376,#377,#378);
#278=DRAUGHTING_PRE_DEFINED_CURVE_FONT('continuous');
#279=COLOUR_RGB('',0.498039215803146,0.498039215803146,0.498039215803146);
#280=AXIS2_PLACEMENT_3D('',#379,#380,#381);
#281=PRE_DEFINED_MARKER('');
#282=COLOUR_RGB('',0.800000011920929,0.800000011920929,0.800000011920929);
#283=PRE_DEFINED_MARKER('');
#284=COLOUR_RGB('',0.498039215803146,0.498039215803146,0.498039215803146);
#285=PRE_DEFINED_MARKER('');
#286=COLOUR_RGB('',0.498039215803146,0.498039215803146,0.498039215803146);
#287=DRAUGHTING_PRE_DEFINED_CURVE_FONT('continuous');
#288=COLOUR_RGB('',0.498039215803146,0.498039215803146,0.498039215803146);
#289=AXIS2_PLACEMENT_3D('',#382,#383,#384);
#290=DRAUGHTING_PRE_DEFINED_CURVE_FONT('continuous');
#291=COLOUR_RGB('',0.498039215803146,0.498039215803146,0.498039215803146);
#292=CARTESIAN_POINT('',(6.98025621678755E-016,-5.7,-0.300000000000004));
#293=VECTOR('',#385,1.0);
#294=DRAUGHTING_PRE_DEFINED_CURVE_FONT('continuous');
#295=COLOUR_RGB('',0.498039215803146,0.498039215803146,0.498039215803146);
#296=AXIS2_PLACEMENT_3D('',#386,#387,#388);
#298=SURFACE_STYLE_FILL_AREA(#389);
#299=ORIENTED_EDGE('',*,*,#75,.F.);
#300=ORIENTED_EDGE('',*,*,#115,.T.);
#301=ORIENTED_EDGE('',*,*,#99,.F.);
#302=ORIENTED_EDGE('',*,*,#79,.F.);
#303=CARTESIAN_POINT('',(0.0,0.0,-24.8));
#304=DIRECTION('',(-0.0,-0.0,1.0));
#305=DIRECTION('',(0.0,1.0,0.0));
#306=CARTESIAN_POINT('',(0.0,0.0,0.0));
#307=DIRECTION('',(0.0,0.0,-1.0));
#308=DIRECTION('',(0.0,1.0,0.0));
#309=SURFACE_STYLE_FILL_AREA(#390);
#310=ORIENTED_EDGE('',*,*,#87,.T.);
#311=ORIENTED_EDGE('',*,*,#91,.F.);
#312=ORIENTED_EDGE('',*,*,#113,.T.);
#313=ORIENTED_EDGE('',*,*,#101,.T.);
#314=CARTESIAN_POINT('',(0.0,0.0,-0.300000000000004));
#315=DIRECTION('',(0.0,-0.0,-1.0));
#316=DIRECTION('',(0.0,1.0,0.0));
#317=SURFACE_STYLE_FILL_AREA(#391);
#318=ORIENTED_EDGE('',*,*,#89,.T.);
#319=ORIENTED_EDGE('',*,*,#103,.F.);
#320=ORIENTED_EDGE('',*,*,#81,.T.);
#321=ORIENTED_EDGE('',*,*,#67,.T.);
#322=CARTESIAN_POINT('',(0.0,0.0,-94.7344999996591));
#323=DIRECTION('',(-0.0,-0.0,1.0));
#324=DIRECTION('',(0.0,1.0,0.0));
#325=CARTESIAN_POINT('',(0.0,0.0,-94.4689999993182));
#326=DIRECTION('',(0.0,0.0,-1.0));
#327=DIRECTION('',(0.0,1.0,0.0));
#328=SURFACE_STYLE_FILL_AREA(#392);
#329=ORIENTED_EDGE('',*,*,#111,.T.);
#330=ORIENTED_EDGE('',*,*,#103,.T.);
#331=CARTESIAN_POINT('',(0.0,2.54014051,-95.0));
#332=DIRECTION('',(0.0,0.0,-1.0));
#333=DIRECTION('',(0.0,1.0,0.0));
#334=SURFACE_STYLE_FILL_AREA(#393);
#335=ORIENTED_EDGE('',*,*,#89,.F.);
#336=ORIENTED_EDGE('',*,*,#79,.T.);
#337=ORIENTED_EDGE('',*,*,#81,.F.);
#338=ORIENTED_EDGE('',*,*,#111,.F.);
#339=CARTESIAN_POINT('',(0.0,0.0,-94.7344999996591));
#340=DIRECTION('',(-0.0,-0.0,1.0));
#341=DIRECTION('',(0.0,1.0,0.0));
#342=DIRECTION('',(0.0,0.0,-1.0));
#343=SURFACE_STYLE_FILL_AREA(#394);
#344=ORIENTED_EDGE('',*,*,#87,.F.);
#345=ORIENTED_EDGE('',*,*,#57,.T.);
#346=ORIENTED_EDGE('',*,*,#113,.F.);
#347=ORIENTED_EDGE('',*,*,#115,.F.);
#348=CARTESIAN_POINT('',(0.0,0.0,-0.300000000000004));
#349=DIRECTION('',(0.0,-0.0,-1.0));
#350=DIRECTION('',(0.0,1.0,0.0));
#351=CARTESIAN_POINT('',(0.0,0.0,-94.4689999993182));
#352=DIRECTION('',(0.0,0.0,-1.0));
#353=DIRECTION('',(0.0,1.0,0.0));
#354=DIRECTION('',(1.06054021204601E-016,-0.866025403784439,0.5));
#355=SURFACE_STYLE_FILL_AREA(#395);
#356=ORIENTED_EDGE('',*,*,#57,.F.);
#357=ORIENTED_EDGE('',*,*,#101,.F.);
#358=CARTESIAN_POINT('',(0.0,2.7,0.0));
#359=DIRECTION('',(-0.0,0.0,1.0));
#360=DIRECTION('',(0.0,-1.0,0.0));
#361=SURFACE_STYLE_FILL_AREA(#396);
#362=ORIENTED_EDGE('',*,*,#75,.T.);
#363=ORIENTED_EDGE('',*,*,#67,.F.);
#364=ORIENTED_EDGE('',*,*,#99,.T.);
#365=ORIENTED_EDGE('',*,*,#91,.T.);
#366=CARTESIAN_POINT('',(0.0,0.0,-24.8));
#367=DIRECTION('',(-0.0,-0.0,1.0));
#368=DIRECTION('',(0.0,1.0,0.0));
#369=DIRECTION('',(-8.65927457071934E-017,0.707106781186546,-0.707106781186549));
#370=DIRECTION('',(1.06054021204601E-016,-0.866025403784439,-0.5));
#371=CARTESIAN_POINT('',(0.0,0.0,-0.600000000000001));
#372=DIRECTION('',(0.0,0.0,-1.0));
#373=DIRECTION('',(0.0,1.0,0.0));
#374=SURFACE_STYLE_FILL_AREA(#397);
#375=DIRECTION('',(-0.0,-0.0,1.0));
#376=CARTESIAN_POINT('',(0.0,0.0,0.0));
#377=DIRECTION('',(0.0,0.0,-1.0));
#378=DIRECTION('',(0.0,1.0,0.0));
#379=CARTESIAN_POINT('',(0.0,0.0,-95.0));
#380=DIRECTION('',(0.0,0.0,-1.0));
#381=DIRECTION('',(0.0,1.0,0.0));
#382=CARTESIAN_POINT('',(0.0,0.0,-95.0));
#383=DIRECTION('',(0.0,0.0,-1.0));
#384=DIRECTION('',(0.0,1.0,0.0));
#385=DIRECTION('',(-8.65927457071934E-017,0.707106781186546,0.707106781186549));
#386=CARTESIAN_POINT('',(0.0,0.0,-0.600000000000001));
#387=DIRECTION('',(0.0,0.0,-1.0));
#388=DIRECTION('',(0.0,1.0,0.0));
#389=FILL_AREA_STYLE('',(#398));
#390=FILL_AREA_STYLE('',(#399));
#391=FILL_AREA_STYLE('',(#400));
#392=FILL_AREA_STYLE('',(#401));
#393=FILL_AREA_STYLE('',(#402));
#394=FILL_AREA_STYLE('',(#403));
#395=FILL_AREA_STYLE('',(#404));
#396=FILL_AREA_STYLE('',(#405));
#397=FILL_AREA_STYLE('',(#406));
#398=FILL_AREA_STYLE_COLOUR('',#407);
#399=FILL_AREA_STYLE_COLOUR('',#408);
#400=FILL_AREA_STYLE_COLOUR('',#409);
#401=FILL_AREA_STYLE_COLOUR('',#410);
#402=FILL_AREA_STYLE_COLOUR('',#411);
#403=FILL_AREA_STYLE_COLOUR('',#412);
#404=FILL_AREA_STYLE_COLOUR('',#413);
#405=FILL_AREA_STYLE_COLOUR('',#414);
#406=FILL_AREA_STYLE_COLOUR('',#415);
#407=COLOUR_RGB('',0.498039215803146,0.498039215803146,0.498039215803146);
#408=COLOUR_RGB('',0.498039215803146,0.498039215803146,0.498039215803146);
#409=COLOUR_RGB('',0.800000011920929,0.800000011920929,0.800000011920929);
#410=COLOUR_RGB('',0.498039215803146,0.498039215803146,0.498039215803146);
#411=COLOUR_RGB('',0.800000011920929,0.800000011920929,0.800000011920929);
#412=COLOUR_RGB('',0.498039215803146,0.498039215803146,0.498039215803146);
#413=COLOUR_RGB('',0.498039215803146,0.498039215803146,0.498039215803146);
#414=COLOUR_RGB('',0.498039215803146,0.498039215803146,0.498039215803146);
#415=COLOUR_RGB('',0.498039215803146,0.498039215803146,0.498039215803146);
#416=AXIS2_PLACEMENT_3D('PCS',#417,#418,#419);
#417=CARTESIAN_POINT('',(0.0,0.0,0.0));
#418=DIRECTION('',(0.0,0.0,1.0));
#419=DIRECTION('',(1.0,0.0,0.0));
#420=AXIS2_PLACEMENT_3D('CIP',#421,#422,#423);
#421=CARTESIAN_POINT('',(0.0,0.0,-95.0));
#422=DIRECTION('',(0.0,0.0,1.0));
#423=DIRECTION('',(1.0,0.0,0.0));
#424=AXIS2_PLACEMENT_3D('CRP',#425,#426,#427);
#425=CARTESIAN_POINT('',(-6.0,0.0,-95.0));
#426=DIRECTION('',(0.0,0.0,1.0));
#427=DIRECTION('',(1.0,0.0,0.0));
#428=AXIS2_PLACEMENT_3D('MCS',#429,#430,#431);
#429=CARTESIAN_POINT('',(0.0,0.0,-49.0));
#430=DIRECTION('',(0.0,0.0,1.0));
#431=DIRECTION('',(1.0,0.0,0.0));
#432=CONSTRUCTIVE_GEOMETRY_REPRESENTATION_RELATIONSHIP('coordinate systems',$,#45,#433);
#433=CONSTRUCTIVE_GEOMETRY_REPRESENTATION('coordinate systems',(#416,#420,#424,#428),#6);
ENDSEC;
END-ISO-10303-21;
